  0
SECTION
  2
HEADER
  9
$EXTMIN
 10
   0.0
 20
   0.0
  9
$EXTMAX
 10
23280.0
 20
16320.0
  9
$LIMMIN
 10
   0.0
 20
   0.0
  9
$LIMMAX
 10
23280.0
 20
16320.0
  9
$LTSCALE
 40
1200.0
  9
$TEXTSTYLE
  7
BIGFONT
  9
$CLAYER
  8
0
  0
ENDSEC
  0
SECTION
  2
TABLES
  0
TABLE
  2
STYLE
 70
     2
  0
STYLE
  2
STANDARD
 70
     0
 40
0.0
 41
1.0
 50
0.0
 71
     0
 42
0.2
  3
TXT
  4
BIGFONT
  0
STYLE
  2
KANJI
 70
    64
 40
0.0
 41
1.0
 50
0.0
 71
     0
 42
0.2
  3
TXT
  4
BIGFONT
  0
ENDTAB
  0
TABLE
  2
LTYPE
 70
     2
  0
LTYPE
  2
CONTINUOUS
 70
    64
  3
_____________________________________________
 72
    65
 73
     0
 40
0.375
  0
LTYPE
  2
HIDDEN
 70
    64
  3
_ _ _ _ _ _ _ _ _ _ _ _ _ _ _ _ _ _ _ _ _ _ _
 72
    65
 73
     2
 40
0.375
 49
0.25
 49
-0.125
  0
LTYPE
  2
CENTER
 70
    64
  3
____ _ ____ _ ____ _ ____ _ ____ _ ____ _ ____
 72
    65
 73
     4
 40
2.0
 49
1.25
 49
-0.25
 49
0.25
 49
-0.25
  0
LTYPE
  2
DASHED
 70
    64
  3
__ __ __ __ __ __ __ __ __ __ __ __ __ __ __
 72
    65
 73
     2
 40
0.75
 49
0.5
 49
-0.25
  0
LTYPE
  2
PHANTOM
 70
    64
  3
_____ _ _ _____ _ _ _____ _ _ _____ _ _ ____
 72
    65
 73
     6
 40
2.5
 49
1.25
 49
-0.25
 49
0.25
 49
-0.25
 49
0.25
 49
-0.25
  0
ENDTAB
  0
TABLE
  2
LAYER
 70
    18
  0
LAYER
  2
L-1-1
 70
     0
 62
4
  6
CONTINUOUS
  0
LAYER
  2
L-1-2
 70
     0
 62
6
  6
CONTINUOUS
  0
LAYER
  2
L-1-3
 70
     0
 62
2
  6
CONTINUOUS
  0
LAYER
  2
L-2-1
 70
     0
 62
4
  6
HIDDEN
  0
LAYER
  2
L-2-2
 70
     0
 62
6
  6
HIDDEN
  0
LAYER
  2
L-2-3
 70
     0
 62
2
  6
HIDDEN
  0
LAYER
  2
L-3-1
 70
     0
 62
4
  6
CENTER
  0
LAYER
  2
L-3-2
 70
     0
 62
6
  6
CENTER
  0
LAYER
  2
L-3-3
 70
     0
 62
2
  6
CENTER
  0
LAYER
  2
L-4-1
 70
     0
 62
4
  6
DASHED
  0
LAYER
  2
L-4-2
 70
     0
 62
6
  6
DASHED
  0
LAYER
  2
L-4-3
 70
     0
 62
2
  6
DASHED
  0
LAYER
  2
L-5-1
 70
     0
 62
4
  6
PHANTOM
  0
LAYER
  2
L-5-2
 70
     0
 62
6
  6
PHANTOM
  0
LAYER
  2
L-5-3
 70
     0
 62
2
  6
PHANTOM
  0
LAYER
  2
TSHIN
 70
     0
 62
3
  6
CENTER
  0
LAYER
  2
SPLIN
 70
    64
 62
3
  6
CONTINUOUS
  0
LAYER
  2
SPTXT
 70
    64
 62
2
  6
CONTINUOUS
  0
LAYER
  2
NTEXT
 70
    64
 62
2
  6
CONTINUOUS
  0
LAYER
  2
KGLIN
 70
    64
 62
3
  6
CONTINUOUS
  0
LAYER
  2
KGTXT
 70
    64
 62
6
  6
CONTINUOUS
  0
ENDTAB
  0
ENDSEC
  0
SECTION
  2
ENTITIES
  0
LINE
  8
L-1-3
 10
22759.08
 20
543.68
 11
22759.08
 21
16156.73
  0
LINE
  8
L-1-3
 10
406.90
 20
16156.73
 11
22759.08
 21
16156.73
  0
LINE
  8
L-1-3
 10
406.90
 20
543.68
 11
406.90
 21
16156.73
  0
LINE
  8
L-1-3
 10
406.90
 20
543.68
 11
22759.08
 21
543.68
  0
CIRCLE
  8
L-1-1
 10
1874.57
 20
3776.09
 40
30.00
  0
CIRCLE
  8
L-1-1
 10
1874.57
 20
3176.09
 40
30.00
  0
CIRCLE
  8
L-1-1
 10
3674.57
 20
3776.09
 40
30.00
  0
CIRCLE
  8
L-1-1
 10
3674.57
 20
3176.09
 40
30.00
  0
CIRCLE
  8
L-1-1
 10
3904.49
 20
3726.09
 40
30.00
  0
CIRCLE
  8
L-1-1
 10
3904.49
 20
3226.09
 40
30.00
  0
CIRCLE
  8
L-1-1
 10
12674.41
 20
3776.09
 40
30.00
  0
CIRCLE
  8
L-1-1
 10
12674.41
 20
3176.09
 40
30.00
  0
CIRCLE
  8
L-1-1
 10
10874.41
 20
3176.09
 40
30.00
  0
CIRCLE
  8
L-1-1
 10
10874.41
 20
3776.09
 40
30.00
  0
CIRCLE
  8
L-1-1
 10
10644.49
 20
3226.09
 40
30.00
  0
CIRCLE
  8
L-1-1
 10
10644.49
 20
3726.09
 40
30.00
  0
LINE
  8
L-1-1
 10
1874.57
 20
3176.09
 11
1874.57
 21
3776.09
  0
LINE
  8
L-1-1
 10
3674.57
 20
3176.09
 11
3674.57
 21
3776.09
  0
LINE
  8
L-1-1
 10
3624.57
 20
3126.09
 11
3624.57
 21
3226.09
  0
LINE
  8
L-1-1
 10
3624.57
 20
3726.09
 11
3624.57
 21
3826.09
  0
LINE
  8
L-1-1
 10
3709.49
 20
3126.09
 11
3709.49
 21
3226.09
  0
LINE
  8
L-1-1
 10
3709.49
 20
3726.09
 11
3709.49
 21
3826.09
  0
LINE
  8
L-1-1
 10
3709.49
 20
3306.09
 11
3709.49
 21
3366.09
  0
LINE
  8
L-1-1
 10
3709.49
 20
3586.09
 11
3709.49
 21
3646.09
  0
LINE
  8
L-1-1
 10
3724.49
 20
3106.09
 11
3724.49
 21
3126.09
  0
LINE
  8
L-1-1
 10
3724.49
 20
3826.09
 11
3724.49
 21
3846.09
  0
LINE
  8
L-1-1
 10
3724.49
 20
3226.09
 11
3724.49
 21
3306.09
  0
LINE
  8
L-1-1
 10
3724.49
 20
3646.09
 11
3724.49
 21
3726.09
  0
LINE
  8
L-1-1
 10
3724.49
 20
3366.09
 11
3724.49
 21
3586.09
  0
LINE
  8
L-1-1
 10
3779.49
 20
3126.09
 11
3779.49
 21
3226.09
  0
LINE
  8
L-1-1
 10
3779.49
 20
3726.09
 11
3779.49
 21
3826.09
  0
LINE
  8
L-1-1
 10
3774.49
 20
3586.09
 11
3774.49
 21
3646.09
  0
LINE
  8
L-1-1
 10
3774.49
 20
3306.09
 11
3774.49
 21
3366.09
  0
LINE
  8
L-1-1
 10
3764.49
 20
3106.09
 11
3764.49
 21
3126.09
  0
LINE
  8
L-1-1
 10
3764.49
 20
3826.09
 11
3764.49
 21
3846.09
  0
LINE
  8
L-1-1
 10
3764.49
 20
3226.09
 11
3764.49
 21
3306.09
  0
LINE
  8
L-1-1
 10
3764.49
 20
3646.09
 11
3764.49
 21
3726.09
  0
LINE
  8
L-1-1
 10
3764.49
 20
3366.09
 11
3764.49
 21
3586.09
  0
LINE
  8
L-1-1
 10
3784.49
 20
3646.09
 11
3784.49
 21
3666.09
  0
LINE
  8
L-1-1
 10
3784.49
 20
3366.09
 11
3784.49
 21
3586.09
  0
LINE
  8
L-1-1
 10
3784.49
 20
3286.09
 11
3784.49
 21
3306.09
  0
LINE
  8
L-1-1
 10
3824.49
 20
3786.09
 11
3824.49
 21
3846.09
  0
LINE
  8
L-1-1
 10
3824.49
 20
3106.09
 11
3824.49
 21
3166.09
  0
LINE
  8
L-1-1
 10
3824.49
 20
3646.09
 11
3824.49
 21
3666.09
  0
LINE
  8
L-1-1
 10
3824.49
 20
3366.09
 11
3824.49
 21
3586.09
  0
LINE
  8
L-1-1
 10
3824.49
 20
3286.09
 11
3824.49
 21
3306.09
  0
LINE
  8
L-1-1
 10
3904.49
 20
3846.09
 11
3904.49
 21
3886.09
  0
LINE
  8
L-1-1
 10
3904.49
 20
3256.09
 11
3904.49
 21
3696.09
  0
LINE
  8
L-1-1
 10
3904.49
 20
3066.09
 11
3904.49
 21
3106.09
  0
LINE
  8
L-1-1
 10
3839.49
 20
3586.09
 11
3839.49
 21
3646.09
  0
LINE
  8
L-1-1
 10
3839.49
 20
3306.09
 11
3839.49
 21
3366.09
  0
LINE
  8
L-1-1
 10
3944.49
 20
3886.09
 11
3944.49
 21
3926.09
  0
LINE
  8
L-1-1
 10
3944.49
 20
3026.09
 11
3944.49
 21
3066.09
  0
LINE
  8
L-1-1
 10
3959.49
 20
3396.09
 11
3959.49
 21
3436.09
  0
LINE
  8
L-1-1
 10
3979.49
 20
3466.09
 11
3979.49
 21
3646.09
  0
LINE
  8
L-1-1
 10
3939.49
 20
3466.09
 11
3939.49
 21
3646.09
  0
LINE
  8
L-1-1
 10
3919.49
 20
3516.09
 11
3919.49
 21
3596.09
  0
LINE
  8
L-1-1
 10
4024.49
 20
3886.09
 11
4024.49
 21
3926.09
  0
LINE
  8
L-1-1
 10
4024.49
 20
3026.09
 11
4024.49
 21
3066.09
  0
LINE
  8
L-1-1
 10
4039.49
 20
3476.09
 11
4039.49
 21
3636.09
  0
LINE
  8
L-1-1
 10
4119.49
 20
3066.09
 11
4119.49
 21
3886.09
  0
LINE
  8
L-1-1
 10
4079.49
 20
3106.09
 11
4079.49
 21
3846.09
  0
LINE
  8
L-1-1
 10
4059.49
 20
3456.09
 11
4059.49
 21
3656.09
  0
LINE
  8
L-1-1
 10
4159.49
 20
3106.09
 11
4159.49
 21
3846.09
  0
LINE
  8
L-1-2
 10
4399.49
 20
3846.09
 11
4399.49
 21
3886.09
  0
LINE
  8
L-1-2
 10
4399.49
 20
3066.09
 11
4399.49
 21
3106.09
  0
LINE
  8
L-1-2
 10
4459.49
 20
3846.09
 11
4459.49
 21
3886.09
  0
LINE
  8
L-1-2
 10
4459.49
 20
3066.09
 11
4459.49
 21
3106.09
  0
LINE
  8
L-1-2
 10
5094.49
 20
3846.09
 11
5094.49
 21
3886.09
  0
LINE
  8
L-1-2
 10
5094.49
 20
3066.09
 11
5094.49
 21
3106.09
  0
LINE
  8
L-1-2
 10
5154.49
 20
3846.09
 11
5154.49
 21
3886.09
  0
LINE
  8
L-1-2
 10
5154.49
 20
3066.09
 11
5154.49
 21
3106.09
  0
LINE
  8
L-1-1
 10
5394.49
 20
3106.09
 11
5394.49
 21
3846.09
  0
LINE
  8
L-1-1
 10
5434.49
 20
3066.09
 11
5434.49
 21
3886.09
  0
LINE
  8
L-1-1
 10
5474.49
 20
3886.09
 11
5474.49
 21
3943.09
  0
LINE
  8
L-1-1
 10
5474.49
 20
3009.09
 11
5474.49
 21
3066.09
  0
LINE
  8
L-1-1
 10
7234.49
 20
3886.09
 11
7234.49
 21
3943.09
  0
LINE
  8
L-1-1
 10
7234.49
 20
3009.09
 11
7234.49
 21
3066.09
  0
LINE
  8
TSHIN
 10
7274.49
 20
3009.09
 11
7274.49
 21
3943.09
  0
LINE
  8
L-1-1
 10
7314.49
 20
3009.09
 11
7314.49
 21
3066.09
  0
LINE
  8
L-1-1
 10
7314.49
 20
3886.09
 11
7314.49
 21
3943.09
  0
LINE
  8
L-1-1
 10
9114.49
 20
3066.09
 11
9114.49
 21
3886.09
  0
LINE
  8
L-1-1
 10
9074.49
 20
3009.09
 11
9074.49
 21
3066.09
  0
LINE
  8
L-1-1
 10
9074.49
 20
3886.09
 11
9074.49
 21
3943.09
  0
LINE
  8
L-1-1
 10
10029.49
 20
3106.09
 11
10029.49
 21
3846.09
  0
LINE
  8
L-1-1
 10
10189.49
 20
3106.09
 11
10189.49
 21
3846.09
  0
LINE
  8
L-1-1
 10
10429.49
 20
3106.09
 11
10429.49
 21
3846.09
  0
LINE
  8
L-1-1
 10
10389.49
 20
3106.09
 11
10389.49
 21
3846.09
  0
LINE
  8
L-1-1
 10
10524.49
 20
3026.09
 11
10524.49
 21
3066.09
  0
LINE
  8
L-1-1
 10
10524.49
 20
3886.09
 11
10524.49
 21
3926.09
  0
LINE
  8
L-1-1
 10
10469.49
 20
3106.09
 11
10469.49
 21
3846.09
  0
LINE
  8
L-1-1
 10
10489.49
 20
3296.09
 11
10489.49
 21
3496.09
  0
LINE
  8
L-1-1
 10
10509.49
 20
3316.09
 11
10509.49
 21
3476.09
  0
LINE
  8
L-1-1
 10
10589.49
 20
3516.09
 11
10589.49
 21
3556.09
  0
LINE
  8
L-1-1
 10
10569.49
 20
3306.09
 11
10569.49
 21
3486.09
  0
LINE
  8
L-1-1
 10
10604.49
 20
3026.09
 11
10604.49
 21
3066.09
  0
LINE
  8
L-1-1
 10
10604.49
 20
3886.09
 11
10604.49
 21
3926.09
  0
LINE
  8
L-1-1
 10
10609.49
 20
3306.09
 11
10609.49
 21
3486.09
  0
LINE
  8
L-1-1
 10
10629.49
 20
3356.09
 11
10629.49
 21
3436.09
  0
LINE
  8
L-1-1
 10
10644.49
 20
3066.09
 11
10644.49
 21
3106.09
  0
LINE
  8
L-1-1
 10
10644.49
 20
3256.09
 11
10644.49
 21
3696.09
  0
LINE
  8
L-1-1
 10
10644.49
 20
3846.09
 11
10644.49
 21
3886.09
  0
LINE
  8
L-1-1
 10
10709.49
 20
3306.09
 11
10709.49
 21
3366.09
  0
LINE
  8
L-1-1
 10
10709.49
 20
3586.09
 11
10709.49
 21
3646.09
  0
LINE
  8
L-1-1
 10
10724.49
 20
3106.09
 11
10724.49
 21
3166.09
  0
LINE
  8
L-1-1
 10
10724.49
 20
3786.09
 11
10724.49
 21
3846.09
  0
LINE
  8
L-1-1
 10
10724.49
 20
3286.09
 11
10724.49
 21
3306.09
  0
LINE
  8
L-1-1
 10
10724.49
 20
3366.09
 11
10724.49
 21
3586.09
  0
LINE
  8
L-1-1
 10
10724.49
 20
3646.09
 11
10724.49
 21
3666.09
  0
LINE
  8
L-1-1
 10
10769.49
 20
3726.09
 11
10769.49
 21
3826.09
  0
LINE
  8
L-1-1
 10
10769.49
 20
3126.09
 11
10769.49
 21
3226.09
  0
LINE
  8
L-1-1
 10
10774.49
 20
3306.09
 11
10774.49
 21
3366.09
  0
LINE
  8
L-1-1
 10
10774.49
 20
3586.09
 11
10774.49
 21
3646.09
  0
LINE
  8
L-1-1
 10
10824.49
 20
3826.09
 11
10824.49
 21
3846.09
  0
LINE
  8
L-1-1
 10
10824.49
 20
3106.09
 11
10824.49
 21
3126.09
  0
LINE
  8
L-1-1
 10
10824.49
 20
3646.09
 11
10824.49
 21
3726.09
  0
LINE
  8
L-1-1
 10
10824.49
 20
3226.09
 11
10824.49
 21
3306.09
  0
LINE
  8
L-1-1
 10
10824.49
 20
3366.09
 11
10824.49
 21
3586.09
  0
LINE
  8
L-1-1
 10
10784.49
 20
3826.09
 11
10784.49
 21
3846.09
  0
LINE
  8
L-1-1
 10
10784.49
 20
3106.09
 11
10784.49
 21
3126.09
  0
LINE
  8
L-1-1
 10
10784.49
 20
3646.09
 11
10784.49
 21
3726.09
  0
LINE
  8
L-1-1
 10
10784.49
 20
3226.09
 11
10784.49
 21
3306.09
  0
LINE
  8
L-1-1
 10
10784.49
 20
3366.09
 11
10784.49
 21
3586.09
  0
LINE
  8
L-1-1
 10
10764.49
 20
3286.09
 11
10764.49
 21
3306.09
  0
LINE
  8
L-1-1
 10
10764.49
 20
3366.09
 11
10764.49
 21
3586.09
  0
LINE
  8
L-1-1
 10
10764.49
 20
3646.09
 11
10764.49
 21
3666.09
  0
LINE
  8
L-1-1
 10
10874.41
 20
3176.09
 11
10874.41
 21
3776.09
  0
LINE
  8
L-1-1
 10
10839.49
 20
3726.09
 11
10839.49
 21
3826.09
  0
LINE
  8
L-1-1
 10
10839.49
 20
3126.09
 11
10839.49
 21
3226.09
  0
LINE
  8
L-1-1
 10
10839.49
 20
3586.09
 11
10839.49
 21
3646.09
  0
LINE
  8
L-1-1
 10
10839.49
 20
3306.09
 11
10839.49
 21
3366.09
  0
LINE
  8
L-1-1
 10
10924.41
 20
3726.09
 11
10924.41
 21
3826.09
  0
LINE
  8
L-1-1
 10
10924.41
 20
3126.09
 11
10924.41
 21
3226.09
  0
LINE
  8
L-1-1
 10
12674.41
 20
3176.09
 11
12674.41
 21
3776.09
  0
LINE
  8
L-1-1
 10
5474.49
 20
3943.09
 11
7234.49
 21
3943.09
  0
LINE
  8
L-1-1
 10
7314.49
 20
3943.09
 11
9074.49
 21
3943.09
  0
LINE
  8
L-1-1
 10
5154.49
 20
3886.09
 11
10644.49
 21
3886.09
  0
LINE
  8
L-1-1
 10
3904.49
 20
3886.09
 11
4399.49
 21
3886.09
  0
LINE
  8
L-1-2
 10
4399.49
 20
3886.09
 11
4459.49
 21
3886.09
  0
LINE
  8
L-1-2
 10
5094.49
 20
3886.09
 11
5154.49
 21
3886.09
  0
LINE
  8
L-1-1
 10
4459.49
 20
3886.09
 11
5094.49
 21
3886.09
  0
LINE
  8
L-1-1
 10
3944.49
 20
3926.09
 11
4024.49
 21
3926.09
  0
LINE
  8
L-1-1
 10
10524.49
 20
3926.09
 11
10604.49
 21
3926.09
  0
LINE
  8
L-1-1
 10
5434.49
 20
3846.09
 11
10724.49
 21
3846.09
  0
LINE
  8
L-1-1
 10
4459.49
 20
3846.09
 11
5094.49
 21
3846.09
  0
LINE
  8
L-1-1
 10
5154.49
 20
3846.09
 11
5394.49
 21
3846.09
  0
LINE
  8
L-1-1
 10
4159.49
 20
3846.09
 11
4399.49
 21
3846.09
  0
LINE
  8
L-1-2
 10
4399.49
 20
3846.09
 11
4459.49
 21
3846.09
  0
LINE
  8
L-1-2
 10
5094.49
 20
3846.09
 11
5154.49
 21
3846.09
  0
LINE
  8
L-1-1
 10
3824.49
 20
3846.09
 11
4119.49
 21
3846.09
  0
LINE
  8
L-1-1
 10
3724.49
 20
3846.09
 11
3764.49
 21
3846.09
  0
LINE
  8
L-1-1
 10
10784.49
 20
3846.09
 11
10824.49
 21
3846.09
  0
LINE
  8
L-1-1
 10
3624.57
 20
3826.09
 11
3779.49
 21
3826.09
  0
LINE
  8
L-1-1
 10
10769.49
 20
3826.09
 11
10924.41
 21
3826.09
  0
LINE
  8
L-1-1
 10
3824.49
 20
3786.09
 11
4119.49
 21
3786.09
  0
LINE
  8
L-1-1
 10
10429.49
 20
3786.09
 11
10724.49
 21
3786.09
  0
LINE
  8
L-1-1
 10
1874.57
 20
3776.09
 11
3674.57
 21
3776.09
  0
LINE
  8
L-1-1
 10
10874.41
 20
3776.09
 11
12674.41
 21
3776.09
  0
LINE
  8
L-1-1
 10
3624.57
 20
3726.09
 11
3779.49
 21
3726.09
  0
LINE
  8
L-1-1
 10
10769.49
 20
3726.09
 11
10924.41
 21
3726.09
  0
LINE
  8
L-1-1
 10
3939.49
 20
3646.09
 11
3979.49
 21
3646.09
  0
LINE
  8
L-1-1
 10
3709.49
 20
3646.09
 11
3839.49
 21
3646.09
  0
LINE
  8
L-1-1
 10
10709.49
 20
3646.09
 11
10839.49
 21
3646.09
  0
LINE
  8
L-1-1
 10
3979.49
 20
3586.09
 11
4039.49
 21
3586.09
  0
LINE
  8
L-1-1
 10
3709.49
 20
3586.09
 11
3839.49
 21
3586.09
  0
LINE
  8
L-1-1
 10
10709.49
 20
3586.09
 11
10839.49
 21
3586.09
  0
LINE
  8
L-1-1
 10
4059.49
 20
3656.09
 11
4079.49
 21
3656.09
  0
LINE
  8
L-1-1
 10
4039.49
 20
3636.09
 11
4059.49
 21
3636.09
  0
LINE
  8
L-1-1
 10
3919.49
 20
3596.09
 11
3939.49
 21
3596.09
  0
LINE
  8
L-1-2
 10
3784.49
 20
3666.09
 11
3904.49
 21
3666.09
  0
LINE
  8
L-1-2
 10
10644.49
 20
3666.09
 11
10764.49
 21
3666.09
  0
LINE
  8
L-1-1
 10
3919.49
 20
3516.09
 11
3939.49
 21
3516.09
  0
LINE
  8
L-1-1
 10
10469.49
 20
3516.09
 11
10589.49
 21
3516.09
  0
LINE
  8
L-1-1
 10
4159.49
 20
3496.09
 11
5394.49
 21
3496.09
  0
LINE
  8
L-1-1
 10
10469.49
 20
3496.09
 11
10489.49
 21
3496.09
  0
LINE
  8
TSHIN
 10
1874.57
 20
3476.09
 11
12674.41
 21
3476.09
  0
LINE
  8
L-1-1
 10
4039.49
 20
3476.09
 11
4059.49
 21
3476.09
  0
LINE
  8
L-1-1
 10
10489.49
 20
3476.09
 11
10509.49
 21
3476.09
  0
LINE
  8
TSHIN
 10
3904.49
 20
3556.09
 11
4079.49
 21
3556.09
  0
LINE
  8
L-1-1
 10
3979.49
 20
3526.09
 11
4039.49
 21
3526.09
  0
LINE
  8
L-1-1
 10
10569.49
 20
3486.09
 11
10609.49
 21
3486.09
  0
LINE
  8
L-1-1
 10
10609.49
 20
3436.09
 11
10629.49
 21
3436.09
  0
LINE
  8
L-1-1
 10
3959.49
 20
3436.09
 11
4079.49
 21
3436.09
  0
LINE
  8
L-1-1
 10
4059.49
 20
3456.09
 11
4079.49
 21
3456.09
  0
LINE
  8
L-1-1
 10
4159.49
 20
3456.09
 11
5394.49
 21
3456.09
  0
LINE
  8
L-3-1
 10
10469.49
 20
3396.09
 11
10644.49
 21
3396.09
  0
LINE
  8
L-1-1
 10
10509.49
 20
3426.09
 11
10569.49
 21
3426.09
  0
LINE
  8
L-1-1
 10
3939.49
 20
3466.09
 11
3979.49
 21
3466.09
  0
LINE
  8
L-1-2
 10
10644.49
 20
3286.09
 11
10764.49
 21
3286.09
  0
LINE
  8
L-1-2
 10
3784.49
 20
3286.09
 11
3904.49
 21
3286.09
  0
LINE
  8
L-1-1
 10
10709.49
 20
3306.09
 11
10839.49
 21
3306.09
  0
LINE
  8
L-1-1
 10
10569.49
 20
3306.09
 11
10609.49
 21
3306.09
  0
LINE
  8
L-1-1
 10
3709.49
 20
3306.09
 11
3839.49
 21
3306.09
  0
LINE
  8
L-1-1
 10
10469.49
 20
3296.09
 11
10489.49
 21
3296.09
  0
LINE
  8
L-1-1
 10
10489.49
 20
3316.09
 11
10509.49
 21
3316.09
  0
LINE
  8
L-1-1
 10
10609.49
 20
3356.09
 11
10629.49
 21
3356.09
  0
LINE
  8
L-1-1
 10
10709.49
 20
3366.09
 11
10839.49
 21
3366.09
  0
LINE
  8
L-1-1
 10
10509.49
 20
3366.09
 11
10569.49
 21
3366.09
  0
LINE
  8
L-1-1
 10
3709.49
 20
3366.09
 11
3839.49
 21
3366.09
  0
LINE
  8
L-1-1
 10
1874.57
 20
3176.09
 11
3674.57
 21
3176.09
  0
LINE
  8
L-1-1
 10
10874.41
 20
3176.09
 11
12674.41
 21
3176.09
  0
LINE
  8
L-1-1
 10
3624.57
 20
3226.09
 11
3779.49
 21
3226.09
  0
LINE
  8
L-1-1
 10
10769.49
 20
3226.09
 11
10924.41
 21
3226.09
  0
LINE
  8
L-1-1
 10
5154.49
 20
3106.09
 11
5394.49
 21
3106.09
  0
LINE
  8
L-1-1
 10
4159.49
 20
3106.09
 11
4399.49
 21
3106.09
  0
LINE
  8
L-1-1
 10
5434.49
 20
3106.09
 11
10724.49
 21
3106.09
  0
LINE
  8
L-1-2
 10
4399.49
 20
3106.09
 11
4459.49
 21
3106.09
  0
LINE
  8
L-1-2
 10
5094.49
 20
3106.09
 11
5154.49
 21
3106.09
  0
LINE
  8
L-1-1
 10
3824.49
 20
3106.09
 11
4119.49
 21
3106.09
  0
LINE
  8
L-1-1
 10
3724.49
 20
3106.09
 11
3764.49
 21
3106.09
  0
LINE
  8
L-1-1
 10
10784.49
 20
3106.09
 11
10824.49
 21
3106.09
  0
LINE
  8
L-1-1
 10
4459.49
 20
3106.09
 11
5094.49
 21
3106.09
  0
LINE
  8
L-1-1
 10
10769.49
 20
3126.09
 11
10924.41
 21
3126.09
  0
LINE
  8
L-1-1
 10
3624.57
 20
3126.09
 11
3779.49
 21
3126.09
  0
LINE
  8
L-1-1
 10
10429.49
 20
3166.09
 11
10724.49
 21
3166.09
  0
LINE
  8
L-1-1
 10
3824.49
 20
3166.09
 11
4119.49
 21
3166.09
  0
LINE
  8
L-1-1
 10
7314.49
 20
3009.09
 11
9074.49
 21
3009.09
  0
LINE
  8
L-1-1
 10
5474.49
 20
3009.09
 11
7234.49
 21
3009.09
  0
LINE
  8
L-1-1
 10
3904.49
 20
3066.09
 11
4399.49
 21
3066.09
  0
LINE
  8
L-1-2
 10
4399.49
 20
3066.09
 11
4459.49
 21
3066.09
  0
LINE
  8
L-1-2
 10
5094.49
 20
3066.09
 11
5154.49
 21
3066.09
  0
LINE
  8
L-1-1
 10
5154.49
 20
3066.09
 11
10644.49
 21
3066.09
  0
LINE
  8
L-1-1
 10
4459.49
 20
3066.09
 11
5094.49
 21
3066.09
  0
LINE
  8
L-1-1
 10
10524.49
 20
3026.09
 11
10604.49
 21
3026.09
  0
LINE
  8
L-1-1
 10
3944.49
 20
3026.09
 11
4024.49
 21
3026.09
  0
LINE
  8
L-1-1
 10
5394.49
 20
3106.09
 11
5434.49
 21
3066.09
  0
LINE
  8
L-1-1
 10
4119.49
 20
3886.09
 11
4159.49
 21
3846.09
  0
LINE
  8
L-1-1
 10
3959.49
 20
3396.09
 11
4079.49
 21
3376.09
  0
LINE
  8
L-1-1
 10
3779.49
 20
3726.09
 11
3709.49
 21
3826.09
  0
LINE
  8
L-1-1
 10
3779.49
 20
3126.09
 11
3709.49
 21
3226.09
  0
LINE
  8
L-1-1
 10
3709.49
 20
3646.09
 11
3774.49
 21
3586.09
  0
LINE
  8
L-1-1
 10
3774.49
 20
3646.09
 11
3839.49
 21
3586.09
  0
LINE
  8
L-1-1
 10
3709.49
 20
3366.09
 11
3774.49
 21
3306.09
  0
LINE
  8
L-1-1
 10
3774.49
 20
3366.09
 11
3839.49
 21
3306.09
  0
LINE
  8
L-1-1
 10
10469.49
 20
3576.09
 11
10589.49
 21
3556.09
  0
LINE
  8
L-1-1
 10
10839.49
 20
3126.09
 11
10769.49
 21
3226.09
  0
LINE
  8
L-1-1
 10
10839.49
 20
3726.09
 11
10769.49
 21
3826.09
  0
LINE
  8
L-1-1
 10
10774.49
 20
3366.09
 11
10839.49
 21
3306.09
  0
LINE
  8
L-1-1
 10
10709.49
 20
3366.09
 11
10774.49
 21
3306.09
  0
LINE
  8
L-1-1
 10
10774.49
 20
3646.09
 11
10839.49
 21
3586.09
  0
LINE
  8
L-1-1
 10
10709.49
 20
3646.09
 11
10774.49
 21
3586.09
  0
LINE
  8
L-1-1
 10
10769.49
 20
3126.09
 11
10839.49
 21
3226.09
  0
LINE
  8
L-1-1
 10
10769.49
 20
3726.09
 11
10839.49
 21
3826.09
  0
LINE
  8
L-1-1
 10
10709.49
 20
3306.09
 11
10774.49
 21
3366.09
  0
LINE
  8
L-1-1
 10
10774.49
 20
3306.09
 11
10839.49
 21
3366.09
  0
LINE
  8
L-1-1
 10
10709.49
 20
3586.09
 11
10774.49
 21
3646.09
  0
LINE
  8
L-1-1
 10
10774.49
 20
3586.09
 11
10839.49
 21
3646.09
  0
LINE
  8
L-1-1
 10
5394.49
 20
3846.09
 11
5434.49
 21
3886.09
  0
LINE
  8
L-1-1
 10
4119.49
 20
3066.09
 11
4159.49
 21
3106.09
  0
LINE
  8
L-1-1
 10
3709.49
 20
3726.09
 11
3779.49
 21
3826.09
  0
LINE
  8
L-1-1
 10
3709.49
 20
3126.09
 11
3779.49
 21
3226.09
  0
LINE
  8
L-1-1
 10
3774.49
 20
3586.09
 11
3839.49
 21
3646.09
  0
LINE
  8
L-1-1
 10
3709.49
 20
3586.09
 11
3774.49
 21
3646.09
  0
LINE
  8
L-1-1
 10
3774.49
 20
3306.09
 11
3839.49
 21
3366.09
  0
LINE
  8
L-1-1
 10
3709.49
 20
3306.09
 11
3774.49
 21
3366.09
  0
CIRCLE
  8
L-1-1
 10
3774.45
 20
9425.90
 40
25.00
  0
CIRCLE
  8
L-1-1
 10
3724.45
 20
9425.90
 40
25.00
  0
CIRCLE
  8
L-1-1
 10
3774.45
 20
11025.90
 40
25.00
  0
CIRCLE
  8
L-1-1
 10
3724.45
 20
11025.90
 40
25.00
  0
CIRCLE
  8
L-1-1
 10
3774.45
 20
12625.90
 40
25.00
  0
CIRCLE
  8
L-1-1
 10
3724.45
 20
12625.90
 40
25.00
  0
CIRCLE
  8
L-1-1
 10
3774.45
 20
14225.90
 40
25.00
  0
CIRCLE
  8
L-1-1
 10
3724.45
 20
14225.90
 40
25.00
  0
CIRCLE
  8
L-1-1
 10
4079.45
 20
9359.90
 40
20.00
  0
CIRCLE
  8
L-1-1
 10
4079.45
 20
9297.18
 40
20.00
  0
CIRCLE
  8
L-1-1
 10
4079.45
 20
9202.34
 40
20.00
  0
CIRCLE
  8
L-1-1
 10
10469.45
 20
9359.90
 40
20.00
  0
CIRCLE
  8
L-1-1
 10
10469.45
 20
9297.18
 40
20.00
  0
CIRCLE
  8
L-1-1
 10
10469.45
 20
9202.34
 40
20.00
  0
CIRCLE
  8
L-1-1
 10
3674.45
 20
9460.90
 40
10.00
  0
CIRCLE
  8
L-1-1
 10
1874.45
 20
8241.90
 40
10.00
  0
CIRCLE
  8
L-1-1
 10
1874.45
 20
9460.90
 40
10.00
  0
CIRCLE
  8
L-1-1
 10
3674.45
 20
8241.90
 40
10.00
  0
CIRCLE
  8
L-1-1
 10
2774.45
 20
8851.40
 40
10.00
  0
ARC
  8
L-1-1
 10
3679.02
 20
8238.85
 40
23.81
 50
258.94
 51
33.70
  0
ARC
  8
L-1-1
 10
1869.88
 20
9463.95
 40
23.81
 50
78.78
 51
213.70
  0
ARC
  8
L-1-1
 10
3679.02
 20
9463.94
 40
23.81
 50
326.31
 51
101.05
  0
ARC
  8
L-1-1
 10
1869.88
 20
8238.86
 40
23.81
 50
146.31
 51
281.05
  0
CIRCLE
  8
L-1-1
 10
3674.45
 20
11160.90
 40
10.00
  0
ARC
  8
L-1-1
 10
3674.45
 20
9941.90
 40
10.00
 50
0.00
 51
90.00
  0
ARC
  8
L-1-1
 10
3674.45
 20
9941.90
 40
10.00
 50
180.00
 51
270.00
  0
ARC
  8
L-1-1
 10
3674.45
 20
9941.90
 40
10.00
 50
90.00
 51
180.00
  0
ARC
  8
L-1-1
 10
3674.45
 20
9941.90
 40
10.00
 50
270.00
 51
0.00
  0
CIRCLE
  8
L-1-1
 10
3674.45
 20
11160.90
 40
10.00
  0
CIRCLE
  8
L-1-1
 10
1874.45
 20
9941.90
 40
10.00
  0
CIRCLE
  8
L-1-1
 10
1874.45
 20
11160.90
 40
10.00
  0
CIRCLE
  8
L-1-1
 10
3674.45
 20
9941.90
 40
10.00
  0
CIRCLE
  8
L-1-1
 10
2774.45
 20
10551.40
 40
10.00
  0
ARC
  8
L-1-1
 10
3679.02
 20
9938.85
 40
23.81
 50
258.94
 51
33.70
  0
ARC
  8
L-1-1
 10
1869.88
 20
11163.95
 40
23.81
 50
78.78
 51
213.70
  0
ARC
  8
L-1-1
 10
3679.02
 20
11163.94
 40
23.81
 50
326.31
 51
101.05
  0
ARC
  8
L-1-1
 10
1869.88
 20
9938.86
 40
23.81
 50
146.31
 51
281.05
  0
CIRCLE
  8
L-1-1
 10
3674.45
 20
12860.90
 40
10.00
  0
ARC
  8
L-1-1
 10
3674.45
 20
11641.90
 40
10.00
 50
0.00
 51
90.00
  0
ARC
  8
L-1-1
 10
3674.45
 20
11641.90
 40
10.00
 50
180.00
 51
270.00
  0
ARC
  8
L-1-1
 10
3674.45
 20
11641.90
 40
10.00
 50
90.00
 51
180.00
  0
ARC
  8
L-1-1
 10
3674.45
 20
11641.90
 40
10.00
 50
270.00
 51
0.00
  0
CIRCLE
  8
L-1-1
 10
3674.45
 20
12860.90
 40
10.00
  0
CIRCLE
  8
L-1-1
 10
1874.45
 20
11641.90
 40
10.00
  0
CIRCLE
  8
L-1-1
 10
1874.45
 20
12860.90
 40
10.00
  0
CIRCLE
  8
L-1-1
 10
3674.45
 20
11641.90
 40
10.00
  0
CIRCLE
  8
L-1-1
 10
2774.45
 20
12251.40
 40
10.00
  0
ARC
  8
L-1-1
 10
3679.02
 20
11638.85
 40
23.81
 50
258.94
 51
33.70
  0
ARC
  8
L-1-1
 10
1869.88
 20
12863.95
 40
23.81
 50
78.78
 51
213.70
  0
ARC
  8
L-1-1
 10
3679.02
 20
12863.94
 40
23.81
 50
326.31
 51
101.05
  0
ARC
  8
L-1-1
 10
1869.88
 20
11638.86
 40
23.81
 50
146.31
 51
281.05
  0
CIRCLE
  8
L-1-1
 10
3674.45
 20
14560.90
 40
10.00
  0
ARC
  8
L-1-1
 10
3674.45
 20
13341.90
 40
10.00
 50
0.00
 51
90.00
  0
ARC
  8
L-1-1
 10
3674.45
 20
13341.90
 40
10.00
 50
180.00
 51
270.00
  0
ARC
  8
L-1-1
 10
3674.45
 20
13341.90
 40
10.00
 50
90.00
 51
180.00
  0
ARC
  8
L-1-1
 10
3674.45
 20
13341.90
 40
10.00
 50
270.00
 51
0.00
  0
CIRCLE
  8
L-1-1
 10
3674.45
 20
14560.90
 40
10.00
  0
CIRCLE
  8
L-1-1
 10
1874.45
 20
13341.90
 40
10.00
  0
CIRCLE
  8
L-1-1
 10
1874.45
 20
14560.90
 40
10.00
  0
CIRCLE
  8
L-1-1
 10
3674.45
 20
13341.90
 40
10.00
  0
CIRCLE
  8
L-1-1
 10
2774.45
 20
13951.40
 40
10.00
  0
ARC
  8
L-1-1
 10
3679.02
 20
13338.85
 40
23.81
 50
258.94
 51
33.70
  0
ARC
  8
L-1-1
 10
1869.88
 20
14563.95
 40
23.81
 50
78.78
 51
213.70
  0
ARC
  8
L-1-1
 10
3679.02
 20
14563.94
 40
23.81
 50
326.31
 51
101.05
  0
ARC
  8
L-1-1
 10
1869.88
 20
13338.86
 40
23.81
 50
146.31
 51
281.05
  0
CIRCLE
  8
L-1-1
 10
10874.45
 20
9460.90
 40
10.00
  0
ARC
  8
L-1-1
 10
10874.45
 20
8241.90
 40
10.00
 50
90.00
 51
180.00
  0
ARC
  8
L-1-1
 10
10874.45
 20
8241.90
 40
10.00
 50
270.00
 51
0.00
  0
ARC
  8
L-1-1
 10
10874.45
 20
8241.90
 40
10.00
 50
0.00
 51
90.00
  0
ARC
  8
L-1-1
 10
10874.45
 20
8241.90
 40
10.00
 50
180.00
 51
270.00
  0
CIRCLE
  8
L-1-1
 10
10774.45
 20
9425.90
 40
25.00
  0
CIRCLE
  8
L-1-1
 10
10824.45
 20
9425.90
 40
25.00
  0
CIRCLE
  8
L-1-1
 10
10774.45
 20
11025.90
 40
25.00
  0
CIRCLE
  8
L-1-1
 10
10824.45
 20
11025.90
 40
25.00
  0
CIRCLE
  8
L-1-1
 10
10774.45
 20
12625.90
 40
25.00
  0
CIRCLE
  8
L-1-1
 10
10824.45
 20
12625.90
 40
25.00
  0
CIRCLE
  8
L-1-1
 10
10774.45
 20
14225.90
 40
25.00
  0
CIRCLE
  8
L-1-1
 10
10824.45
 20
14225.90
 40
25.00
  0
CIRCLE
  8
L-1-1
 10
10874.45
 20
9460.90
 40
10.00
  0
CIRCLE
  8
L-1-1
 10
12674.45
 20
8241.90
 40
10.00
  0
CIRCLE
  8
L-1-1
 10
12674.45
 20
9460.90
 40
10.00
  0
CIRCLE
  8
L-1-1
 10
10874.45
 20
8241.90
 40
10.00
  0
CIRCLE
  8
L-1-1
 10
11774.45
 20
8851.40
 40
10.00
  0
ARC
  8
L-1-1
 10
10869.88
 20
8238.85
 40
23.81
 50
146.30
 51
281.06
  0
ARC
  8
L-1-1
 10
12679.02
 20
9463.95
 40
23.81
 50
326.30
 51
101.22
  0
ARC
  8
L-1-1
 10
10869.88
 20
9463.94
 40
23.81
 50
78.95
 51
213.69
  0
ARC
  8
L-1-1
 10
12679.02
 20
8238.86
 40
23.81
 50
258.95
 51
33.69
  0
CIRCLE
  8
L-1-1
 10
10874.45
 20
11160.90
 40
10.00
  0
ARC
  8
L-1-1
 10
10874.45
 20
9941.90
 40
10.00
 50
90.00
 51
180.00
  0
ARC
  8
L-1-1
 10
10874.45
 20
9941.90
 40
10.00
 50
270.00
 51
0.00
  0
ARC
  8
L-1-1
 10
10874.45
 20
9941.90
 40
10.00
 50
0.00
 51
90.00
  0
ARC
  8
L-1-1
 10
10874.45
 20
9941.90
 40
10.00
 50
180.00
 51
270.00
  0
CIRCLE
  8
L-1-1
 10
10874.45
 20
11160.90
 40
10.00
  0
CIRCLE
  8
L-1-1
 10
12674.45
 20
9941.90
 40
10.00
  0
CIRCLE
  8
L-1-1
 10
12674.45
 20
11160.90
 40
10.00
  0
CIRCLE
  8
L-1-1
 10
10874.45
 20
9941.90
 40
10.00
  0
CIRCLE
  8
L-1-1
 10
11774.45
 20
10551.40
 40
10.00
  0
ARC
  8
L-1-1
 10
10869.88
 20
9938.85
 40
23.81
 50
146.30
 51
281.06
  0
ARC
  8
L-1-1
 10
12679.02
 20
11163.95
 40
23.81
 50
326.30
 51
101.22
  0
ARC
  8
L-1-1
 10
10869.88
 20
11163.94
 40
23.81
 50
78.95
 51
213.69
  0
ARC
  8
L-1-1
 10
12679.02
 20
9938.86
 40
23.81
 50
258.95
 51
33.69
  0
CIRCLE
  8
L-1-1
 10
10874.45
 20
12860.90
 40
10.00
  0
ARC
  8
L-1-1
 10
10874.45
 20
11641.90
 40
10.00
 50
90.00
 51
180.00
  0
ARC
  8
L-1-1
 10
10874.45
 20
11641.90
 40
10.00
 50
270.00
 51
0.00
  0
ARC
  8
L-1-1
 10
10874.45
 20
11641.90
 40
10.00
 50
0.00
 51
90.00
  0
ARC
  8
L-1-1
 10
10874.45
 20
11641.90
 40
10.00
 50
180.00
 51
270.00
  0
CIRCLE
  8
L-1-1
 10
10874.45
 20
12860.90
 40
10.00
  0
CIRCLE
  8
L-1-1
 10
12674.45
 20
11641.90
 40
10.00
  0
CIRCLE
  8
L-1-1
 10
12674.45
 20
12860.90
 40
10.00
  0
CIRCLE
  8
L-1-1
 10
10874.45
 20
11641.90
 40
10.00
  0
CIRCLE
  8
L-1-1
 10
11774.45
 20
12251.40
 40
10.00
  0
ARC
  8
L-1-1
 10
10869.88
 20
11638.85
 40
23.81
 50
146.30
 51
281.06
  0
ARC
  8
L-1-1
 10
12679.02
 20
12863.95
 40
23.81
 50
326.30
 51
101.22
  0
ARC
  8
L-1-1
 10
10869.88
 20
12863.94
 40
23.81
 50
78.95
 51
213.69
  0
ARC
  8
L-1-1
 10
12679.02
 20
11638.86
 40
23.81
 50
258.95
 51
33.69
  0
CIRCLE
  8
L-1-1
 10
10874.45
 20
14560.90
 40
10.00
  0
ARC
  8
L-1-1
 10
10874.45
 20
13341.90
 40
10.00
 50
90.00
 51
180.00
  0
ARC
  8
L-1-1
 10
10874.45
 20
13341.90
 40
10.00
 50
270.00
 51
0.00
  0
ARC
  8
L-1-1
 10
10874.45
 20
13341.90
 40
10.00
 50
0.00
 51
90.00
  0
ARC
  8
L-1-1
 10
10874.45
 20
13341.90
 40
10.00
 50
180.00
 51
270.00
  0
CIRCLE
  8
L-1-1
 10
10874.45
 20
14560.90
 40
10.00
  0
CIRCLE
  8
L-1-1
 10
12674.45
 20
13341.90
 40
10.00
  0
CIRCLE
  8
L-1-1
 10
12674.45
 20
14560.90
 40
10.00
  0
CIRCLE
  8
L-1-1
 10
10874.45
 20
13341.90
 40
10.00
  0
CIRCLE
  8
L-1-1
 10
11774.45
 20
13951.40
 40
10.00
  0
ARC
  8
L-1-1
 10
10869.88
 20
13338.85
 40
23.81
 50
146.30
 51
281.06
  0
ARC
  8
L-1-1
 10
12679.02
 20
14563.95
 40
23.81
 50
326.30
 51
101.22
  0
ARC
  8
L-1-1
 10
10869.88
 20
14563.94
 40
23.81
 50
78.95
 51
213.69
  0
ARC
  8
L-1-1
 10
12679.02
 20
13338.86
 40
23.81
 50
258.95
 51
33.69
  0
LINE
  8
L-1-1
 10
1734.45
 20
7820.90
 11
1734.45
 21
7855.90
  0
LINE
  8
L-1-1
 10
1804.45
 20
7855.90
 11
1804.45
 21
7875.90
  0
LINE
  8
L-1-1
 10
1759.45
 20
8025.90
 11
1759.45
 21
8045.90
  0
LINE
  8
L-1-1
 10
1899.45
 20
8055.90
 11
1899.45
 21
14815.90
  0
LINE
  8
L-1-1
 10
1899.45
 20
7875.90
 11
1899.45
 21
8015.90
  0
LINE
  8
L-1-1
 10
1849.45
 20
8055.90
 11
1849.45
 21
14815.90
  0
LINE
  8
L-1-1
 10
1849.45
 20
7875.90
 11
1849.45
 21
8015.90
  0
LINE
  8
L-1-1
 10
1829.45
 20
8015.90
 11
1829.45
 21
8055.90
  0
LINE
  8
L-1-1
 10
1919.45
 20
8015.90
 11
1919.45
 21
8055.90
  0
LINE
  8
L-1-1
 10
1944.45
 20
7855.90
 11
1944.45
 21
7875.90
  0
LINE
  8
L-1-1
 10
1989.45
 20
8025.90
 11
1989.45
 21
8045.90
  0
LINE
  8
L-1-1
 10
2014.45
 20
7820.90
 11
2014.45
 21
7855.90
  0
LINE
  8
L-1-1
 10
3534.45
 20
7820.90
 11
3534.45
 21
7855.90
  0
LINE
  8
L-1-1
 10
3604.45
 20
7855.90
 11
3604.45
 21
7875.90
  0
LINE
  8
L-1-1
 10
3559.45
 20
8025.90
 11
3559.45
 21
8045.90
  0
LINE
  8
L-1-1
 10
3649.45
 20
8055.90
 11
3649.45
 21
14815.90
  0
LINE
  8
L-1-1
 10
3649.45
 20
7875.90
 11
3649.45
 21
8015.90
  0
LINE
  8
L-1-1
 10
3629.45
 20
8015.90
 11
3629.45
 21
8055.90
  0
LINE
  8
L-1-1
 10
3719.45
 20
8015.90
 11
3719.45
 21
8055.90
  0
LINE
  8
L-1-1
 10
3744.45
 20
7855.90
 11
3744.45
 21
7875.90
  0
LINE
  8
L-1-1
 10
3699.45
 20
7875.90
 11
3699.45
 21
8015.90
  0
LINE
  8
L-1-1
 10
3699.45
 20
7520.90
 11
3699.45
 21
7820.90
  0
LINE
  8
L-1-1
 10
3699.45
 20
8055.90
 11
3699.45
 21
14815.90
  0
LINE
  8
L-1-1
 10
3789.45
 20
8025.90
 11
3789.45
 21
8045.90
  0
LINE
  8
L-1-1
 10
3769.45
 20
8660.90
 11
3769.45
 21
8700.90
  0
LINE
  8
L-1-1
 10
3814.45
 20
7820.90
 11
3814.45
 21
7855.90
  0
LINE
  8
L-1-1
 10
3799.45
 20
9359.90
 11
3799.45
 21
9450.90
  0
LINE
  8
L-1-1
 10
3799.45
 20
11000.90
 11
3799.45
 21
11050.90
  0
LINE
  8
L-1-1
 10
3799.45
 20
12600.90
 11
3799.45
 21
12650.90
  0
LINE
  8
L-1-1
 10
3799.45
 20
14200.90
 11
3799.45
 21
14250.90
  0
LINE
  8
L-1-1
 10
3849.45
 20
7820.90
 11
3849.45
 21
14815.90
  0
LINE
  8
L-1-1
 10
4019.45
 20
9119.90
 11
4019.45
 21
9400.90
  0
LINE
  8
L-1-1
 10
3999.45
 20
9400.90
 11
3999.45
 21
14815.90
  0
LINE
  8
L-1-1
 10
3999.45
 20
7820.90
 11
3999.45
 21
9359.90
  0
LINE
  8
L-1-1
 10
4039.45
 20
9400.90
 11
4039.45
 21
14815.90
  0
LINE
  8
L-1-1
 10
4039.45
 20
7820.90
 11
4039.45
 21
8660.90
  0
LINE
  8
L-1-1
 10
4039.45
 20
8700.90
 11
4039.45
 21
9119.90
  0
LINE
  8
L-1-1
 10
4099.45
 20
7520.90
 11
4099.45
 21
7820.90
  0
LINE
  8
L-1-1
 10
4119.45
 20
9400.90
 11
4119.45
 21
14815.90
  0
LINE
  8
L-1-1
 10
4119.45
 20
7820.90
 11
4119.45
 21
8660.90
  0
LINE
  8
L-1-1
 10
4119.45
 20
8700.90
 11
4119.45
 21
9119.90
  0
LINE
  8
L-1-1
 10
4199.45
 20
8620.90
 11
4199.45
 21
9319.90
  0
LINE
  8
L-1-1
 10
4199.45
 20
9359.90
 11
4199.45
 21
11353.90
  0
LINE
  8
L-1-1
 10
4139.45
 20
9119.90
 11
4139.45
 21
9400.90
  0
LINE
  8
L-1-1
 10
4159.45
 20
9359.90
 11
4159.45
 21
11393.90
  0
LINE
  8
L-1-1
 10
4279.45
 20
8640.90
 11
4279.45
 21
8880.90
  0
LINE
  8
L-1-1
 10
4279.45
 20
11393.90
 11
4279.45
 21
11433.90
  0
LINE
  8
L-1-1
 10
4239.45
 20
8620.90
 11
4239.45
 21
9319.90
  0
LINE
  8
L-1-1
 10
4319.45
 20
8640.90
 11
4319.45
 21
8880.90
  0
LINE
  8
L-1-1
 10
4319.45
 20
8540.90
 11
4319.45
 21
8620.90
  0
LINE
  8
L-1-1
 10
4359.45
 20
9163.59
 11
4359.45
 21
9199.90
  0
LINE
  8
L-1-1
 10
4359.45
 20
8959.90
 11
4359.45
 21
9104.86
  0
LINE
  8
L-1-1
 10
4479.45
 20
8640.90
 11
4479.45
 21
8880.90
  0
LINE
  8
L-1-1
 10
4439.45
 20
9077.58
 11
4439.45
 21
9199.90
  0
LINE
  8
L-1-1
 10
4439.45
 20
8959.90
 11
4439.45
 21
9018.85
  0
LINE
  8
L-1-1
 10
4561.59
 20
8959.90
 11
4561.59
 21
9319.90
  0
LINE
  8
L-1-1
 10
4519.45
 20
10353.90
 11
4519.45
 21
10393.90
  0
LINE
  8
L-1-1
 10
4519.45
 20
8991.57
 11
4519.45
 21
9199.90
  0
LINE
  8
L-2-1
 10
4519.45
 20
9713.90
 11
4519.45
 21
10313.90
  0
LINE
  8
L-1-1
 10
4521.59
 20
8919.90
 11
4521.59
 21
8959.90
  0
LINE
  8
L-1-1
 10
4639.45
 20
8640.90
 11
4639.45
 21
8880.90
  0
LINE
  8
L-1-1
 10
4839.45
 20
9359.90
 11
4839.45
 21
11353.90
  0
LINE
  8
L-1-1
 10
4919.45
 20
9399.90
 11
4919.45
 21
10273.90
  0
LINE
  8
L-1-1
 10
4879.45
 20
9359.90
 11
4879.45
 21
11353.90
  0
LINE
  8
L-1-1
 10
5003.73
 20
8959.90
 11
5003.73
 21
9319.90
  0
LINE
  8
L-1-1
 10
5039.45
 20
9713.90
 11
5039.45
 21
9873.90
  0
LINE
  8
L-1-1
 10
5039.45
 20
10313.90
 11
5039.45
 21
10393.90
  0
LINE
  8
L-1-1
 10
5039.45
 20
9913.90
 11
5039.45
 21
10273.90
  0
LINE
  8
L-1-1
 10
5116.95
 20
9399.90
 11
5116.95
 21
9873.90
  0
LINE
  8
L-1-1
 10
5156.95
 20
9399.90
 11
5156.95
 21
9873.90
  0
LINE
  8
L-1-1
 10
5354.45
 20
9399.90
 11
5354.45
 21
10273.90
  0
LINE
  8
L-1-1
 10
5394.45
 20
9359.90
 11
5394.45
 21
11353.90
  0
LINE
  8
L-1-1
 10
5445.88
 20
8959.90
 11
5445.88
 21
9319.90
  0
LINE
  8
L-1-1
 10
5434.45
 20
9359.90
 11
5434.45
 21
11433.90
  0
LINE
  8
L-1-1
 10
5514.45
 20
9278.90
 11
5514.45
 21
10273.90
  0
LINE
  8
L-1-1
 10
5474.45
 20
9278.90
 11
5474.45
 21
10313.90
  0
LINE
  8
L-1-1
 10
5554.45
 20
9278.90
 11
5554.45
 21
10273.90
  0
LINE
  8
L-1-1
 10
5594.45
 20
9278.90
 11
5594.45
 21
10273.90
  0
LINE
  8
L-1-1
 10
5888.02
 20
8959.90
 11
5888.02
 21
9319.90
  0
LINE
  8
L-1-1
 10
6330.16
 20
8959.90
 11
6330.16
 21
9319.90
  0
LINE
  8
L-1-1
 10
6354.45
 20
9359.90
 11
6354.45
 21
10273.90
  0
LINE
  8
L-1-1
 10
6772.30
 20
8959.90
 11
6772.30
 21
9319.90
  0
LINE
  8
L-1-1
 10
7154.45
 20
9278.90
 11
7154.45
 21
10273.90
  0
LINE
  8
L-1-1
 10
7114.45
 20
9278.90
 11
7114.45
 21
10273.90
  0
LINE
  8
L-1-1
 10
7214.45
 20
8959.90
 11
7214.45
 21
9278.90
  0
LINE
  8
L-1-1
 10
7194.45
 20
9278.90
 11
7194.45
 21
10273.90
  0
LINE
  8
L-1-1
 10
7234.45
 20
9278.90
 11
7234.45
 21
10313.90
  0
LINE
  8
L-1-1
 10
7314.45
 20
9278.90
 11
7314.45
 21
10313.90
  0
LINE
  8
L-1-1
 10
7354.45
 20
9278.90
 11
7354.45
 21
10273.90
  0
LINE
  8
L-1-1
 10
7394.45
 20
9278.90
 11
7394.45
 21
10273.90
  0
LINE
  8
L-1-1
 10
7334.45
 20
8959.90
 11
7334.45
 21
9278.90
  0
LINE
  8
L-1-1
 10
7434.45
 20
9278.90
 11
7434.45
 21
10273.90
  0
LINE
  8
L-1-1
 10
7776.60
 20
8959.90
 11
7776.60
 21
9319.90
  0
LINE
  8
L-1-1
 10
8194.45
 20
9359.90
 11
8194.45
 21
10273.90
  0
LINE
  8
L-1-1
 10
8218.74
 20
8959.90
 11
8218.74
 21
9319.90
  0
LINE
  8
L-1-1
 10
8660.88
 20
8959.90
 11
8660.88
 21
9319.90
  0
LINE
  8
L-1-1
 10
8954.45
 20
9278.90
 11
8954.45
 21
10273.90
  0
LINE
  8
L-1-1
 10
9034.45
 20
9278.90
 11
9034.45
 21
10273.90
  0
LINE
  8
L-1-1
 10
8994.45
 20
9278.90
 11
8994.45
 21
10273.90
  0
LINE
  8
L-1-1
 10
9103.02
 20
8959.90
 11
9103.02
 21
9319.90
  0
LINE
  8
L-1-1
 10
9074.45
 20
9278.90
 11
9074.45
 21
10313.90
  0
LINE
  8
L-1-2
 10
9154.45
 20
9359.90
 11
9154.45
 21
10433.90
  0
LINE
  8
L-1-1
 10
9194.45
 20
9359.90
 11
9194.45
 21
10393.90
  0
LINE
  8
L-1-1
 10
9545.17
 20
8959.90
 11
9545.17
 21
9319.90
  0
LINE
  8
L-1-1
 10
9909.45
 20
8640.90
 11
9909.45
 21
8880.90
  0
LINE
  8
L-1-1
 10
9987.31
 20
8959.90
 11
9987.31
 21
9319.90
  0
LINE
  8
L-1-1
 10
10027.31
 20
8919.90
 11
10027.31
 21
8959.90
  0
LINE
  8
L-1-1
 10
10069.45
 20
8640.90
 11
10069.45
 21
8880.90
  0
LINE
  8
L-1-1
 10
10029.45
 20
8991.57
 11
10029.45
 21
9199.90
  0
LINE
  8
L-1-1
 10
10109.45
 20
9077.58
 11
10109.45
 21
9199.90
  0
LINE
  8
L-1-1
 10
10109.45
 20
8959.90
 11
10109.45
 21
9018.85
  0
LINE
  8
L-1-1
 10
10229.45
 20
8640.90
 11
10229.45
 21
8880.90
  0
LINE
  8
L-1-1
 10
10229.45
 20
8540.90
 11
10229.45
 21
8620.90
  0
LINE
  8
L-1-1
 10
10189.45
 20
9163.59
 11
10189.45
 21
9199.90
  0
LINE
  8
L-1-1
 10
10189.45
 20
8959.90
 11
10189.45
 21
9104.86
  0
LINE
  8
L-1-1
 10
10269.45
 20
8640.90
 11
10269.45
 21
8880.90
  0
LINE
  8
L-1-1
 10
10349.45
 20
8620.90
 11
10349.45
 21
9319.90
  0
LINE
  8
L-1-1
 10
10349.45
 20
9359.90
 11
10349.45
 21
10393.90
  0
LINE
  8
L-1-1
 10
10309.45
 20
8620.90
 11
10309.45
 21
9319.90
  0
LINE
  8
L-1-1
 10
10409.45
 20
9119.90
 11
10409.45
 21
9400.90
  0
LINE
  8
L-1-1
 10
10449.45
 20
7520.90
 11
10449.45
 21
7820.90
  0
LINE
  8
L-1-1
 10
10429.45
 20
9400.90
 11
10429.45
 21
14815.90
  0
LINE
  8
L-1-1
 10
10429.45
 20
7820.90
 11
10429.45
 21
8660.90
  0
LINE
  8
L-1-1
 10
10429.45
 20
8700.90
 11
10429.45
 21
9119.90
  0
LINE
  8
L-1-2
 10
10389.45
 20
9359.90
 11
10389.45
 21
10433.90
  0
LINE
  8
L-1-1
 10
10509.45
 20
9400.90
 11
10509.45
 21
14815.90
  0
LINE
  8
L-1-1
 10
10509.45
 20
7820.90
 11
10509.45
 21
8660.90
  0
LINE
  8
L-1-1
 10
10509.45
 20
8700.90
 11
10509.45
 21
9119.90
  0
LINE
  8
L-1-1
 10
10529.45
 20
9119.90
 11
10529.45
 21
9400.90
  0
LINE
  8
L-1-1
 10
10549.45
 20
9400.90
 11
10549.45
 21
14815.90
  0
LINE
  8
L-1-1
 10
10549.45
 20
7820.90
 11
10549.45
 21
9359.90
  0
LINE
  8
L-1-1
 10
10734.45
 20
7820.90
 11
10734.45
 21
7855.90
  0
LINE
  8
L-1-1
 10
10749.45
 20
9359.90
 11
10749.45
 21
9450.90
  0
LINE
  8
L-1-1
 10
10749.45
 20
11000.90
 11
10749.45
 21
11050.90
  0
LINE
  8
L-1-1
 10
10749.45
 20
12600.90
 11
10749.45
 21
12650.90
  0
LINE
  8
L-1-1
 10
10749.45
 20
14200.90
 11
10749.45
 21
14250.90
  0
LINE
  8
L-1-1
 10
10699.45
 20
7820.90
 11
10699.45
 21
14815.90
  0
LINE
  8
L-1-1
 10
10804.45
 20
7855.90
 11
10804.45
 21
7875.90
  0
LINE
  8
L-1-1
 10
10779.45
 20
8660.90
 11
10779.45
 21
8700.90
  0
LINE
  8
L-1-1
 10
10759.45
 20
8025.90
 11
10759.45
 21
8045.90
  0
LINE
  8
L-1-1
 10
10849.45
 20
7875.90
 11
10849.45
 21
8015.90
  0
LINE
  8
L-1-1
 10
10849.45
 20
7520.90
 11
10849.45
 21
7820.90
  0
LINE
  8
L-1-1
 10
10849.45
 20
8055.90
 11
10849.45
 21
14815.90
  0
LINE
  8
L-1-1
 10
10899.45
 20
8055.90
 11
10899.45
 21
14815.90
  0
LINE
  8
L-1-1
 10
10899.45
 20
7875.90
 11
10899.45
 21
8015.90
  0
LINE
  8
L-1-1
 10
10829.45
 20
8015.90
 11
10829.45
 21
8055.90
  0
LINE
  8
L-1-1
 10
10919.45
 20
8015.90
 11
10919.45
 21
8055.90
  0
LINE
  8
L-1-1
 10
10944.45
 20
7855.90
 11
10944.45
 21
7875.90
  0
LINE
  8
L-1-1
 10
10989.45
 20
8025.90
 11
10989.45
 21
8045.90
  0
LINE
  8
L-1-1
 10
11014.45
 20
7820.90
 11
11014.45
 21
7855.90
  0
LINE
  8
L-1-1
 10
12534.45
 20
7820.90
 11
12534.45
 21
7855.90
  0
LINE
  8
L-1-1
 10
12604.45
 20
7855.90
 11
12604.45
 21
7875.90
  0
LINE
  8
L-1-1
 10
12559.45
 20
8025.90
 11
12559.45
 21
8045.90
  0
LINE
  8
L-1-1
 10
12629.45
 20
8015.90
 11
12629.45
 21
8055.90
  0
LINE
  8
L-1-1
 10
12649.45
 20
8055.90
 11
12649.45
 21
14815.90
  0
LINE
  8
L-1-1
 10
12649.45
 20
7875.90
 11
12649.45
 21
8015.90
  0
LINE
  8
L-1-1
 10
12699.45
 20
8055.90
 11
12699.45
 21
14815.90
  0
LINE
  8
L-1-1
 10
12699.45
 20
7875.90
 11
12699.45
 21
8015.90
  0
LINE
  8
L-1-1
 10
12744.45
 20
7855.90
 11
12744.45
 21
7875.90
  0
LINE
  8
L-1-1
 10
12719.45
 20
8015.90
 11
12719.45
 21
8055.90
  0
LINE
  8
L-1-1
 10
12814.45
 20
7820.90
 11
12814.45
 21
7855.90
  0
LINE
  8
L-1-1
 10
12789.45
 20
8025.90
 11
12789.45
 21
8045.90
  0
LINE
  8
L-1-1
 10
1849.45
 20
14815.90
 11
12699.45
 21
14815.90
  0
LINE
  8
L-1-1
 10
10899.45
 20
14740.90
 11
12649.45
 21
14740.90
  0
LINE
  8
L-1-1
 10
1899.45
 20
14740.90
 11
3649.45
 21
14740.90
  0
LINE
  8
L-1-1
 10
10899.45
 20
14790.90
 11
12649.45
 21
14790.90
  0
LINE
  8
L-1-1
 10
1899.45
 20
14790.90
 11
3649.45
 21
14790.90
  0
LINE
  8
L-1-1
 10
3849.45
 20
14260.90
 11
3999.45
 21
14260.90
  0
LINE
  8
L-1-1
 10
10549.45
 20
14260.90
 11
10699.45
 21
14260.90
  0
LINE
  8
L-1-1
 10
10699.45
 20
14250.90
 11
10749.45
 21
14250.90
  0
LINE
  8
L-1-1
 10
3649.45
 20
14250.90
 11
3699.45
 21
14250.90
  0
LINE
  8
L-1-1
 10
3799.45
 20
14250.90
 11
3849.45
 21
14250.90
  0
LINE
  8
L-1-1
 10
10849.45
 20
14250.90
 11
10899.45
 21
14250.90
  0
LINE
  8
L-1-1
 10
10699.45
 20
14200.90
 11
10749.45
 21
14200.90
  0
LINE
  8
L-1-1
 10
3649.45
 20
14200.90
 11
3699.45
 21
14200.90
  0
LINE
  8
L-1-1
 10
3799.45
 20
14200.90
 11
3849.45
 21
14200.90
  0
LINE
  8
L-1-1
 10
10849.45
 20
14200.90
 11
10899.45
 21
14200.90
  0
LINE
  8
L-1-1
 10
10899.45
 20
13090.90
 11
12649.45
 21
13090.90
  0
LINE
  8
L-1-1
 10
1899.45
 20
13090.90
 11
3649.45
 21
13090.90
  0
LINE
  8
L-1-1
 10
3649.45
 20
13115.90
 11
3699.45
 21
13115.90
  0
LINE
  8
L-1-1
 10
12649.45
 20
13115.90
 11
12699.45
 21
13115.90
  0
LINE
  8
L-1-1
 10
10849.45
 20
13115.90
 11
10899.45
 21
13115.90
  0
LINE
  8
L-1-1
 10
1849.45
 20
13115.90
 11
1899.45
 21
13115.90
  0
LINE
  8
L-1-1
 10
10899.45
 20
13040.90
 11
12649.45
 21
13040.90
  0
LINE
  8
L-1-1
 10
1899.45
 20
13040.90
 11
3649.45
 21
13040.90
  0
LINE
  8
L-1-1
 10
10549.45
 20
12660.90
 11
10699.45
 21
12660.90
  0
LINE
  8
L-1-1
 10
3849.45
 20
12660.90
 11
3999.45
 21
12660.90
  0
LINE
  8
L-1-1
 10
3799.45
 20
12650.90
 11
3849.45
 21
12650.90
  0
LINE
  8
L-1-1
 10
10849.45
 20
12650.90
 11
10899.45
 21
12650.90
  0
LINE
  8
L-1-1
 10
10699.45
 20
12650.90
 11
10749.45
 21
12650.90
  0
LINE
  8
L-1-1
 10
3649.45
 20
12650.90
 11
3699.45
 21
12650.90
  0
LINE
  8
L-1-1
 10
3799.45
 20
12600.90
 11
3849.45
 21
12600.90
  0
LINE
  8
L-1-1
 10
10849.45
 20
12600.90
 11
10899.45
 21
12600.90
  0
LINE
  8
L-1-1
 10
10699.45
 20
12600.90
 11
10749.45
 21
12600.90
  0
LINE
  8
L-1-1
 10
3649.45
 20
12600.90
 11
3699.45
 21
12600.90
  0
LINE
  8
L-1-1
 10
10899.45
 20
11390.90
 11
12649.45
 21
11390.90
  0
LINE
  8
L-1-1
 10
1899.45
 20
11390.90
 11
3649.45
 21
11390.90
  0
LINE
  8
L-1-1
 10
4159.45
 20
11393.90
 11
5434.45
 21
11393.90
  0
LINE
  8
L-1-1
 10
4279.45
 20
11433.90
 11
5434.45
 21
11433.90
  0
LINE
  8
L-1-1
 10
3649.45
 20
11415.90
 11
3699.45
 21
11415.90
  0
LINE
  8
L-1-1
 10
12649.45
 20
11415.90
 11
12699.45
 21
11415.90
  0
LINE
  8
L-1-1
 10
10849.45
 20
11415.90
 11
10899.45
 21
11415.90
  0
LINE
  8
L-1-1
 10
1849.45
 20
11415.90
 11
1899.45
 21
11415.90
  0
LINE
  8
L-1-1
 10
4199.45
 20
11353.90
 11
5394.45
 21
11353.90
  0
LINE
  8
L-1-1
 10
10899.45
 20
11340.90
 11
12649.45
 21
11340.90
  0
LINE
  8
L-1-1
 10
1899.45
 20
11340.90
 11
3649.45
 21
11340.90
  0
LINE
  8
L-1-1
 10
10549.45
 20
11060.90
 11
10699.45
 21
11060.90
  0
LINE
  8
L-1-1
 10
3849.45
 20
11060.90
 11
3999.45
 21
11060.90
  0
LINE
  8
L-1-1
 10
3799.45
 20
11050.90
 11
3849.45
 21
11050.90
  0
LINE
  8
L-1-1
 10
10849.45
 20
11050.90
 11
10899.45
 21
11050.90
  0
LINE
  8
L-1-1
 10
10699.45
 20
11050.90
 11
10749.45
 21
11050.90
  0
LINE
  8
L-1-1
 10
3649.45
 20
11050.90
 11
3699.45
 21
11050.90
  0
LINE
  8
L-1-1
 10
3799.45
 20
11000.90
 11
3849.45
 21
11000.90
  0
LINE
  8
L-1-1
 10
10849.45
 20
11000.90
 11
10899.45
 21
11000.90
  0
LINE
  8
L-1-1
 10
10699.45
 20
11000.90
 11
10749.45
 21
11000.90
  0
LINE
  8
L-1-1
 10
3649.45
 20
11000.90
 11
3699.45
 21
11000.90
  0
LINE
  8
L-1-1
 10
4519.45
 20
10393.90
 11
4839.45
 21
10393.90
  0
LINE
  8
L-1-1
 10
9194.45
 20
10393.90
 11
10349.45
 21
10393.90
  0
LINE
  8
L-1-1
 10
4879.45
 20
10393.90
 11
5039.45
 21
10393.90
  0
LINE
  8
L-1-2
 10
9154.45
 20
10433.90
 11
10389.45
 21
10433.90
  0
LINE
  8
L-1-1
 10
4199.45
 20
10353.90
 11
4839.45
 21
10353.90
  0
LINE
  8
L-1-1
 10
9194.45
 20
10353.90
 11
10349.45
 21
10353.90
  0
LINE
  8
L-1-1
 10
4879.45
 20
10353.90
 11
5039.45
 21
10353.90
  0
LINE
  8
L-1-1
 10
4199.45
 20
10313.90
 11
4839.45
 21
10313.90
  0
LINE
  8
L-1-1
 10
5474.45
 20
10313.90
 11
7234.45
 21
10313.90
  0
LINE
  8
L-1-1
 10
9194.45
 20
10313.90
 11
10349.45
 21
10313.90
  0
LINE
  8
L-1-1
 10
7314.45
 20
10313.90
 11
9074.45
 21
10313.90
  0
LINE
  8
L-1-1
 10
4879.45
 20
10313.90
 11
5394.45
 21
10313.90
  0
LINE
  8
L-1-1
 10
4919.45
 20
10273.90
 11
5354.45
 21
10273.90
  0
LINE
  8
L-1-1
 10
7354.45
 20
10273.90
 11
9034.45
 21
10273.90
  0
LINE
  8
L-1-1
 10
5514.45
 20
10273.90
 11
7194.45
 21
10273.90
  0
LINE
  8
L-1-1
 10
4919.45
 20
9913.90
 11
5354.45
 21
9913.90
  0
LINE
  8
L-1-1
 10
4919.45
 20
9873.90
 11
5354.45
 21
9873.90
  0
LINE
  8
L-1-2
 10
7434.45
 20
9836.90
 11
8954.45
 21
9836.90
  0
LINE
  8
L-1-2
 10
5594.45
 20
9836.90
 11
7114.45
 21
9836.90
  0
LINE
  8
L-2-1
 10
4519.45
 20
9713.90
 11
4839.45
 21
9713.90
  0
LINE
  8
L-1-1
 10
4919.45
 20
9713.90
 11
5039.45
 21
9713.90
  0
LINE
  8
L-1-1
 10
3649.45
 20
9715.90
 11
3699.45
 21
9715.90
  0
LINE
  8
L-1-1
 10
12649.45
 20
9715.90
 11
12699.45
 21
9715.90
  0
LINE
  8
L-1-1
 10
10849.45
 20
9715.90
 11
10899.45
 21
9715.90
  0
LINE
  8
L-1-1
 10
1849.45
 20
9715.90
 11
1899.45
 21
9715.90
  0
LINE
  8
L-1-1
 10
10899.45
 20
9690.90
 11
12649.45
 21
9690.90
  0
LINE
  8
L-1-1
 10
1899.45
 20
9690.90
 11
3649.45
 21
9690.90
  0
LINE
  8
L-1-1
 10
10899.45
 20
9640.90
 11
12649.45
 21
9640.90
  0
LINE
  8
L-1-1
 10
1899.45
 20
9640.90
 11
3649.45
 21
9640.90
  0
LINE
  8
L-1-1
 10
4919.45
 20
9519.90
 11
5116.95
 21
9519.90
  0
LINE
  8
L-1-1
 10
5156.95
 20
9519.90
 11
5354.45
 21
9519.90
  0
LINE
  8
L-1-1
 10
10549.45
 20
9460.90
 11
10699.45
 21
9460.90
  0
LINE
  8
L-1-1
 10
3849.45
 20
9460.90
 11
3999.45
 21
9460.90
  0
LINE
  8
L-1-1
 10
3799.45
 20
9450.90
 11
3849.45
 21
9450.90
  0
LINE
  8
L-1-1
 10
10849.45
 20
9450.90
 11
10899.45
 21
9450.90
  0
LINE
  8
L-1-1
 10
10699.45
 20
9450.90
 11
10749.45
 21
9450.90
  0
LINE
  8
L-1-1
 10
3649.45
 20
9450.90
 11
3699.45
 21
9450.90
  0
LINE
  8
L-1-1
 10
4199.45
 20
9439.90
 11
4839.45
 21
9439.90
  0
LINE
  8
L-1-1
 10
3799.45
 20
9400.90
 11
4139.45
 21
9400.90
  0
LINE
  8
L-1-1
 10
10849.45
 20
9400.90
 11
10899.45
 21
9400.90
  0
LINE
  8
L-1-1
 10
10409.45
 20
9400.90
 11
10749.45
 21
9400.90
  0
LINE
  8
L-1-1
 10
3649.45
 20
9400.90
 11
3699.45
 21
9400.90
  0
LINE
  8
L-1-1
 10
4139.45
 20
9359.90
 11
5474.45
 21
9359.90
  0
LINE
  8
L-1-1
 10
5594.45
 20
9359.90
 11
7114.45
 21
9359.90
  0
LINE
  8
L-1-1
 10
7154.45
 20
9359.90
 11
7194.45
 21
9359.90
  0
LINE
  8
L-1-1
 10
7234.45
 20
9359.90
 11
7314.45
 21
9359.90
  0
LINE
  8
L-1-1
 10
3799.45
 20
9359.90
 11
4019.45
 21
9359.90
  0
LINE
  8
L-1-1
 10
7354.45
 20
9359.90
 11
7394.45
 21
9359.90
  0
LINE
  8
L-1-1
 10
7434.45
 20
9359.90
 11
8954.45
 21
9359.90
  0
LINE
  8
L-1-1
 10
8994.45
 20
9359.90
 11
9034.45
 21
9359.90
  0
LINE
  8
L-1-1
 10
10529.45
 20
9359.90
 11
10749.45
 21
9359.90
  0
LINE
  8
L-1-1
 10
9074.45
 20
9359.90
 11
10409.45
 21
9359.90
  0
LINE
  8
L-1-1
 10
5514.45
 20
9359.90
 11
5554.45
 21
9359.90
  0
LINE
  8
L-1-1
 10
7154.45
 20
9319.90
 11
7194.45
 21
9319.90
  0
LINE
  8
L-1-1
 10
4139.45
 20
9319.90
 11
5474.45
 21
9319.90
  0
LINE
  8
L-1-1
 10
5594.45
 20
9319.90
 11
7114.45
 21
9319.90
  0
LINE
  8
L-1-1
 10
5514.45
 20
9319.90
 11
5554.45
 21
9319.90
  0
LINE
  8
L-1-1
 10
7354.45
 20
9319.90
 11
7394.45
 21
9319.90
  0
LINE
  8
L-1-1
 10
7434.45
 20
9319.90
 11
8954.45
 21
9319.90
  0
LINE
  8
L-1-1
 10
8994.45
 20
9319.90
 11
9034.45
 21
9319.90
  0
LINE
  8
L-1-1
 10
9074.45
 20
9319.90
 11
10409.45
 21
9319.90
  0
LINE
  8
L-1-1
 10
7234.45
 20
9319.90
 11
7314.45
 21
9319.90
  0
LINE
  8
L-1-1
 10
4919.45
 20
9399.90
 11
5354.45
 21
9399.90
  0
LINE
  8
L-1-1
 10
4199.45
 20
9399.90
 11
4839.45
 21
9399.90
  0
LINE
  8
L-1-1
 10
7314.45
 20
9278.90
 11
7434.45
 21
9278.90
  0
LINE
  8
L-1-1
 10
7114.45
 20
9278.90
 11
7234.45
 21
9278.90
  0
LINE
  8
L-1-1
 10
8954.45
 20
9278.90
 11
9074.45
 21
9278.90
  0
LINE
  8
L-1-1
 10
5474.45
 20
9278.90
 11
5594.45
 21
9278.90
  0
LINE
  8
L-1-1
 10
4019.45
 20
9119.90
 11
4199.45
 21
9119.90
  0
LINE
  8
L-1-1
 10
10203.44
 20
9119.90
 11
10309.45
 21
9119.90
  0
LINE
  8
L-1-1
 10
10349.45
 20
9119.90
 11
10529.45
 21
9119.90
  0
LINE
  8
L-1-1
 10
4239.45
 20
9119.90
 11
4345.46
 21
9119.90
  0
LINE
  8
L-1-1
 10
10029.45
 20
9199.90
 11
10189.45
 21
9199.90
  0
LINE
  8
L-1-1
 10
4359.45
 20
9199.90
 11
4519.45
 21
9199.90
  0
LINE
  8
L-1-1
 10
4119.45
 20
9039.90
 11
4199.45
 21
9039.90
  0
LINE
  8
L-1-1
 10
10189.45
 20
9039.90
 11
10309.45
 21
9039.90
  0
LINE
  8
L-1-1
 10
10349.45
 20
9039.90
 11
10429.45
 21
9039.90
  0
LINE
  8
L-1-1
 10
4239.45
 20
9039.90
 11
4359.45
 21
9039.90
  0
LINE
  8
L-1-1
 10
4521.59
 20
8919.90
 11
10027.31
 21
8919.90
  0
LINE
  8
L-1-1
 10
4359.45
 20
8959.90
 11
4494.28
 21
8959.90
  0
LINE
  8
L-1-1
 10
10054.62
 20
8959.90
 11
10189.45
 21
8959.90
  0
LINE
  8
L-1-1
 10
4521.59
 20
8959.90
 11
10027.31
 21
8959.90
  0
LINE
  8
L-1-1
 10
4119.45
 20
8820.90
 11
4199.45
 21
8820.90
  0
LINE
  8
L-1-1
 10
10229.45
 20
8820.90
 11
10269.45
 21
8820.90
  0
LINE
  8
L-1-1
 10
10349.45
 20
8820.90
 11
10429.45
 21
8820.90
  0
LINE
  8
L-1-1
 10
4279.45
 20
8820.90
 11
4319.45
 21
8820.90
  0
LINE
  8
L-1-1
 10
10069.45
 20
8840.90
 11
10229.45
 21
8840.90
  0
LINE
  8
L-1-1
 10
4319.45
 20
8840.90
 11
4479.45
 21
8840.90
  0
LINE
  8
L-1-1
 10
4239.45
 20
8880.90
 11
4279.45
 21
8880.90
  0
LINE
  8
L-1-1
 10
9909.45
 20
8880.90
 11
10229.45
 21
8880.90
  0
LINE
  8
L-1-1
 10
10269.45
 20
8880.90
 11
10309.45
 21
8880.90
  0
LINE
  8
L-1-1
 10
4319.45
 20
8880.90
 11
4639.45
 21
8880.90
  0
LINE
  8
L-1-1
 10
10069.45
 20
8760.90
 11
10229.45
 21
8760.90
  0
LINE
  8
L-1-1
 10
4319.45
 20
8760.90
 11
4479.45
 21
8760.90
  0
LINE
  8
L-1-1
 10
10069.45
 20
8720.90
 11
10229.45
 21
8720.90
  0
LINE
  8
L-1-1
 10
4319.45
 20
8720.90
 11
4479.45
 21
8720.90
  0
LINE
  8
L-1-1
 10
10069.45
 20
8800.90
 11
10229.45
 21
8800.90
  0
LINE
  8
L-1-1
 10
4319.45
 20
8800.90
 11
4479.45
 21
8800.90
  0
LINE
  8
L-1-1
 10
3769.45
 20
8700.90
 11
3849.45
 21
8700.90
  0
LINE
  8
L-1-1
 10
3999.45
 20
8700.90
 11
4199.45
 21
8700.90
  0
LINE
  8
L-1-1
 10
10699.45
 20
8700.90
 11
10779.45
 21
8700.90
  0
LINE
  8
L-1-1
 10
10229.45
 20
8700.90
 11
10269.45
 21
8700.90
  0
LINE
  8
L-1-1
 10
10349.45
 20
8700.90
 11
10549.45
 21
8700.90
  0
LINE
  8
L-1-1
 10
4279.45
 20
8700.90
 11
4319.45
 21
8700.90
  0
LINE
  8
L-1-1
 10
10349.45
 20
8660.90
 11
10779.45
 21
8660.90
  0
LINE
  8
L-1-1
 10
3769.45
 20
8660.90
 11
4199.45
 21
8660.90
  0
LINE
  8
L-1-1
 10
10069.45
 20
8680.90
 11
10229.45
 21
8680.90
  0
LINE
  8
L-1-1
 10
4319.45
 20
8680.90
 11
4479.45
 21
8680.90
  0
LINE
  8
L-1-1
 10
4239.45
 20
8620.90
 11
4319.45
 21
8620.90
  0
LINE
  8
L-1-1
 10
10309.45
 20
8620.90
 11
10349.45
 21
8620.90
  0
LINE
  8
L-1-1
 10
10229.45
 20
8620.90
 11
10309.45
 21
8620.90
  0
LINE
  8
L-1-1
 10
4199.45
 20
8620.90
 11
4239.45
 21
8620.90
  0
LINE
  8
L-1-1
 10
4239.45
 20
8640.90
 11
4279.45
 21
8640.90
  0
LINE
  8
L-1-1
 10
9909.45
 20
8640.90
 11
10229.45
 21
8640.90
  0
LINE
  8
L-1-1
 10
10269.45
 20
8640.90
 11
10309.45
 21
8640.90
  0
LINE
  8
L-1-1
 10
4319.45
 20
8640.90
 11
4639.45
 21
8640.90
  0
LINE
  8
L-1-1
 10
1919.45
 20
8025.90
 11
1989.45
 21
8025.90
  0
LINE
  8
L-1-1
 10
3559.45
 20
8025.90
 11
3629.45
 21
8025.90
  0
LINE
  8
L-1-1
 10
3719.45
 20
8025.90
 11
3789.45
 21
8025.90
  0
LINE
  8
L-1-1
 10
12719.45
 20
8025.90
 11
12789.45
 21
8025.90
  0
LINE
  8
L-1-1
 10
12559.45
 20
8025.90
 11
12629.45
 21
8025.90
  0
LINE
  8
L-1-1
 10
10919.45
 20
8025.90
 11
10989.45
 21
8025.90
  0
LINE
  8
L-1-1
 10
10759.45
 20
8025.90
 11
10829.45
 21
8025.90
  0
LINE
  8
L-1-1
 10
1759.45
 20
8025.90
 11
1829.45
 21
8025.90
  0
LINE
  8
L-1-1
 10
1919.45
 20
8045.90
 11
1989.45
 21
8045.90
  0
LINE
  8
L-1-1
 10
3559.45
 20
8045.90
 11
3629.45
 21
8045.90
  0
LINE
  8
L-1-1
 10
3719.45
 20
8045.90
 11
3789.45
 21
8045.90
  0
LINE
  8
L-1-1
 10
12719.45
 20
8045.90
 11
12789.45
 21
8045.90
  0
LINE
  8
L-1-1
 10
12559.45
 20
8045.90
 11
12629.45
 21
8045.90
  0
LINE
  8
L-1-1
 10
10919.45
 20
8045.90
 11
10989.45
 21
8045.90
  0
LINE
  8
L-1-1
 10
10759.45
 20
8045.90
 11
10829.45
 21
8045.90
  0
LINE
  8
L-1-1
 10
1759.45
 20
8045.90
 11
1829.45
 21
8045.90
  0
LINE
  8
L-1-1
 10
1829.45
 20
8055.90
 11
1919.45
 21
8055.90
  0
LINE
  8
L-1-1
 10
10829.45
 20
8055.90
 11
10919.45
 21
8055.90
  0
LINE
  8
L-1-1
 10
12629.45
 20
8055.90
 11
12719.45
 21
8055.90
  0
LINE
  8
L-1-1
 10
3629.45
 20
8055.90
 11
3719.45
 21
8055.90
  0
LINE
  8
L-1-1
 10
3629.45
 20
8015.90
 11
3719.45
 21
8015.90
  0
LINE
  8
L-1-1
 10
12629.45
 20
8015.90
 11
12719.45
 21
8015.90
  0
LINE
  8
L-1-1
 10
10829.45
 20
8015.90
 11
10919.45
 21
8015.90
  0
LINE
  8
L-1-1
 10
1829.45
 20
8015.90
 11
1919.45
 21
8015.90
  0
LINE
  8
L-1-1
 10
3534.45
 20
7855.90
 11
3814.45
 21
7855.90
  0
LINE
  8
L-1-1
 10
12534.45
 20
7855.90
 11
12814.45
 21
7855.90
  0
LINE
  8
L-1-1
 10
10734.45
 20
7855.90
 11
11014.45
 21
7855.90
  0
LINE
  8
L-1-1
 10
1734.45
 20
7855.90
 11
2014.45
 21
7855.90
  0
LINE
  8
L-1-1
 10
3604.45
 20
7875.90
 11
3744.45
 21
7875.90
  0
LINE
  8
L-1-1
 10
12604.45
 20
7875.90
 11
12744.45
 21
7875.90
  0
LINE
  8
L-1-1
 10
10804.45
 20
7875.90
 11
10944.45
 21
7875.90
  0
LINE
  8
L-1-1
 10
1804.45
 20
7875.90
 11
1944.45
 21
7875.90
  0
LINE
  8
L-1-2
 10
1734.45
 20
7820.90
 11
12814.45
 21
7820.90
  0
LINE
  8
L-1-1
 10
10449.45
 20
7520.90
 11
10849.45
 21
7520.90
  0
LINE
  8
L-1-1
 10
3699.45
 20
7520.90
 11
4099.45
 21
7520.90
  0
LINE
  8
L-1-1
 10
5003.73
 20
9319.90
 11
5445.88
 21
8959.90
  0
LINE
  8
L-1-1
 10
5888.02
 20
9319.90
 11
6330.16
 21
8959.90
  0
LINE
  8
L-1-1
 10
6772.30
 20
9319.90
 11
7214.45
 21
8959.90
  0
LINE
  8
L-1-1
 10
5474.45
 20
10313.90
 11
5514.45
 21
10273.90
  0
LINE
  8
L-1-1
 10
4561.59
 20
8959.90
 11
4361.59
 21
9319.90
  0
LINE
  8
L-1-1
 10
4521.59
 20
8930.53
 11
4239.45
 21
9233.88
  0
LINE
  8
L-1-1
 10
4548.91
 20
8959.90
 11
4239.45
 21
9292.61
  0
LINE
  8
L-1-1
 10
10449.45
 20
7789.65
 11
10807.78
 21
7520.90
  0
LINE
  8
L-1-1
 10
10491.12
 20
7820.90
 11
10849.45
 21
7552.15
  0
LINE
  8
L-1-1
 10
9545.17
 20
9319.90
 11
9987.31
 21
8959.90
  0
LINE
  8
L-1-1
 10
8660.88
 20
9319.90
 11
9103.02
 21
8959.90
  0
LINE
  8
L-1-1
 10
7776.60
 20
9319.90
 11
8218.74
 21
8959.90
  0
LINE
  8
L-1-1
 10
7314.45
 20
10313.90
 11
7354.45
 21
10273.90
  0
LINE
  8
L-1-1
 10
5594.45
 20
9836.90
 11
6354.45
 21
9359.90
  0
LINE
  8
L-1-1
 10
5744.94
 20
9836.90
 11
6354.45
 21
9454.35
  0
LINE
  8
L-1-1
 10
5895.43
 20
9836.90
 11
6354.45
 21
9548.80
  0
LINE
  8
L-1-1
 10
6045.92
 20
9836.90
 11
6354.45
 21
9643.25
  0
LINE
  8
L-1-1
 10
6196.41
 20
9836.90
 11
6354.45
 21
9737.71
  0
LINE
  8
L-1-1
 10
5594.45
 20
9742.45
 11
6203.96
 21
9359.90
  0
LINE
  8
L-1-1
 10
5594.45
 20
9648.00
 11
6053.47
 21
9359.90
  0
LINE
  8
L-1-1
 10
5594.45
 20
9553.55
 11
5902.98
 21
9359.90
  0
LINE
  8
L-1-1
 10
5594.45
 20
9459.09
 11
5752.49
 21
9359.90
  0
LINE
  8
L-1-1
 10
6354.45
 20
9836.90
 11
7114.45
 21
9359.90
  0
LINE
  8
L-1-1
 10
6504.94
 20
9836.90
 11
7114.45
 21
9454.35
  0
LINE
  8
L-1-1
 10
6655.43
 20
9836.90
 11
7114.45
 21
9548.80
  0
LINE
  8
L-1-1
 10
6805.92
 20
9836.90
 11
7114.45
 21
9643.25
  0
LINE
  8
L-1-1
 10
6956.41
 20
9836.90
 11
7114.45
 21
9737.71
  0
LINE
  8
L-1-1
 10
6354.45
 20
9742.45
 11
6963.96
 21
9359.90
  0
LINE
  8
L-1-1
 10
6354.45
 20
9648.00
 11
6813.47
 21
9359.90
  0
LINE
  8
L-1-1
 10
6354.45
 20
9553.55
 11
6662.98
 21
9359.90
  0
LINE
  8
L-1-1
 10
6354.45
 20
9459.09
 11
6512.49
 21
9359.90
  0
LINE
  8
L-1-1
 10
8194.45
 20
9836.90
 11
8954.45
 21
9359.90
  0
LINE
  8
L-1-1
 10
8344.94
 20
9836.90
 11
8954.45
 21
9454.35
  0
LINE
  8
L-1-1
 10
8495.43
 20
9836.90
 11
8954.45
 21
9548.80
  0
LINE
  8
L-1-1
 10
8645.92
 20
9836.90
 11
8954.45
 21
9643.25
  0
LINE
  8
L-1-1
 10
8796.41
 20
9836.90
 11
8954.45
 21
9737.71
  0
LINE
  8
L-1-1
 10
8194.45
 20
9742.45
 11
8803.96
 21
9359.90
  0
LINE
  8
L-1-1
 10
8194.45
 20
9648.00
 11
8653.47
 21
9359.90
  0
LINE
  8
L-1-1
 10
8194.45
 20
9553.55
 11
8502.98
 21
9359.90
  0
LINE
  8
L-1-1
 10
8194.45
 20
9459.09
 11
8352.49
 21
9359.90
  0
LINE
  8
L-1-1
 10
7434.45
 20
9836.90
 11
8194.45
 21
9359.90
  0
LINE
  8
L-1-1
 10
7584.94
 20
9836.90
 11
8194.45
 21
9454.35
  0
LINE
  8
L-1-1
 10
7735.43
 20
9836.90
 11
8194.45
 21
9548.80
  0
LINE
  8
L-1-1
 10
7885.92
 20
9836.90
 11
8194.45
 21
9643.25
  0
LINE
  8
L-1-1
 10
8036.41
 20
9836.90
 11
8194.45
 21
9737.71
  0
LINE
  8
L-1-1
 10
7434.45
 20
9742.45
 11
8043.96
 21
9359.90
  0
LINE
  8
L-1-1
 10
7434.45
 20
9648.00
 11
7893.47
 21
9359.90
  0
LINE
  8
L-1-1
 10
7434.45
 20
9553.55
 11
7742.98
 21
9359.90
  0
LINE
  8
L-1-1
 10
7434.45
 20
9459.09
 11
7592.49
 21
9359.90
  0
LINE
  8
L-1-1
 10
4159.45
 20
11393.90
 11
4199.45
 21
11353.90
  0
LINE
  8
L-1-1
 10
9154.45
 20
10433.90
 11
9194.45
 21
10393.90
  0
LINE
  8
L-1-1
 10
4532.88
 20
9746.47
 11
4839.45
 21
9439.90
  0
LINE
  8
L-1-1
 10
4589.45
 20
9803.04
 11
4839.45
 21
9553.04
  0
LINE
  8
L-1-1
 10
4646.02
 20
9859.61
 11
4839.45
 21
9666.17
  0
LINE
  8
L-1-1
 10
4702.59
 20
9916.17
 11
4839.45
 21
9779.31
  0
LINE
  8
L-1-1
 10
4792.00
 20
9939.90
 11
4839.45
 21
9892.45
  0
LINE
  8
L-1-1
 10
4476.31
 20
9689.90
 11
4726.31
 21
9439.90
  0
LINE
  8
L-1-1
 10
4419.74
 20
9633.33
 11
4613.18
 21
9439.90
  0
LINE
  8
L-1-1
 10
4363.18
 20
9576.76
 11
4500.04
 21
9439.90
  0
LINE
  8
L-1-1
 10
4339.45
 20
9487.35
 11
4386.90
 21
9439.90
  0
LINE
  8
L-1-1
 10
9194.45
 20
10313.90
 11
9557.59
 21
9950.76
  0
LINE
  8
L-1-1
 10
9307.59
 20
10313.90
 11
9614.16
 21
10007.33
  0
LINE
  8
L-1-1
 10
9420.72
 20
10313.90
 11
9670.72
 21
10063.90
  0
LINE
  8
L-1-1
 10
9533.86
 20
10313.90
 11
9694.45
 21
10153.31
  0
LINE
  8
L-1-1
 10
9647.00
 20
10313.90
 11
9694.45
 21
10266.45
  0
LINE
  8
L-1-1
 10
9194.45
 20
10200.76
 11
9501.02
 21
9894.19
  0
LINE
  8
L-1-1
 10
9194.45
 20
10087.63
 11
9444.45
 21
9837.63
  0
LINE
  8
L-1-1
 10
9194.45
 20
9974.49
 11
9355.04
 21
9813.90
  0
LINE
  8
L-1-1
 10
9194.45
 20
9861.35
 11
9241.90
 21
9813.90
  0
LINE
  8
L-1-1
 10
4199.45
 20
10313.90
 11
4506.02
 21
10007.33
  0
LINE
  8
L-1-1
 10
4312.59
 20
10313.90
 11
4562.59
 21
10063.90
  0
LINE
  8
L-1-1
 10
4425.72
 20
10313.90
 11
4619.16
 21
10120.47
  0
LINE
  8
L-1-1
 10
4538.86
 20
10313.90
 11
4675.72
 21
10177.04
  0
LINE
  8
L-1-1
 10
4652.00
 20
10313.90
 11
4699.45
 21
10266.45
  0
LINE
  8
L-1-1
 10
4199.45
 20
10200.76
 11
4449.45
 21
9950.76
  0
LINE
  8
L-1-1
 10
4199.45
 20
10087.63
 11
4392.88
 21
9894.19
  0
LINE
  8
L-1-1
 10
4199.45
 20
9974.49
 11
4336.31
 21
9837.63
  0
LINE
  8
L-1-1
 10
4199.45
 20
9861.35
 11
4246.90
 21
9813.90
  0
LINE
  8
L-1-1
 10
9986.31
 20
9723.04
 11
10349.45
 21
9359.90
  0
LINE
  8
L-1-1
 10
10042.88
 20
9779.61
 11
10349.45
 21
9473.04
  0
LINE
  8
L-1-1
 10
10099.45
 20
9836.17
 11
10349.45
 21
9586.17
  0
LINE
  8
L-1-1
 10
10188.86
 20
9859.90
 11
10349.45
 21
9699.31
  0
LINE
  8
L-1-1
 10
10302.00
 20
9859.90
 11
10349.45
 21
9812.45
  0
LINE
  8
L-1-1
 10
9929.74
 20
9666.47
 11
10236.31
 21
9359.90
  0
LINE
  8
L-1-1
 10
9873.18
 20
9609.90
 11
10123.18
 21
9359.90
  0
LINE
  8
L-1-1
 10
9849.45
 20
9520.49
 11
10010.04
 21
9359.90
  0
LINE
  8
L-1-1
 10
9849.45
 20
9407.35
 11
9896.90
 21
9359.90
  0
LINE
  8
L-1-1
 10
3626.93
 20
8299.98
 11
3698.83
 21
8252.06
  0
LINE
  8
L-1-1
 10
1874.45
 20
9487.31
 11
1946.23
 21
9439.50
  0
LINE
  8
L-1-1
 10
1850.07
 20
9450.74
 11
1921.97
 21
9402.82
  0
LINE
  8
L-1-1
 10
3602.56
 20
8263.41
 11
3674.45
 21
8215.49
  0
LINE
  8
L-1-1
 10
3586.30
 20
8318.26
 11
3626.93
 21
8299.98
  0
LINE
  8
L-1-1
 10
3570.05
 20
8293.88
 11
3602.56
 21
8263.41
  0
LINE
  8
L-1-1
 10
1946.34
 20
9439.39
 11
1978.85
 21
9408.92
  0
LINE
  8
L-1-1
 10
1921.97
 20
9402.82
 11
1962.60
 21
9384.54
  0
LINE
  8
L-1-1
 10
1962.60
 20
9384.54
 11
2748.36
 21
8851.40
  0
LINE
  8
L-1-1
 10
2774.45
 20
8833.70
 11
3570.05
 21
8293.88
  0
LINE
  8
L-1-1
 10
2800.54
 20
8851.40
 11
3586.30
 21
8318.26
  0
LINE
  8
L-1-1
 10
1978.85
 20
9408.92
 11
2774.45
 21
8869.10
  0
LINE
  8
L-1-1
 10
3626.93
 20
9999.98
 11
3698.83
 21
9952.06
  0
LINE
  8
L-1-1
 10
1874.45
 20
11187.31
 11
1946.23
 21
11139.50
  0
LINE
  8
L-1-1
 10
1850.07
 20
11150.74
 11
1921.97
 21
11102.82
  0
LINE
  8
L-1-1
 10
3602.56
 20
9963.41
 11
3674.45
 21
9915.49
  0
LINE
  8
L-1-1
 10
3586.30
 20
10018.26
 11
3626.93
 21
9999.98
  0
LINE
  8
L-1-1
 10
3570.05
 20
9993.88
 11
3602.56
 21
9963.41
  0
LINE
  8
L-1-1
 10
1946.34
 20
11139.39
 11
1978.85
 21
11108.92
  0
LINE
  8
L-1-1
 10
1921.97
 20
11102.82
 11
1962.60
 21
11084.54
  0
LINE
  8
L-1-1
 10
1962.60
 20
11084.54
 11
2748.36
 21
10551.40
  0
LINE
  8
L-1-1
 10
2774.45
 20
10533.70
 11
3570.05
 21
9993.88
  0
LINE
  8
L-1-1
 10
2800.54
 20
10551.40
 11
3586.30
 21
10018.26
  0
LINE
  8
L-1-1
 10
1978.85
 20
11108.92
 11
2774.45
 21
10569.10
  0
LINE
  8
L-1-1
 10
3626.93
 20
11699.98
 11
3698.83
 21
11652.06
  0
LINE
  8
L-1-1
 10
1874.45
 20
12887.31
 11
1946.23
 21
12839.50
  0
LINE
  8
L-1-1
 10
1850.07
 20
12850.74
 11
1921.97
 21
12802.82
  0
LINE
  8
L-1-1
 10
3602.56
 20
11663.41
 11
3674.45
 21
11615.49
  0
LINE
  8
L-1-1
 10
3586.30
 20
11718.26
 11
3626.93
 21
11699.98
  0
LINE
  8
L-1-1
 10
3570.05
 20
11693.88
 11
3602.56
 21
11663.41
  0
LINE
  8
L-1-1
 10
1946.34
 20
12839.39
 11
1978.85
 21
12808.92
  0
LINE
  8
L-1-1
 10
1921.97
 20
12802.82
 11
1962.60
 21
12784.54
  0
LINE
  8
L-1-1
 10
1962.60
 20
12784.54
 11
2748.36
 21
12251.40
  0
LINE
  8
L-1-1
 10
2774.45
 20
12233.70
 11
3570.05
 21
11693.88
  0
LINE
  8
L-1-1
 10
2800.54
 20
12251.40
 11
3586.30
 21
11718.26
  0
LINE
  8
L-1-1
 10
1978.85
 20
12808.92
 11
2774.45
 21
12269.10
  0
LINE
  8
L-1-1
 10
3626.93
 20
13399.98
 11
3698.83
 21
13352.06
  0
LINE
  8
L-1-1
 10
1874.45
 20
14587.31
 11
1946.23
 21
14539.50
  0
LINE
  8
L-1-1
 10
1850.07
 20
14550.74
 11
1921.97
 21
14502.82
  0
LINE
  8
L-1-1
 10
3602.56
 20
13363.41
 11
3674.45
 21
13315.49
  0
LINE
  8
L-1-1
 10
3586.30
 20
13418.26
 11
3626.93
 21
13399.98
  0
LINE
  8
L-1-1
 10
3570.05
 20
13393.88
 11
3602.56
 21
13363.41
  0
LINE
  8
L-1-1
 10
1946.34
 20
14539.39
 11
1978.85
 21
14508.92
  0
LINE
  8
L-1-1
 10
1921.97
 20
14502.82
 11
1962.60
 21
14484.54
  0
LINE
  8
L-1-1
 10
1962.60
 20
14484.54
 11
2748.36
 21
13951.40
  0
LINE
  8
L-1-1
 10
2774.45
 20
13933.70
 11
3570.05
 21
13393.88
  0
LINE
  8
L-1-1
 10
2800.54
 20
13951.40
 11
3586.30
 21
13418.26
  0
LINE
  8
L-1-1
 10
1978.85
 20
14508.92
 11
2774.45
 21
13969.10
  0
LINE
  8
L-1-1
 10
10860.31
 20
8015.90
 11
10899.45
 21
7976.76
  0
LINE
  8
L-1-1
 10
10849.45
 20
7998.47
 11
10899.45
 21
7948.47
  0
LINE
  8
L-1-1
 10
10849.45
 20
7970.19
 11
10899.45
 21
7920.19
  0
LINE
  8
L-1-1
 10
10849.45
 20
7941.91
 11
10899.45
 21
7891.91
  0
LINE
  8
L-1-1
 10
10849.45
 20
7913.62
 11
10887.17
 21
7875.90
  0
LINE
  8
L-1-1
 10
12660.31
 20
8015.90
 11
12699.45
 21
7976.76
  0
LINE
  8
L-1-1
 10
12649.45
 20
7998.47
 11
12699.45
 21
7948.47
  0
LINE
  8
L-1-1
 10
12649.45
 20
7970.19
 11
12699.45
 21
7920.19
  0
LINE
  8
L-1-1
 10
12649.45
 20
7941.91
 11
12699.45
 21
7891.91
  0
LINE
  8
L-1-1
 10
12649.45
 20
7913.62
 11
12687.17
 21
7875.90
  0
LINE
  8
L-1-1
 10
12626.93
 20
8299.98
 11
12698.83
 21
8252.06
  0
LINE
  8
L-1-1
 10
10874.45
 20
9487.31
 11
10946.34
 21
9439.39
  0
LINE
  8
L-1-1
 10
12602.56
 20
8263.41
 11
12674.45
 21
8215.49
  0
LINE
  8
L-1-1
 10
10850.07
 20
9450.74
 11
10921.97
 21
9402.82
  0
LINE
  8
L-1-1
 10
10946.34
 20
9439.39
 11
10978.85
 21
9408.92
  0
LINE
  8
L-1-1
 10
10921.97
 20
9402.82
 11
10962.60
 21
9384.54
  0
LINE
  8
L-1-1
 10
12586.30
 20
8318.26
 11
12626.93
 21
8299.98
  0
LINE
  8
L-1-1
 10
12570.05
 20
8293.88
 11
12602.56
 21
8263.41
  0
LINE
  8
L-1-1
 10
10978.85
 20
9408.92
 11
12586.30
 21
8318.26
  0
LINE
  8
L-1-1
 10
10962.60
 20
9384.54
 11
12570.05
 21
8293.88
  0
LINE
  8
L-1-1
 10
12626.93
 20
9999.98
 11
12698.83
 21
9952.06
  0
LINE
  8
L-1-1
 10
10874.45
 20
11187.31
 11
10946.34
 21
11139.39
  0
LINE
  8
L-1-1
 10
12602.56
 20
9963.41
 11
12674.45
 21
9915.49
  0
LINE
  8
L-1-1
 10
10850.07
 20
11150.74
 11
10921.97
 21
11102.82
  0
LINE
  8
L-1-1
 10
10946.34
 20
11139.39
 11
10978.85
 21
11108.92
  0
LINE
  8
L-1-1
 10
10921.97
 20
11102.82
 11
10962.60
 21
11084.54
  0
LINE
  8
L-1-1
 10
12586.30
 20
10018.26
 11
12626.93
 21
9999.98
  0
LINE
  8
L-1-1
 10
12570.05
 20
9993.88
 11
12602.56
 21
9963.41
  0
LINE
  8
L-1-1
 10
10978.85
 20
11108.92
 11
12586.30
 21
10018.26
  0
LINE
  8
L-1-1
 10
10962.60
 20
11084.54
 11
12570.05
 21
9993.88
  0
LINE
  8
L-1-1
 10
12626.93
 20
11699.98
 11
12698.83
 21
11652.06
  0
LINE
  8
L-1-1
 10
10874.45
 20
12887.31
 11
10946.34
 21
12839.39
  0
LINE
  8
L-1-1
 10
12602.56
 20
11663.41
 11
12674.45
 21
11615.49
  0
LINE
  8
L-1-1
 10
10850.07
 20
12850.74
 11
10921.97
 21
12802.82
  0
LINE
  8
L-1-1
 10
10946.34
 20
12839.39
 11
10978.85
 21
12808.92
  0
LINE
  8
L-1-1
 10
10921.97
 20
12802.82
 11
10962.60
 21
12784.54
  0
LINE
  8
L-1-1
 10
12586.30
 20
11718.26
 11
12626.93
 21
11699.98
  0
LINE
  8
L-1-1
 10
12570.05
 20
11693.88
 11
12602.56
 21
11663.41
  0
LINE
  8
L-1-1
 10
10978.85
 20
12808.92
 11
12586.30
 21
11718.26
  0
LINE
  8
L-1-1
 10
10962.60
 20
12784.54
 11
12570.05
 21
11693.88
  0
LINE
  8
L-1-1
 10
12626.93
 20
13399.98
 11
12698.83
 21
13352.06
  0
LINE
  8
L-1-1
 10
10874.45
 20
14587.31
 11
10946.34
 21
14539.39
  0
LINE
  8
L-1-1
 10
12602.56
 20
13363.41
 11
12674.45
 21
13315.49
  0
LINE
  8
L-1-1
 10
10850.07
 20
14550.74
 11
10921.97
 21
14502.82
  0
LINE
  8
L-1-1
 10
10946.34
 20
14539.39
 11
10978.85
 21
14508.92
  0
LINE
  8
L-1-1
 10
10921.97
 20
14502.82
 11
10962.60
 21
14484.54
  0
LINE
  8
L-1-1
 10
12586.30
 20
13418.26
 11
12626.93
 21
13399.98
  0
LINE
  8
L-1-1
 10
12570.05
 20
13393.88
 11
12602.56
 21
13363.41
  0
LINE
  8
L-1-1
 10
10978.85
 20
14508.92
 11
12586.30
 21
13418.26
  0
LINE
  8
L-1-1
 10
10962.60
 20
14484.54
 11
12570.05
 21
13393.88
  0
LINE
  8
L-1-1
 10
3649.45
 20
7976.76
 11
3688.59
 21
8015.90
  0
LINE
  8
L-1-1
 10
3649.45
 20
7948.47
 11
3699.45
 21
7998.47
  0
LINE
  8
L-1-1
 10
3649.45
 20
7920.19
 11
3699.45
 21
7970.19
  0
LINE
  8
L-1-1
 10
3649.45
 20
7891.91
 11
3699.45
 21
7941.91
  0
LINE
  8
L-1-1
 10
3661.73
 20
7875.90
 11
3699.45
 21
7913.62
  0
LINE
  8
L-1-1
 10
1849.45
 20
7976.76
 11
1888.59
 21
8015.90
  0
LINE
  8
L-1-1
 10
1849.45
 20
7948.47
 11
1899.45
 21
7998.47
  0
LINE
  8
L-1-1
 10
1849.45
 20
7920.19
 11
1899.45
 21
7970.19
  0
LINE
  8
L-1-1
 10
1849.45
 20
7891.91
 11
1899.45
 21
7941.91
  0
LINE
  8
L-1-1
 10
1861.73
 20
7875.90
 11
1899.45
 21
7913.62
  0
LINE
  8
L-1-1
 10
3741.12
 20
7520.90
 11
4099.45
 21
7789.65
  0
LINE
  8
L-1-1
 10
3699.45
 20
7552.15
 11
4057.78
 21
7820.90
  0
LINE
  8
L-1-1
 10
4561.59
 20
8959.90
 11
5003.73
 21
9319.90
  0
LINE
  8
L-1-1
 10
5445.88
 20
8959.90
 11
5888.02
 21
9319.90
  0
LINE
  8
L-1-1
 10
6330.16
 20
8959.90
 11
6772.30
 21
9319.90
  0
LINE
  8
L-1-1
 10
7194.45
 20
10273.90
 11
7234.45
 21
10313.90
  0
LINE
  8
L-1-1
 10
9103.02
 20
8959.90
 11
9545.17
 21
9319.90
  0
LINE
  8
L-1-1
 10
8218.74
 20
8959.90
 11
8660.88
 21
9319.90
  0
LINE
  8
L-1-1
 10
7334.45
 20
8959.90
 11
7776.60
 21
9319.90
  0
LINE
  8
L-1-1
 10
9034.45
 20
10273.90
 11
9074.45
 21
10313.90
  0
LINE
  8
L-1-1
 10
9987.31
 20
8959.90
 11
10187.31
 21
9319.90
  0
LINE
  8
L-1-1
 10
10027.31
 20
8930.53
 11
10309.45
 21
9233.88
  0
LINE
  8
L-1-1
 10
9999.99
 20
8959.90
 11
10309.45
 21
9292.61
  0
LINE
  8
L-1-1
 10
5594.45
 20
9359.90
 11
6354.45
 21
9836.90
  0
LINE
  8
L-1-1
 10
5594.45
 20
9454.35
 11
6203.96
 21
9836.90
  0
LINE
  8
L-1-1
 10
5594.45
 20
9548.80
 11
6053.47
 21
9836.90
  0
LINE
  8
L-1-1
 10
5594.45
 20
9643.25
 11
5902.98
 21
9836.90
  0
LINE
  8
L-1-1
 10
5594.45
 20
9737.71
 11
5752.49
 21
9836.90
  0
LINE
  8
L-1-1
 10
5744.94
 20
9359.90
 11
6354.45
 21
9742.45
  0
LINE
  8
L-1-1
 10
5895.43
 20
9359.90
 11
6354.45
 21
9648.00
  0
LINE
  8
L-1-1
 10
6045.92
 20
9359.90
 11
6354.45
 21
9553.55
  0
LINE
  8
L-1-1
 10
6196.41
 20
9359.90
 11
6354.45
 21
9459.09
  0
LINE
  8
L-1-1
 10
6354.45
 20
9359.90
 11
7114.45
 21
9836.90
  0
LINE
  8
L-1-1
 10
6354.45
 20
9454.35
 11
6963.96
 21
9836.90
  0
LINE
  8
L-1-1
 10
6354.45
 20
9548.80
 11
6813.47
 21
9836.90
  0
LINE
  8
L-1-1
 10
6354.45
 20
9643.25
 11
6662.98
 21
9836.90
  0
LINE
  8
L-1-1
 10
6354.45
 20
9737.71
 11
6512.49
 21
9836.90
  0
LINE
  8
L-1-1
 10
6504.94
 20
9359.90
 11
7114.45
 21
9742.45
  0
LINE
  8
L-1-1
 10
6655.43
 20
9359.90
 11
7114.45
 21
9648.00
  0
LINE
  8
L-1-1
 10
6805.92
 20
9359.90
 11
7114.45
 21
9553.55
  0
LINE
  8
L-1-1
 10
6956.41
 20
9359.90
 11
7114.45
 21
9459.09
  0
LINE
  8
L-1-1
 10
8194.45
 20
9359.90
 11
8954.45
 21
9836.90
  0
LINE
  8
L-1-1
 10
8194.45
 20
9454.35
 11
8803.96
 21
9836.90
  0
LINE
  8
L-1-1
 10
8194.45
 20
9548.80
 11
8653.47
 21
9836.90
  0
LINE
  8
L-1-1
 10
8194.45
 20
9643.25
 11
8502.98
 21
9836.90
  0
LINE
  8
L-1-1
 10
8194.45
 20
9737.71
 11
8352.49
 21
9836.90
  0
LINE
  8
L-1-1
 10
8344.94
 20
9359.90
 11
8954.45
 21
9742.45
  0
LINE
  8
L-1-1
 10
8495.43
 20
9359.90
 11
8954.45
 21
9648.00
  0
LINE
  8
L-1-1
 10
8645.92
 20
9359.90
 11
8954.45
 21
9553.55
  0
LINE
  8
L-1-1
 10
8796.41
 20
9359.90
 11
8954.45
 21
9459.09
  0
LINE
  8
L-1-1
 10
7434.45
 20
9359.90
 11
8194.45
 21
9836.90
  0
LINE
  8
L-1-1
 10
7434.45
 20
9454.35
 11
8043.96
 21
9836.90
  0
LINE
  8
L-1-1
 10
7434.45
 20
9548.80
 11
7893.47
 21
9836.90
  0
LINE
  8
L-1-1
 10
7434.45
 20
9643.25
 11
7742.98
 21
9836.90
  0
LINE
  8
L-1-1
 10
7434.45
 20
9737.71
 11
7592.49
 21
9836.90
  0
LINE
  8
L-1-1
 10
1850.07
 20
9952.06
 11
1921.97
 21
9999.98
  0
LINE
  8
L-1-1
 10
7584.94
 20
9359.90
 11
8194.45
 21
9742.45
  0
LINE
  8
L-1-1
 10
7735.43
 20
9359.90
 11
8194.45
 21
9648.00
  0
LINE
  8
L-1-1
 10
7885.92
 20
9359.90
 11
8194.45
 21
9553.55
  0
LINE
  8
L-1-1
 10
8036.41
 20
9359.90
 11
8194.45
 21
9459.09
  0
LINE
  8
L-1-1
 10
5394.45
 20
11353.90
 11
5434.45
 21
11393.90
  0
LINE
  8
L-1-1
 10
10349.45
 20
10393.90
 11
10389.45
 21
10433.90
  0
LINE
  8
L-1-1
 10
4339.45
 20
9439.90
 11
4839.45
 21
9939.90
  0
LINE
  8
L-1-1
 10
4452.59
 20
9439.90
 11
4839.45
 21
9826.76
  0
LINE
  8
L-1-1
 10
4565.72
 20
9439.90
 11
4839.45
 21
9713.63
  0
LINE
  8
L-1-1
 10
4678.86
 20
9439.90
 11
4839.45
 21
9600.49
  0
LINE
  8
L-1-1
 10
4792.00
 20
9439.90
 11
4839.45
 21
9487.35
  0
LINE
  8
L-1-1
 10
9194.45
 20
9813.90
 11
9694.45
 21
10313.90
  0
LINE
  8
L-1-1
 10
9194.45
 20
9927.04
 11
9581.31
 21
10313.90
  0
LINE
  8
L-1-1
 10
9194.45
 20
10040.17
 11
9468.18
 21
10313.90
  0
LINE
  8
L-1-1
 10
9194.45
 20
10153.31
 11
9355.04
 21
10313.90
  0
LINE
  8
L-1-1
 10
9194.45
 20
10266.45
 11
9241.90
 21
10313.90
  0
LINE
  8
L-1-1
 10
9307.59
 20
9813.90
 11
9694.45
 21
10200.76
  0
LINE
  8
L-1-1
 10
4199.45
 20
9813.90
 11
4699.45
 21
10313.90
  0
LINE
  8
L-1-1
 10
4199.45
 20
9927.04
 11
4586.31
 21
10313.90
  0
LINE
  8
L-1-1
 10
4199.45
 20
10040.17
 11
4473.18
 21
10313.90
  0
LINE
  8
L-1-1
 10
4199.45
 20
10153.31
 11
4360.04
 21
10313.90
  0
LINE
  8
L-1-1
 10
4199.45
 20
10266.45
 11
4246.90
 21
10313.90
  0
LINE
  8
L-1-1
 10
9849.45
 20
9359.90
 11
10349.45
 21
9859.90
  0
LINE
  8
L-1-1
 10
9849.45
 20
9473.04
 11
10236.31
 21
9859.90
  0
LINE
  8
L-1-1
 10
9962.59
 20
9359.90
 11
10349.45
 21
9746.76
  0
LINE
  8
L-1-1
 10
10075.72
 20
9359.90
 11
10349.45
 21
9633.63
  0
LINE
  8
L-1-1
 10
10188.86
 20
9359.90
 11
10349.45
 21
9520.49
  0
LINE
  8
L-1-1
 10
10302.00
 20
9359.90
 11
10349.45
 21
9407.35
  0
LINE
  8
L-1-1
 10
1850.07
 20
8252.06
 11
1921.97
 21
8299.98
  0
LINE
  8
L-1-1
 10
3602.56
 20
9439.39
 11
3674.45
 21
9487.31
  0
LINE
  8
L-1-1
 10
1874.45
 20
8215.49
 11
1946.34
 21
8263.41
  0
LINE
  8
L-1-1
 10
3626.93
 20
9402.82
 11
3698.83
 21
9450.74
  0
LINE
  8
L-1-1
 10
3570.05
 20
9408.92
 11
3602.56
 21
9439.39
  0
LINE
  8
L-1-1
 10
3586.30
 20
9384.54
 11
3626.93
 21
9402.82
  0
LINE
  8
L-1-1
 10
1921.97
 20
8299.98
 11
1962.60
 21
8318.26
  0
LINE
  8
L-1-1
 10
1946.34
 20
8263.41
 11
1978.85
 21
8293.88
  0
LINE
  8
L-1-1
 10
1962.60
 20
8318.26
 11
3570.05
 21
9408.92
  0
LINE
  8
L-1-1
 10
1978.85
 20
8293.88
 11
3586.30
 21
9384.54
  0
LINE
  8
L-1-1
 10
3602.56
 20
11139.39
 11
3674.45
 21
11187.31
  0
LINE
  8
L-1-1
 10
1874.45
 20
9915.49
 11
1946.34
 21
9963.41
  0
LINE
  8
L-1-1
 10
3626.93
 20
11102.82
 11
3698.83
 21
11150.74
  0
LINE
  8
L-1-1
 10
3570.05
 20
11108.92
 11
3602.56
 21
11139.39
  0
LINE
  8
L-1-1
 10
3586.30
 20
11084.54
 11
3626.93
 21
11102.82
  0
LINE
  8
L-1-1
 10
1921.97
 20
9999.98
 11
1962.60
 21
10018.26
  0
LINE
  8
L-1-1
 10
1946.34
 20
9963.41
 11
1978.85
 21
9993.88
  0
LINE
  8
L-1-1
 10
1962.60
 20
10018.26
 11
3570.05
 21
11108.92
  0
LINE
  8
L-1-1
 10
1978.85
 20
9993.88
 11
3586.30
 21
11084.54
  0
LINE
  8
L-1-1
 10
1850.07
 20
11652.06
 11
1921.97
 21
11699.98
  0
LINE
  8
L-1-1
 10
3602.56
 20
12839.39
 11
3674.45
 21
12887.31
  0
LINE
  8
L-1-1
 10
1874.45
 20
11615.49
 11
1946.34
 21
11663.41
  0
LINE
  8
L-1-1
 10
3626.93
 20
12802.82
 11
3698.83
 21
12850.74
  0
LINE
  8
L-1-1
 10
3570.05
 20
12808.92
 11
3602.56
 21
12839.39
  0
LINE
  8
L-1-1
 10
3586.30
 20
12784.54
 11
3626.93
 21
12802.82
  0
LINE
  8
L-1-1
 10
1921.97
 20
11699.98
 11
1962.60
 21
11718.26
  0
LINE
  8
L-1-1
 10
1946.34
 20
11663.41
 11
1978.85
 21
11693.88
  0
LINE
  8
L-1-1
 10
1962.60
 20
11718.26
 11
3570.05
 21
12808.92
  0
LINE
  8
L-1-1
 10
1978.85
 20
11693.88
 11
3586.30
 21
12784.54
  0
LINE
  8
L-1-1
 10
1850.07
 20
13352.06
 11
1921.97
 21
13399.98
  0
LINE
  8
L-1-1
 10
3602.56
 20
14539.39
 11
3674.45
 21
14587.31
  0
LINE
  8
L-1-1
 10
1874.45
 20
13315.49
 11
1946.34
 21
13363.41
  0
LINE
  8
L-1-1
 10
3626.93
 20
14502.82
 11
3698.83
 21
14550.74
  0
LINE
  8
L-1-1
 10
3570.05
 20
14508.92
 11
3602.56
 21
14539.39
  0
LINE
  8
L-1-1
 10
3586.30
 20
14484.54
 11
3626.93
 21
14502.82
  0
LINE
  8
L-1-1
 10
1921.97
 20
13399.98
 11
1962.60
 21
13418.26
  0
LINE
  8
L-1-1
 10
1946.34
 20
13363.41
 11
1978.85
 21
13393.88
  0
LINE
  8
L-1-1
 10
1962.60
 20
13418.26
 11
3570.05
 21
14508.92
  0
LINE
  8
L-1-1
 10
1978.85
 20
13393.88
 11
3586.30
 21
14484.54
  0
LINE
  8
L-1-1
 10
10850.07
 20
8252.06
 11
10921.97
 21
8299.98
  0
LINE
  8
L-1-1
 10
12602.67
 20
9439.50
 11
12674.45
 21
9487.31
  0
LINE
  8
L-1-1
 10
12626.93
 20
9402.82
 11
12698.83
 21
9450.74
  0
LINE
  8
L-1-1
 10
10874.45
 20
8215.49
 11
10946.34
 21
8263.41
  0
LINE
  8
L-1-1
 10
10921.97
 20
8299.98
 11
10962.60
 21
8318.26
  0
LINE
  8
L-1-1
 10
10946.34
 20
8263.41
 11
10978.85
 21
8293.88
  0
LINE
  8
L-1-1
 10
12570.05
 20
9408.92
 11
12602.56
 21
9439.39
  0
LINE
  8
L-1-1
 10
12586.30
 20
9384.54
 11
12626.93
 21
9402.82
  0
LINE
  8
L-1-1
 10
11800.54
 20
8851.40
 11
12586.30
 21
9384.54
  0
LINE
  8
L-1-1
 10
10978.85
 20
8293.88
 11
11774.45
 21
8833.70
  0
LINE
  8
L-1-1
 10
10962.60
 20
8318.26
 11
11748.36
 21
8851.40
  0
LINE
  8
L-1-1
 10
11774.45
 20
8869.10
 11
12570.05
 21
9408.92
  0
LINE
  8
L-1-1
 10
10850.07
 20
9952.06
 11
10921.97
 21
9999.98
  0
LINE
  8
L-1-1
 10
12602.67
 20
11139.50
 11
12674.45
 21
11187.31
  0
LINE
  8
L-1-1
 10
12626.93
 20
11102.82
 11
12698.83
 21
11150.74
  0
LINE
  8
L-1-1
 10
10874.45
 20
9915.49
 11
10946.34
 21
9963.41
  0
LINE
  8
L-1-1
 10
10921.97
 20
9999.98
 11
10962.60
 21
10018.26
  0
LINE
  8
L-1-1
 10
10946.34
 20
9963.41
 11
10978.85
 21
9993.88
  0
LINE
  8
L-1-1
 10
12570.05
 20
11108.92
 11
12602.56
 21
11139.39
  0
LINE
  8
L-1-1
 10
12586.30
 20
11084.54
 11
12626.93
 21
11102.82
  0
LINE
  8
L-1-1
 10
11800.54
 20
10551.40
 11
12586.30
 21
11084.54
  0
LINE
  8
L-1-1
 10
10978.85
 20
9993.88
 11
11774.45
 21
10533.70
  0
LINE
  8
L-1-1
 10
10962.60
 20
10018.26
 11
11748.36
 21
10551.40
  0
LINE
  8
L-1-1
 10
11774.45
 20
10569.10
 11
12570.05
 21
11108.92
  0
LINE
  8
L-1-1
 10
10850.07
 20
11652.06
 11
10921.97
 21
11699.98
  0
LINE
  8
L-1-1
 10
12602.67
 20
12839.50
 11
12674.45
 21
12887.31
  0
LINE
  8
L-1-1
 10
12626.93
 20
12802.82
 11
12698.83
 21
12850.74
  0
LINE
  8
L-1-1
 10
10874.45
 20
11615.49
 11
10946.34
 21
11663.41
  0
LINE
  8
L-1-1
 10
10921.97
 20
11699.98
 11
10962.60
 21
11718.26
  0
LINE
  8
L-1-1
 10
10946.34
 20
11663.41
 11
10978.85
 21
11693.88
  0
LINE
  8
L-1-1
 10
12570.05
 20
12808.92
 11
12602.56
 21
12839.39
  0
LINE
  8
L-1-1
 10
12586.30
 20
12784.54
 11
12626.93
 21
12802.82
  0
LINE
  8
L-1-1
 10
11800.54
 20
12251.40
 11
12586.30
 21
12784.54
  0
LINE
  8
L-1-1
 10
10978.85
 20
11693.88
 11
11774.45
 21
12233.70
  0
LINE
  8
L-1-1
 10
10962.60
 20
11718.26
 11
11748.36
 21
12251.40
  0
LINE
  8
L-1-1
 10
11774.45
 20
12269.10
 11
12570.05
 21
12808.92
  0
LINE
  8
L-1-1
 10
10850.07
 20
13352.06
 11
10921.97
 21
13399.98
  0
LINE
  8
L-1-1
 10
12602.67
 20
14539.50
 11
12674.45
 21
14587.31
  0
LINE
  8
L-1-1
 10
12626.93
 20
14502.82
 11
12698.83
 21
14550.74
  0
LINE
  8
L-1-1
 10
10874.45
 20
13315.49
 11
10946.34
 21
13363.41
  0
LINE
  8
L-1-1
 10
10921.97
 20
13399.98
 11
10962.60
 21
13418.26
  0
LINE
  8
L-1-1
 10
10946.34
 20
13363.41
 11
10978.85
 21
13393.88
  0
LINE
  8
L-1-1
 10
12570.05
 20
14508.92
 11
12602.56
 21
14539.39
  0
LINE
  8
L-1-1
 10
12586.30
 20
14484.54
 11
12626.93
 21
14502.82
  0
LINE
  8
L-1-1
 10
11800.54
 20
13951.40
 11
12586.30
 21
14484.54
  0
LINE
  8
L-1-1
 10
10978.85
 20
13393.88
 11
11774.45
 21
13933.70
  0
LINE
  8
L-1-1
 10
10962.60
 20
13418.26
 11
11748.36
 21
13951.40
  0
LINE
  8
L-1-1
 10
11774.45
 20
13969.10
 11
12570.05
 21
14508.92
  0
LINE
  8
L-1-1
 10
6671.92
 20
3009.09
 11
6671.92
 21
3943.09
  0
LINE
  8
L-1-1
 10
6648.62
 20
3856.16
 11
6671.92
 21
3943.09
  0
LINE
  8
L-1-1
 10
6695.21
 20
3856.16
 11
6671.92
 21
3943.09
  0
LINE
  8
L-1-1
 10
6671.92
 20
3009.09
 11
6695.21
 21
3096.02
  0
LINE
  8
L-1-1
 10
6671.92
 20
3009.09
 11
6648.62
 21
3096.02
  0
LINE
  8
L-1-1
 10
6146.72
 20
3066.09
 11
6146.72
 21
3886.09
  0
LINE
  8
L-1-1
 10
6123.43
 20
3799.16
 11
6146.72
 21
3886.09
  0
LINE
  8
L-1-1
 10
6170.01
 20
3799.16
 11
6146.72
 21
3886.09
  0
LINE
  8
L-1-1
 10
6146.72
 20
3066.09
 11
6170.01
 21
3153.02
  0
LINE
  8
L-1-1
 10
6146.72
 20
3066.09
 11
6123.43
 21
3153.02
  0
LINE
  8
L-1-1
 10
3217.00
 20
3726.09
 11
3904.49
 21
3726.09
  0
LINE
  8
L-1-1
 10
3217.00
 20
3226.09
 11
3904.49
 21
3226.09
  0
LINE
  8
L-1-1
 10
3217.00
 20
3226.09
 11
3217.00
 21
3726.09
  0
LINE
  8
L-1-1
 10
3193.70
 20
3639.16
 11
3217.00
 21
3726.09
  0
LINE
  8
L-1-1
 10
3240.29
 20
3639.16
 11
3217.00
 21
3726.09
  0
LINE
  8
L-1-1
 10
3217.00
 20
3226.09
 11
3240.29
 21
3313.02
  0
LINE
  8
L-1-1
 10
3217.00
 20
3226.09
 11
3193.70
 21
3313.02
  0
LINE
  8
L-1-1
 10
1187.10
 20
3776.09
 11
1874.59
 21
3776.09
  0
LINE
  8
L-1-1
 10
1187.10
 20
3176.09
 11
1874.59
 21
3176.09
  0
LINE
  8
L-1-1
 10
1187.10
 20
3176.09
 11
1187.10
 21
3776.09
  0
LINE
  8
L-1-1
 10
1163.80
 20
3689.16
 11
1187.10
 21
3776.09
  0
LINE
  8
L-1-1
 10
1210.39
 20
3689.16
 11
1187.10
 21
3776.09
  0
LINE
  8
L-1-1
 10
1187.10
 20
3176.09
 11
1210.39
 21
3263.02
  0
LINE
  8
L-1-1
 10
1187.10
 20
3176.09
 11
1163.80
 21
3263.02
  0
LINE
  8
L-1-1
 10
3904.49
 20
2066.09
 11
3904.49
 21
2566.09
  0
LINE
  8
L-1-1
 10
7274.49
 20
2066.09
 11
7274.49
 21
2566.09
  0
LINE
  8
L-1-1
 10
10644.49
 20
2066.09
 11
10644.49
 21
2566.09
  0
LINE
  8
L-1-1
 10
3904.49
 20
2066.09
 11
7274.49
 21
2066.09
  0
LINE
  8
L-1-1
 10
7187.55
 20
2089.38
 11
7274.49
 21
2066.09
  0
LINE
  8
L-1-1
 10
7187.55
 20
2042.80
 11
7274.49
 21
2066.09
  0
LINE
  8
L-1-1
 10
3904.49
 20
2066.09
 11
3991.42
 21
2042.80
  0
LINE
  8
L-1-1
 10
3904.49
 20
2066.09
 11
3991.42
 21
2089.38
  0
LINE
  8
L-1-1
 10
7274.49
 20
2066.09
 11
10644.49
 21
2066.09
  0
LINE
  8
L-1-1
 10
10557.55
 20
2089.38
 11
10644.49
 21
2066.09
  0
LINE
  8
L-1-1
 10
10557.55
 20
2042.80
 11
10644.49
 21
2066.09
  0
LINE
  8
L-1-1
 10
7274.49
 20
2066.09
 11
7361.42
 21
2042.80
  0
LINE
  8
L-1-1
 10
7274.49
 20
2066.09
 11
7361.42
 21
2089.38
  0
LINE
  8
L-1-1
 10
3674.45
 20
6120.90
 11
3674.45
 21
7120.90
  0
LINE
  8
L-1-1
 10
10874.45
 20
6120.90
 11
10874.45
 21
7120.90
  0
LINE
  8
L-1-1
 10
3924.45
 20
6620.90
 11
3924.45
 21
7120.90
  0
LINE
  8
L-1-1
 10
10624.45
 20
6620.90
 11
10624.45
 21
7120.90
  0
LINE
  8
L-1-1
 10
3924.45
 20
6620.90
 11
10624.45
 21
6620.90
  0
LINE
  8
L-1-1
 10
10537.52
 20
6644.19
 11
10624.45
 21
6620.90
  0
LINE
  8
L-1-1
 10
10537.52
 20
6597.61
 11
10624.45
 21
6620.90
  0
LINE
  8
L-1-1
 10
3924.45
 20
6620.90
 11
4011.38
 21
6597.61
  0
LINE
  8
L-1-1
 10
3924.45
 20
6620.90
 11
4011.38
 21
6644.19
  0
LINE
  8
L-1-1
 10
3674.45
 20
6120.90
 11
10874.45
 21
6120.90
  0
LINE
  8
L-1-1
 10
10787.52
 20
6144.19
 11
10874.45
 21
6120.90
  0
LINE
  8
L-1-1
 10
10787.52
 20
6097.61
 11
10874.45
 21
6120.90
  0
LINE
  8
L-1-1
 10
3674.45
 20
6120.90
 11
3761.38
 21
6097.61
  0
LINE
  8
L-1-1
 10
3674.45
 20
6120.90
 11
3761.38
 21
6144.19
  0
LINE
  8
L-1-1
 10
3049.45
 20
11433.90
 11
3549.45
 21
11433.90
  0
LINE
  8
L-1-1
 10
3049.45
 20
9359.90
 11
3549.45
 21
9359.90
  0
LINE
  8
L-1-1
 10
3049.45
 20
8620.90
 11
3549.45
 21
8620.90
  0
LINE
  8
L-1-1
 10
3049.45
 20
9359.90
 11
3049.45
 21
11433.90
  0
LINE
  8
L-1-1
 10
3026.16
 20
11346.97
 11
3049.45
 21
11433.90
  0
LINE
  8
L-1-1
 10
3072.74
 20
11346.97
 11
3049.45
 21
11433.90
  0
LINE
  8
L-1-1
 10
3049.45
 20
9359.90
 11
3072.74
 21
9446.83
  0
LINE
  8
L-1-1
 10
3049.45
 20
9359.90
 11
3026.16
 21
9446.83
  0
LINE
  8
L-1-1
 10
3049.45
 20
8620.90
 11
3049.45
 21
9359.90
  0
LINE
  8
L-1-1
 10
3026.16
 20
9272.97
 11
3049.45
 21
9359.90
  0
LINE
  8
L-1-1
 10
3072.74
 20
9272.97
 11
3049.45
 21
9359.90
  0
LINE
  8
L-1-1
 10
3049.45
 20
8620.90
 11
3072.74
 21
8707.83
  0
LINE
  8
L-1-1
 10
3049.45
 20
8620.90
 11
3026.16
 21
8707.83
  0
LINE
  8
L-1-1
 10
10999.45
 20
9460.90
 11
11499.45
 21
9460.90
  0
LINE
  8
L-1-1
 10
10999.45
 20
7820.90
 11
11499.45
 21
7820.90
  0
LINE
  8
L-1-1
 10
11499.45
 20
9460.90
 11
11499.45
 21
11060.90
  0
LINE
  8
L-1-1
 10
11522.74
 20
10973.97
 11
11499.45
 21
11060.90
  0
LINE
  8
L-1-1
 10
11476.16
 20
10973.97
 11
11499.45
 21
11060.90
  0
LINE
  8
L-1-1
 10
11499.45
 20
9460.90
 11
11476.16
 21
9547.83
  0
LINE
  8
L-1-1
 10
11499.45
 20
9460.90
 11
11522.74
 21
9547.83
  0
LINE
  8
L-1-1
 10
11499.45
 20
7820.90
 11
11499.45
 21
9460.90
  0
LINE
  8
L-1-1
 10
11522.74
 20
9373.97
 11
11499.45
 21
9460.90
  0
LINE
  8
L-1-1
 10
11476.16
 20
9373.97
 11
11499.45
 21
9460.90
  0
LINE
  8
L-1-1
 10
11499.45
 20
7820.90
 11
11476.16
 21
7907.83
  0
LINE
  8
L-1-1
 10
11499.45
 20
7820.90
 11
11522.74
 21
7907.83
  0
LINE
  8
L-1-1
 10
11549.45
 20
9425.90
 11
11999.45
 21
9425.90
  0
LINE
  8
L-1-1
 10
11999.45
 20
7820.90
 11
11999.45
 21
9425.90
  0
LINE
  8
L-1-1
 10
11976.16
 20
9338.97
 11
11999.45
 21
9425.90
  0
LINE
  8
L-1-1
 10
12022.74
 20
9338.97
 11
11999.45
 21
9425.90
  0
LINE
  8
L-1-1
 10
11999.45
 20
7820.90
 11
12022.74
 21
7907.83
  0
LINE
  8
L-1-1
 10
11999.45
 20
7820.90
 11
11976.16
 21
7907.83
  0
LINE
  8
L-1-1
 10
11999.45
 20
9425.90
 11
11999.45
 21
11025.90
  0
LINE
  8
L-1-1
 10
12022.74
 20
10938.97
 11
11999.45
 21
11025.90
  0
LINE
  8
L-1-1
 10
11976.16
 20
10938.97
 11
11999.45
 21
11025.90
  0
LINE
  8
L-1-1
 10
11999.45
 20
9425.90
 11
11976.16
 21
9512.83
  0
LINE
  8
L-1-1
 10
11999.45
 20
9425.90
 11
12022.74
 21
9512.83
  0
LINE
  8
L-1-1
 10
10999.45
 20
11060.90
 11
11499.45
 21
11060.90
  0
LINE
  8
L-1-1
 10
11499.45
 20
11060.90
 11
11499.45
 21
12660.90
  0
LINE
  8
L-1-1
 10
11522.74
 20
12573.97
 11
11499.45
 21
12660.90
  0
LINE
  8
L-1-1
 10
11476.16
 20
12573.97
 11
11499.45
 21
12660.90
  0
LINE
  8
L-1-1
 10
11499.45
 20
11060.90
 11
11476.16
 21
11147.83
  0
LINE
  8
L-1-1
 10
11499.45
 20
11060.90
 11
11522.74
 21
11147.83
  0
LINE
  8
L-1-1
 10
11549.45
 20
11025.90
 11
11999.45
 21
11025.90
  0
LINE
  8
L-1-1
 10
11999.45
 20
11025.90
 11
11999.45
 21
12625.90
  0
LINE
  8
L-1-1
 10
12022.74
 20
12538.97
 11
11999.45
 21
12625.90
  0
LINE
  8
L-1-1
 10
11976.16
 20
12538.97
 11
11999.45
 21
12625.90
  0
LINE
  8
L-1-1
 10
11999.45
 20
11025.90
 11
11976.16
 21
11112.83
  0
LINE
  8
L-1-1
 10
11999.45
 20
11025.90
 11
12022.74
 21
11112.83
  0
LINE
  8
L-1-1
 10
10999.45
 20
12660.90
 11
11499.45
 21
12660.90
  0
LINE
  8
L-1-1
 10
11549.45
 20
12625.90
 11
11999.45
 21
12625.90
  0
LINE
  8
L-1-1
 10
6604.63
 20
5365.15
 11
7944.22
 21
5365.15
  0
LINE
  8
L-1-1
 10
6604.63
 20
5315.15
 11
7944.22
 21
5315.15
  0
LINE
  8
L-1-1
 10
6604.59
 20
1362.86
 11
7944.18
 21
1362.86
  0
LINE
  8
L-1-1
 10
6604.59
 20
1312.86
 11
7944.18
 21
1312.86
  0
LINE
  8
L-1-1
 10
15288.88
 20
12261.12
 11
15288.88
 21
15261.12
  0
LINE
  8
L-1-1
 10
18788.88
 20
12261.12
 11
18788.88
 21
15261.12
  0
LINE
  8
L-1-1
 10
15288.88
 20
15261.12
 11
22288.88
 21
15261.12
  0
LINE
  8
L-1-1
 10
15288.88
 20
14961.12
 11
18788.88
 21
14961.12
  0
LINE
  8
L-1-1
 10
15288.88
 20
14661.12
 11
17622.21
 21
14661.12
  0
LINE
  8
L-1-1
 10
15288.88
 20
14361.12
 11
18788.88
 21
14361.12
  0
LINE
  8
L-1-1
 10
15288.88
 20
14061.12
 11
18788.88
 21
14061.12
  0
LINE
  8
L-1-1
 10
15288.88
 20
13761.12
 11
18788.88
 21
13761.12
  0
LINE
  8
L-1-1
 10
15288.88
 20
13161.12
 11
18788.88
 21
13161.12
  0
LINE
  8
L-1-1
 10
16788.88
 20
12261.12
 11
16788.88
 21
14361.12
  0
LINE
  8
L-1-1
 10
16455.54
 20
14361.12
 11
16455.54
 21
15261.12
  0
LINE
  8
L-1-1
 10
17622.21
 20
14361.12
 11
17622.21
 21
15261.12
  0
LINE
  8
L-1-1
 10
17254.27
 20
14709.61
 11
17343.19
 21
14863.63
  0
LINE
  8
L-1-1
 10
16087.60
 20
14709.61
 11
16176.53
 21
14863.63
  0
LINE
  8
L-1-1
 10
17254.27
 20
14409.61
 11
17343.19
 21
14563.63
  0
LINE
  8
L-1-1
 10
16087.60
 20
14409.61
 11
16176.53
 21
14563.63
  0
LINE
  8
L-1-1
 10
15288.88
 20
12861.12
 11
18788.88
 21
12861.12
  0
LINE
  8
L-1-1
 10
15288.88
 20
12561.12
 11
18788.88
 21
12561.12
  0
LINE
  8
L-1-1
 10
15288.88
 20
12261.12
 11
22288.88
 21
12261.12
  0
LINE
  8
L-1-1
 10
17407.60
 20
13809.61
 11
17496.53
 21
13963.63
  0
LINE
  8
L-1-1
 10
18067.60
 20
13809.61
 11
18156.53
 21
13963.63
  0
LINE
  8
L-1-1
 10
15288.88
 20
13461.12
 11
18788.88
 21
13461.12
  0
LINE
  8
L-1-1
 10
22288.88
 20
12261.12
 11
22288.88
 21
15261.12
  0
LINE
  8
L-1-1
 10
20288.88
 20
12261.12
 11
20288.88
 21
15261.12
  0
LINE
  8
L-1-1
 10
20288.88
 20
14961.12
 11
22288.88
 21
14961.12
  0
LINE
  8
L-1-1
 10
20288.88
 20
14361.12
 11
22288.88
 21
14361.12
  0
LINE
  8
L-1-1
 10
20288.88
 20
14061.12
 11
22288.88
 21
14061.12
  0
LINE
  8
L-1-1
 10
20288.88
 20
13761.12
 11
22288.88
 21
13761.12
  0
LINE
  8
L-1-1
 10
20288.88
 20
13161.12
 11
22288.88
 21
13161.12
  0
LINE
  8
L-1-1
 10
20288.88
 20
12861.12
 11
22288.88
 21
12861.12
  0
LINE
  8
L-1-1
 10
20288.88
 20
12561.12
 11
22288.88
 21
12561.12
  0
LINE
  8
L-1-1
 10
20288.88
 20
13461.12
 11
22288.88
 21
13461.12
  0
LINE
  8
L-1-1
 10
20288.88
 20
14661.12
 11
22288.88
 21
14661.12
  0
LINE
  8
L-1-1
 10
17669.08
 20
543.68
 11
17669.09
 21
2043.72
  0
LINE
  8
L-1-1
 10
18629.08
 20
543.68
 11
18629.08
 21
2043.70
  0
LINE
  8
L-1-1
 10
21589.08
 20
1043.69
 11
21589.07
 21
2043.68
  0
LINE
  8
L-1-1
 10
17669.08
 20
1543.69
 11
22759.08
 21
1543.68
  0
LINE
  8
L-1-1
 10
17669.08
 20
1043.72
 11
22759.08
 21
1043.68
  0
LINE
  8
L-1-1
 10
17069.08
 20
543.68
 11
17069.07
 21
2043.68
  0
LINE
  8
L-1-1
 10
17069.07
 20
2043.68
 11
22759.08
 21
2043.68
  0
LINE
  8
L-1-1
 10
16483.80
 20
8800.46
 11
16983.79
 21
8800.46
  0
LINE
  8
L-1-1
 10
16483.80
 20
8000.46
 11
16983.79
 21
8000.46
  0
LINE
  8
L-1-1
 10
16983.79
 20
8000.46
 11
16983.79
 21
8800.46
  0
LINE
  8
L-1-1
 10
17007.08
 20
8713.53
 11
16983.79
 21
8800.46
  0
LINE
  8
L-1-1
 10
16960.49
 20
8713.53
 11
16983.79
 21
8800.46
  0
LINE
  8
L-1-1
 10
16983.79
 20
8000.46
 11
16960.49
 21
8087.40
  0
LINE
  8
L-1-1
 10
16983.79
 20
8000.46
 11
17007.08
 21
8087.40
  0
LINE
  8
L-1-1
 10
15588.87
 20
6990.46
 11
15588.87
 21
7490.46
  0
LINE
  8
L-1-1
 10
21988.87
 20
6990.46
 11
21988.87
 21
7490.46
  0
LINE
  8
L-1-1
 10
15588.87
 20
6990.46
 11
21988.87
 21
6990.46
  0
LINE
  8
L-1-1
 10
21901.94
 20
7013.76
 11
21988.87
 21
6990.46
  0
LINE
  8
L-1-1
 10
21901.94
 20
6967.17
 11
21988.87
 21
6990.46
  0
LINE
  8
L-1-1
 10
15588.87
 20
6990.46
 11
15675.81
 21
6967.17
  0
LINE
  8
L-1-1
 10
15588.87
 20
6990.46
 11
15675.81
 21
7013.76
  0
LINE
  8
L-1-1
 10
18119.08
 20
5974.23
 11
19458.67
 21
5974.23
  0
LINE
  8
L-1-1
 10
18119.08
 20
5924.23
 11
19458.67
 21
5924.23
  0
LINE
  8
L-1-2
 10
15288.84
 20
8000.48
 11
15288.84
 21
8800.48
  0
LINE
  8
L-1-2
 10
16088.84
 20
8000.48
 11
16088.84
 21
8800.48
  0
LINE
  8
L-1-2
 10
15288.84
 20
8000.48
 11
16088.84
 21
8000.48
  0
LINE
  8
L-1-2
 10
15288.84
 20
8800.48
 11
16088.84
 21
8800.48
  0
LINE
  8
L-3-1
 10
22588.92
 20
8400.48
 11
14988.84
 21
8400.48
  0
CIRCLE
  8
L-1-2
 10
15588.84
 20
8600.48
 40
22.00
  0
CIRCLE
  8
L-1-2
 10
15588.84
 20
8200.48
 40
22.00
  0
LINE
  8
L-1-1
 10
15610.84
 20
8600.48
 11
15888.84
 21
8600.48
  0
LINE
  8
L-1-1
 10
15610.84
 20
8200.48
 11
15888.84
 21
8200.48
  0
LINE
  8
L-1-1
 10
15888.84
 20
8200.48
 11
15888.84
 21
8600.48
  0
LINE
  8
L-1-1
 10
15865.54
 20
8513.54
 11
15888.84
 21
8600.48
  0
LINE
  8
L-1-1
 10
15912.13
 20
8513.54
 11
15888.84
 21
8600.48
  0
LINE
  8
L-1-1
 10
15888.84
 20
8200.48
 11
15912.13
 21
8287.41
  0
LINE
  8
L-1-1
 10
15888.84
 20
8200.48
 11
15865.54
 21
8287.41
  0
LINE
  8
L-1-1
 10
15288.84
 20
9000.48
 11
15288.84
 21
9600.48
  0
LINE
  8
L-1-1
 10
15588.84
 20
9000.48
 11
15588.84
 21
9300.48
  0
LINE
  8
L-1-1
 10
16088.84
 20
9000.48
 11
16088.84
 21
9600.48
  0
LINE
  8
L-1-1
 10
14388.84
 20
9300.48
 11
14678.84
 21
9300.48
  0
LINE
  8
L-1-1
 10
15501.90
 20
9323.77
 11
15588.84
 21
9300.48
  0
LINE
  8
L-1-1
 10
15501.90
 20
9277.18
 11
15588.84
 21
9300.48
  0
LINE
  8
L-1-1
 10
15288.84
 20
9300.48
 11
15375.77
 21
9277.18
  0
LINE
  8
L-1-1
 10
15288.84
 20
9300.48
 11
15375.77
 21
9323.77
  0
LINE
  8
L-1-1
 10
15288.84
 20
9600.48
 11
16088.84
 21
9600.48
  0
LINE
  8
L-1-1
 10
16001.90
 20
9623.77
 11
16088.84
 21
9600.48
  0
LINE
  8
L-1-1
 10
16001.90
 20
9577.18
 11
16088.84
 21
9600.48
  0
LINE
  8
L-1-1
 10
15288.84
 20
9600.48
 11
15375.77
 21
9577.18
  0
LINE
  8
L-1-1
 10
15288.84
 20
9600.48
 11
15375.77
 21
9623.77
  0
LINE
  8
L-1-2
 10
22288.92
 20
8000.48
 11
22288.92
 21
8800.48
  0
LINE
  8
L-1-2
 10
21488.92
 20
8000.48
 11
21488.92
 21
8800.48
  0
LINE
  8
L-1-2
 10
21488.92
 20
8000.48
 11
22288.92
 21
8000.48
  0
LINE
  8
L-1-2
 10
21488.92
 20
8800.48
 11
22288.92
 21
8800.48
  0
CIRCLE
  8
L-1-2
 10
21988.92
 20
8600.48
 40
22.00
  0
CIRCLE
  8
L-1-2
 10
21988.92
 20
8200.48
 40
22.00
  0
LINE
  8
L-3-1
 10
15588.84
 20
8200.48
 11
15588.84
 21
8600.48
  0
LINE
  8
L-3-1
 10
21988.92
 20
8200.48
 11
21988.92
 21
8600.48
  0
LINE
  8
L-1-2
 10
14588.84
 20
8000.48
 11
14588.84
 21
8800.48
  0
LINE
  8
L-1-2
 10
14288.84
 20
8000.48
 11
14288.84
 21
8800.48
  0
LINE
  8
L-1-2
 10
14288.84
 20
8800.48
 11
14588.84
 21
8800.48
  0
LINE
  8
L-1-2
 10
14288.84
 20
8000.48
 11
14588.84
 21
8000.48
  0
LINE
  8
L-1-1
 10
14588.84
 20
9000.48
 11
14588.84
 21
9600.48
  0
LINE
  8
L-1-1
 10
14288.84
 20
9600.48
 11
14588.84
 21
9600.48
  0
LINE
  8
L-1-1
 10
14501.90
 20
9623.77
 11
14588.84
 21
9600.48
  0
LINE
  8
L-1-1
 10
14501.90
 20
9577.18
 11
14588.84
 21
9600.48
  0
LINE
  8
L-1-1
 10
14288.84
 20
9600.48
 11
14375.77
 21
9577.18
  0
LINE
  8
L-1-1
 10
14288.84
 20
9600.48
 11
14375.77
 21
9623.77
  0
LINE
  8
L-1-1
 10
14288.84
 20
9000.48
 11
14288.84
 21
9600.48
  0
LINE
  8
L-1-1
 10
14678.84
 20
9000.48
 11
14678.84
 21
9300.48
  0
LINE
  8
L-1-1
 10
14388.84
 20
9000.48
 11
14388.84
 21
9300.48
  0
LINE
  8
L-1-1
 10
15288.84
 20
9300.48
 11
15588.84
 21
9300.48
  0
LINE
  8
L-1-1
 10
14388.84
 20
9300.48
 11
14588.84
 21
9300.48
  0
LINE
  8
L-1-1
 10
14501.90
 20
9323.77
 11
14588.84
 21
9300.48
  0
LINE
  8
L-1-1
 10
14501.90
 20
9277.18
 11
14588.84
 21
9300.48
  0
LINE
  8
L-1-1
 10
14388.84
 20
9300.48
 11
14475.77
 21
9277.18
  0
LINE
  8
L-1-1
 10
14388.84
 20
9300.48
 11
14475.77
 21
9323.77
  0
LINE
  8
L-1-1
 10
14588.84
 20
9300.48
 11
14678.84
 21
9300.48
  0
LINE
  8
L-1-1
 10
14678.84
 20
9300.48
 11
14768.84
 21
9300.48
  0
LINE
  8
L-1-1
 10
14678.84
 20
9300.48
 11
14765.77
 21
9323.77
  0
LINE
  8
L-1-1
 10
14588.84
 20
9300.48
 11
14678.84
 21
9300.48
  0
LINE
  8
L-1-1
 10
14591.90
 20
9323.77
 11
14678.84
 21
9300.48
  0
LINE
  8
L-1-1
 10
14588.84
 20
9300.48
 11
14678.84
 21
9300.48
  0
LINE
  8
L-1-1
 10
14591.90
 20
9323.77
 11
14678.84
 21
9300.48
  0
LINE
  8
L-1-1
 10
14678.84
 20
9300.48
 11
14768.84
 21
9300.48
  0
LINE
  8
L-1-1
 10
14678.84
 20
9300.48
 11
14765.77
 21
9277.18
  0
LINE
  8
L-3-1
 10
14402.78
 20
8600.48
 11
14675.44
 21
8600.48
  0
LINE
  8
L-1-2
 10
14434.46
 20
8587.68
 11
14599.24
 21
8587.68
  0
LINE
  8
L-1-2
 10
14434.46
 20
8613.27
 11
14599.24
 21
8613.28
  0
LINE
  8
L-1-1
 10
14612.46
 20
8589.68
 11
14612.46
 21
8600.48
  0
LINE
  8
L-1-2
 10
14654.46
 20
8587.68
 11
14672.46
 21
8587.68
  0
LINE
  8
L-1-2
 10
14672.46
 20
8587.68
 11
14672.46
 21
8600.47
  0
LINE
  8
L-1-2
 10
14622.46
 20
8578.47
 11
14622.46
 21
8600.48
  0
ARC
  8
L-1-2
 10
14632.74
 20
8603.67
 40
42.82
 50
338.07
 51
355.72
  0
LINE
  8
L-1-1
 10
14654.46
 20
8589.68
 11
14672.46
 21
8589.67
  0
LINE
  8
L-1-2
 10
14622.46
 20
8578.47
 11
14634.49
 21
8578.48
  0
LINE
  8
L-1-2
 10
14638.46
 20
8591.69
 11
14638.46
 21
8600.48
  0
LINE
  8
L-1-2
 10
14599.24
 20
8587.68
 11
14622.46
 21
8587.68
  0
LINE
  8
L-1-1
 10
14612.46
 20
8589.68
 11
14622.46
 21
8589.68
  0
LINE
  8
L-1-2
 10
14622.46
 20
8586.47
 11
14634.49
 21
8586.48
  0
LINE
  8
L-1-2
 10
14634.46
 20
8578.48
 11
14634.46
 21
8600.48
  0
ARC
  8
L-1-2
 10
14634.49
 20
8582.48
 40
4.00
 50
269.54
 51
90.45
  0
ARC
  8
L-1-2
 10
14621.87
 20
8600.28
 40
18.68
 50
312.35
 51
332.61
  0
LINE
  8
L-1-2
 10
14638.46
 20
8578.48
 11
14638.46
 21
8600.48
  0
LINE
  8
L-1-2
 10
14638.46
 20
8578.48
 11
14650.49
 21
8578.47
  0
LINE
  8
L-1-2
 10
14654.46
 20
8586.48
 11
14654.46
 21
8600.48
  0
LINE
  8
L-1-2
 10
14638.46
 20
8586.48
 11
14654.46
 21
8586.48
  0
LINE
  8
L-1-2
 10
14650.46
 20
8578.48
 11
14650.46
 21
8600.48
  0
ARC
  8
L-1-2
 10
14650.49
 20
8582.47
 40
4.00
 50
269.58
 51
90.44
  0
ARC
  8
L-1-2
 10
14637.88
 20
8600.28
 40
18.68
 50
312.35
 51
332.60
  0
LINE
  8
L-1-1
 10
14612.46
 20
8600.48
 11
14612.46
 21
8611.28
  0
LINE
  8
L-1-2
 10
14654.46
 20
8613.28
 11
14672.46
 21
8613.27
  0
LINE
  8
L-1-2
 10
14672.46
 20
8600.47
 11
14672.46
 21
8613.27
  0
LINE
  8
L-1-2
 10
14622.46
 20
8600.48
 11
14622.46
 21
8622.48
  0
ARC
  8
L-1-2
 10
14632.74
 20
8597.28
 40
42.82
 50
4.27
 51
21.93
  0
LINE
  8
L-1-1
 10
14654.46
 20
8611.27
 11
14672.46
 21
8611.28
  0
LINE
  8
L-1-2
 10
14622.46
 20
8622.48
 11
14634.49
 21
8622.47
  0
LINE
  8
L-1-2
 10
14638.46
 20
8600.48
 11
14638.46
 21
8609.27
  0
LINE
  8
L-1-1
 10
14612.46
 20
8611.28
 11
14622.46
 21
8611.27
  0
LINE
  8
L-1-2
 10
14622.46
 20
8614.48
 11
14634.49
 21
8614.48
  0
LINE
  8
L-1-2
 10
14634.46
 20
8600.48
 11
14634.46
 21
8622.47
  0
ARC
  8
L-1-2
 10
14634.49
 20
8618.48
 40
4.00
 50
269.55
 51
90.44
  0
ARC
  8
L-1-2
 10
14621.87
 20
8600.67
 40
18.68
 50
27.39
 51
47.65
  0
LINE
  8
L-1-2
 10
14638.46
 20
8600.48
 11
14638.46
 21
8622.48
  0
LINE
  8
L-1-2
 10
14638.46
 20
8622.48
 11
14650.49
 21
8622.48
  0
LINE
  8
L-1-2
 10
14654.46
 20
8600.48
 11
14654.46
 21
8614.47
  0
LINE
  8
L-1-2
 10
14638.46
 20
8614.47
 11
14654.46
 21
8614.47
  0
LINE
  8
L-1-2
 10
14650.46
 20
8600.48
 11
14650.46
 21
8622.47
  0
ARC
  8
L-1-2
 10
14650.49
 20
8618.48
 40
4.00
 50
269.56
 51
90.44
  0
ARC
  8
L-1-2
 10
14637.88
 20
8600.67
 40
18.68
 50
27.40
 51
47.64
  0
LINE
  8
L-1-2
 10
14599.24
 20
8613.28
 11
14622.46
 21
8613.27
  0
LINE
  8
L-1-2
 10
14468.86
 20
8653.27
 11
14468.86
 21
8678.87
  0
LINE
  8
L-1-2
 10
14434.46
 20
8653.27
 11
14468.86
 21
8653.27
  0
LINE
  8
L-1-2
 10
14434.46
 20
8678.87
 11
14468.86
 21
8678.87
  0
ARC
  8
L-1-2
 10
14434.46
 20
8633.27
 40
20.00
 50
90.00
 51
270.00
  0
ARC
  8
L-1-2
 10
14434.46
 20
8633.27
 40
45.60
 50
90.00
 51
270.00
  0
LINE
  8
L-3-1
 10
14402.78
 20
8200.47
 11
14675.44
 21
8200.48
  0
LINE
  8
L-1-2
 10
14434.46
 20
8213.27
 11
14599.24
 21
8213.28
  0
LINE
  8
L-1-2
 10
14434.46
 20
8187.68
 11
14599.24
 21
8187.68
  0
LINE
  8
L-1-1
 10
14612.46
 20
8200.48
 11
14612.46
 21
8211.28
  0
LINE
  8
L-1-2
 10
14654.46
 20
8213.27
 11
14672.46
 21
8213.28
  0
LINE
  8
L-1-2
 10
14672.46
 20
8200.48
 11
14672.46
 21
8213.28
  0
LINE
  8
L-1-2
 10
14622.46
 20
8200.48
 11
14622.46
 21
8222.48
  0
ARC
  8
L-1-2
 10
14632.74
 20
8197.28
 40
42.82
 50
4.28
 51
21.93
  0
LINE
  8
L-1-1
 10
14654.46
 20
8211.28
 11
14672.46
 21
8211.28
  0
LINE
  8
L-1-2
 10
14622.46
 20
8222.48
 11
14634.49
 21
8222.47
  0
LINE
  8
L-1-2
 10
14638.46
 20
8200.48
 11
14638.46
 21
8209.27
  0
LINE
  8
L-1-2
 10
14599.24
 20
8213.28
 11
14622.46
 21
8213.27
  0
LINE
  8
L-1-1
 10
14612.46
 20
8211.28
 11
14622.46
 21
8211.27
  0
LINE
  8
L-1-2
 10
14622.46
 20
8214.48
 11
14634.49
 21
8214.48
  0
LINE
  8
L-1-2
 10
14634.46
 20
8200.48
 11
14634.46
 21
8222.47
  0
ARC
  8
L-1-2
 10
14634.49
 20
8218.47
 40
4.00
 50
269.55
 51
90.46
  0
ARC
  8
L-1-2
 10
14621.87
 20
8200.67
 40
18.68
 50
27.39
 51
47.65
  0
LINE
  8
L-1-2
 10
14638.46
 20
8200.48
 11
14638.46
 21
8222.48
  0
LINE
  8
L-1-2
 10
14638.46
 20
8222.48
 11
14650.49
 21
8222.48
  0
LINE
  8
L-1-2
 10
14654.46
 20
8200.47
 11
14654.46
 21
8214.47
  0
LINE
  8
L-1-2
 10
14638.46
 20
8214.47
 11
14654.46
 21
8214.47
  0
LINE
  8
L-1-2
 10
14650.46
 20
8200.48
 11
14650.46
 21
8222.47
  0
ARC
  8
L-1-2
 10
14650.49
 20
8218.48
 40
4.00
 50
269.56
 51
90.42
  0
ARC
  8
L-1-2
 10
14637.88
 20
8200.67
 40
18.68
 50
27.40
 51
47.65
  0
LINE
  8
L-1-1
 10
14612.46
 20
8189.68
 11
14612.46
 21
8200.48
  0
LINE
  8
L-1-2
 10
14654.46
 20
8187.68
 11
14672.46
 21
8187.68
  0
LINE
  8
L-1-2
 10
14672.46
 20
8187.68
 11
14672.46
 21
8200.48
  0
LINE
  8
L-1-2
 10
14622.46
 20
8178.47
 11
14622.46
 21
8200.48
  0
ARC
  8
L-1-2
 10
14632.74
 20
8203.67
 40
42.82
 50
338.07
 51
355.73
  0
LINE
  8
L-1-1
 10
14654.46
 20
8189.68
 11
14672.46
 21
8189.67
  0
LINE
  8
L-1-2
 10
14622.46
 20
8178.47
 11
14634.49
 21
8178.48
  0
LINE
  8
L-1-2
 10
14638.46
 20
8191.69
 11
14638.46
 21
8200.48
  0
LINE
  8
L-1-1
 10
14612.46
 20
8189.68
 11
14622.46
 21
8189.68
  0
LINE
  8
L-1-2
 10
14622.46
 20
8186.47
 11
14634.49
 21
8186.48
  0
LINE
  8
L-1-2
 10
14634.46
 20
8178.48
 11
14634.46
 21
8200.48
  0
ARC
  8
L-1-2
 10
14634.49
 20
8182.48
 40
4.00
 50
269.56
 51
90.45
  0
ARC
  8
L-1-2
 10
14621.87
 20
8200.28
 40
18.68
 50
312.35
 51
332.61
  0
LINE
  8
L-1-2
 10
14638.46
 20
8178.48
 11
14638.46
 21
8200.48
  0
LINE
  8
L-1-2
 10
14638.46
 20
8178.48
 11
14650.49
 21
8178.47
  0
LINE
  8
L-1-2
 10
14654.46
 20
8186.48
 11
14654.46
 21
8200.47
  0
LINE
  8
L-1-2
 10
14638.46
 20
8186.48
 11
14654.46
 21
8186.48
  0
LINE
  8
L-1-2
 10
14650.46
 20
8178.48
 11
14650.46
 21
8200.48
  0
ARC
  8
L-1-2
 10
14650.49
 20
8182.48
 40
4.00
 50
269.56
 51
90.44
  0
ARC
  8
L-1-2
 10
14637.88
 20
8200.28
 40
18.68
 50
312.36
 51
332.60
  0
LINE
  8
L-1-2
 10
14599.24
 20
8187.68
 11
14622.46
 21
8187.68
  0
LINE
  8
L-1-2
 10
14468.86
 20
8122.08
 11
14468.86
 21
8147.68
  0
LINE
  8
L-1-2
 10
14434.46
 20
8147.68
 11
14468.86
 21
8147.68
  0
LINE
  8
L-1-2
 10
14434.46
 20
8122.08
 11
14468.86
 21
8122.08
  0
ARC
  8
L-1-2
 10
14434.46
 20
8167.68
 40
20.00
 50
90.00
 51
270.00
  0
ARC
  8
L-1-2
 10
14434.46
 20
8167.68
 40
45.60
 50
90.00
 51
270.00
  0
LINE
  8
L-1-1
 10
14648.88
 20
8188.83
 11
15286.43
 21
7551.28
  0
LINE
  8
L-1-1
 10
15286.43
 20
7551.28
 11
17562.22
 21
7551.28
  0
LINE
  8
L-1-1
 10
14693.88
 20
8110.89
 11
14648.88
 21
8188.83
  0
LINE
  8
L-1-1
 10
14648.88
 20
8188.83
 11
14726.82
 21
8143.83
  0
LINE
  8
L-1-1
 10
14199.64
 20
9449.55
 11
14453.96
 21
9335.11
  0
TEXT
  8
NTEXT
 10
13908.05
 20
776.34
 40
210.00
 41
0.64
  1
ファイル名　　ＨＳＬ６００．ｄｘｆ
 50
0.00
  7
KANJI
  0
TEXT
  8
NTEXT
 10
24977.32
 20
1939.39
 40
300.00
 41
0.64
  1
ＨＳＬ－６００型
 50
0.00
  7
KANJI
  0
TEXT
  8
NTEXT
 10
24988.87
 20
2226.64
 40
300.00
 41
0.64
  1
ロングスパンエレベーター
 50
0.00
  7
KANJI
  0
TEXT
  8
NTEXT
 10
6641.92
 20
3224.09
 40
210.00
 41
0.64
  1
９３４
 50
90.00
  7
KANJI
  0
TEXT
  8
NTEXT
 10
6116.72
 20
3224.09
 40
210.00
 41
0.64
  1
８２０
 50
90.00
  7
KANJI
  0
TEXT
  8
NTEXT
 10
6386.72
 20
3154.09
 40
210.00
 41
0.53
  1
（５６０）
 50
90.00
  7
KANJI
  0
TEXT
  8
NTEXT
 10
6911.92
 20
3154.09
 40
210.00
 41
0.53
  1
（６７０）
 50
90.00
  7
KANJI
  0
TEXT
  8
NTEXT
 10
3187.00
 20
3224.09
 40
210.00
 41
0.64
  1
５００
 50
90.00
  7
KANJI
  0
TEXT
  8
NTEXT
 10
1157.10
 20
3224.09
 40
210.00
 41
0.64
  1
６００
 50
90.00
  7
KANJI
  0
TEXT
  8
NTEXT
 10
1427.10
 20
2954.09
 40
210.00
 41
0.53
  1
（９００も可）
 50
90.00
  7
KANJI
  0
TEXT
  8
NTEXT
 10
4802.65
 20
2096.09
 40
210.00
 41
0.64
  1
荷台長　　３３７０
 50
0.00
  7
KANJI
  0
TEXT
  8
NTEXT
 10
7974.28
 20
2096.09
 40
210.00
 41
0.64
  1
荷台長　　３３７０（１５７０）
 50
0.00
  7
KANJI
  0
TEXT
  8
NTEXT
 10
11011.06
 20
3512.01
 40
210.00
 41
0.64
  1
(　　)内は
 50
0.00
  7
KANJI
  0
TEXT
  8
NTEXT
 10
11011.06
 20
3230.17
 40
210.00
 41
0.64
  1
５６０型を示す
 50
0.00
  7
KANJI
  0
TEXT
  8
NTEXT
 10
2024.29
 20
3374.63
 40
210.00
 41
0.64
  1
枠組足場
 50
0.00
  7
KANJI
  0
TEXT
  8
NTEXT
 10
5853.41
 20
6650.90
 40
210.00
 41
0.64
  1
ポスト芯々　６７００（４９００）
 50
0.00
  7
KANJI
  0
TEXT
  8
NTEXT
 10
5853.41
 20
6150.90
 40
210.00
 41
0.64
  1
枠組芯々　　７２００（５４００）
 50
0.00
  7
KANJI
  0
TEXT
  8
NTEXT
 10
3038.16
 20
10153.78
 40
210.00
 41
0.64
  1
２０７４
 50
90.00
  7
KANJI
  0
TEXT
  8
NTEXT
 10
3038.16
 20
8828.71
 40
210.00
 41
0.64
  1
７３９
 50
90.00
  7
KANJI
  0
TEXT
  8
NTEXT
 10
11488.16
 20
10003.78
 40
210.00
 41
0.64
  1
１６００
 50
90.00
  7
KANJI
  0
TEXT
  8
NTEXT
 10
11470.50
 20
8304.79
 40
210.00
 41
0.64
  1
１６４０
 50
90.00
  7
KANJI
  0
TEXT
  8
NTEXT
 10
11969.45
 20
8287.40
 40
210.00
 41
0.64
  1
１６０５
 50
90.00
  7
KANJI
  0
TEXT
  8
NTEXT
 10
11988.16
 20
9968.78
 40
210.00
 41
0.64
  1
１６００
 50
90.00
  7
KANJI
  0
TEXT
  8
NTEXT
 10
11488.16
 20
11603.78
 40
210.00
 41
0.64
  1
１６００
 50
90.00
  7
KANJI
  0
TEXT
  8
NTEXT
 10
11988.16
 20
11568.78
 40
210.00
 41
0.64
  1
１６００
 50
90.00
  7
KANJI
  0
TEXT
  8
NTEXT
 10
11316.32
 20
6139.35
 40
210.00
 41
0.57
  1
（　　）内は、枠組芯々距離５４００ｍｍの
 50
0.00
  7
KANJI
  0
TEXT
  8
NTEXT
 10
14316.32
 20
6139.35
 40
210.00
 41
0.57
  1
場合
 50
0.00
  7
KANJI
  0
TEXT
  8
NTEXT
 10
6619.55
 20
5381.28
 40
210.00
 41
0.64
  1
立面図　１／６０
 50
0.00
  7
KANJI
  0
TEXT
  8
NTEXT
 10
6619.52
 20
1378.99
 40
210.00
 41
0.64
  1
平面図　１／６０
 50
0.00
  7
KANJI
  0
TEXT
  8
NTEXT
 10
15315.89
 20
15330.84
 40
180.00
 41
0.64
  1
仕　　　　様
 50
0.00
  7
KANJI
  0
TEXT
  8
NTEXT
 10
15521.78
 20
15002.05
 40
180.00
 41
0.64
  1
枠組間隔
 50
0.00
  7
KANJI
  0
TEXT
  8
NTEXT
 10
16688.45
 20
15002.05
 40
180.00
 41
0.64
  1
荷台長
 50
0.00
  7
KANJI
  0
TEXT
  8
NTEXT
 10
17855.12
 20
15002.05
 40
180.00
 41
0.64
  1
積載荷重
 50
0.00
  7
KANJI
  0
TEXT
  8
NTEXT
 10
15521.78
 20
14702.05
 40
180.00
 41
0.45
  1
５，４００
 50
0.00
  7
KANJI
  0
TEXT
  8
NTEXT
 10
16688.45
 20
14702.05
 40
180.00
 41
0.45
  1
４，９４０
 50
0.00
  7
KANJI
  0
TEXT
  8
NTEXT
 10
17189.33
 20
14769.73
 40
138.00
 41
0.59
  1
ｍ
 50
0.00
  7
KANJI
  0
TEXT
  8
NTEXT
 10
17326.07
 20
14704.47
 40
138.00
 41
0.59
  1
ｍ
 50
0.00
  7
KANJI
  0
TEXT
  8
NTEXT
 10
16022.66
 20
14769.73
 40
138.00
 41
0.59
  1
ｍ
 50
0.00
  7
KANJI
  0
TEXT
  8
NTEXT
 10
16159.41
 20
14704.47
 40
138.00
 41
0.59
  1
ｍ
 50
0.00
  7
KANJI
  0
TEXT
  8
NTEXT
 10
15521.78
 20
14402.05
 40
180.00
 41
0.45
  1
７，２００
 50
0.00
  7
KANJI
  0
TEXT
  8
NTEXT
 10
16688.45
 20
14402.05
 40
180.00
 41
0.45
  1
６，７４０
 50
0.00
  7
KANJI
  0
TEXT
  8
NTEXT
 10
17189.33
 20
14469.73
 40
138.00
 41
0.59
  1
ｍ
 50
0.00
  7
KANJI
  0
TEXT
  8
NTEXT
 10
17326.07
 20
14404.47
 40
138.00
 41
0.59
  1
ｍ
 50
0.00
  7
KANJI
  0
TEXT
  8
NTEXT
 10
16022.66
 20
14469.73
 40
138.00
 41
0.59
  1
ｍ
 50
0.00
  7
KANJI
  0
TEXT
  8
NTEXT
 10
16159.41
 20
14404.47
 40
138.00
 41
0.59
  1
ｍ
 50
0.00
  7
KANJI
  0
TEXT
  8
NTEXT
 10
17855.12
 20
14552.05
 40
180.00
 41
0.64
  1
６００ｋｇ
 50
0.00
  7
KANJI
  0
TEXT
  8
NTEXT
 10
15521.78
 20
14102.05
 40
180.00
 41
0.64
  1
最大楊程
 50
0.00
  7
KANJI
  0
TEXT
  8
NTEXT
 10
15521.78
 20
13802.05
 40
180.00
 41
0.64
  1
荷台有効巾
 50
0.00
  7
KANJI
  0
TEXT
  8
NTEXT
 10
15521.78
 20
13202.05
 40
180.00
 41
0.64
  1
昇降方法
 50
0.00
  7
KANJI
  0
TEXT
  8
NTEXT
 10
15521.78
 20
12902.05
 40
180.00
 41
0.64
  1
昇降電動機
 50
0.00
  7
KANJI
  0
TEXT
  8
NTEXT
 10
15521.78
 20
12602.05
 40
180.00
 41
0.64
  1
操作方法
 50
0.00
  7
KANJI
  0
TEXT
  8
NTEXT
 10
15521.78
 20
12302.05
 40
180.00
 41
0.64
  1
電　　源
 50
0.00
  7
KANJI
  0
TEXT
  8
NTEXT
 10
17621.78
 20
14102.05
 40
180.00
 41
0.59
  1
５０ｍ
 50
0.00
  7
KANJI
  0
TEXT
  8
NTEXT
 10
17021.78
 20
13802.05
 40
180.00
 41
0.45
  1
８２０　　　，　　　　　２種類
 50
0.00
  7
KANJI
  0
TEXT
  8
NTEXT
 10
17342.66
 20
13869.73
 40
138.00
 41
0.59
  1
ｍ
 50
0.00
  7
KANJI
  0
TEXT
  8
NTEXT
 10
17479.41
 20
13804.47
 40
138.00
 41
0.59
  1
ｍ
 50
0.00
  7
KANJI
  0
TEXT
  8
NTEXT
 10
17681.78
 20
13802.05
 40
180.00
 41
0.45
  1
５６０
 50
0.00
  7
KANJI
  0
TEXT
  8
NTEXT
 10
18002.66
 20
13869.73
 40
138.00
 41
0.59
  1
ｍ
 50
0.00
  7
KANJI
  0
TEXT
  8
NTEXT
 10
18139.41
 20
13804.47
 40
138.00
 41
0.59
  1
ｍ
 50
0.00
  7
KANJI
  0
TEXT
  8
NTEXT
 10
17021.78
 20
13202.05
 40
180.00
 41
0.64
  1
ピンラック駆動方式
 50
0.00
  7
KANJI
  0
TEXT
  8
NTEXT
 10
17021.78
 20
12902.05
 40
180.00
 41
0.64
  1
１．５ｋｗ×２台
 50
0.00
  7
KANJI
  0
TEXT
  8
NTEXT
 10
17021.78
 20
12602.05
 40
180.00
 41
0.64
  1
搬器取付レバー方式
 50
0.00
  7
KANJI
  0
TEXT
  8
NTEXT
 10
15521.78
 20
13502.05
 40
180.00
 41
0.64
  1
昇降速度
 50
0.00
  7
KANJI
  0
TEXT
  8
NTEXT
 10
17621.78
 20
13502.05
 40
180.00
 41
0.59
  1
１０ｍ／ｍｉｎ
 50
0.00
  7
KANJI
  0
TEXT
  8
NTEXT
 10
17021.78
 20
12302.05
 40
180.00
 41
0.53
  1
２２０／２２０Ｖ，３相交流
 50
0.00
  7
KANJI
  0
TEXT
  8
NTEXT
 10
19021.78
 20
13652.05
 40
180.00
 41
0.64
  1
安全装置
 50
0.00
  7
KANJI
  0
TEXT
  8
NTEXT
 10
20521.78
 20
15002.05
 40
180.00
 41
0.64
  1
傾斜時停止装置
 50
0.00
  7
KANJI
  0
TEXT
  8
NTEXT
 10
20521.78
 20
14702.05
 40
180.00
 41
0.59
  1
カバナ式自動落下防止装置
 50
0.00
  7
KANJI
  0
TEXT
  8
NTEXT
 10
20521.78
 20
14402.05
 40
180.00
 41
0.64
  1
水平バランサー
 50
0.00
  7
KANJI
  0
TEXT
  8
NTEXT
 10
20521.78
 20
14102.05
 40
180.00
 41
0.64
  1
上昇時制限バランス装置
 50
0.00
  7
KANJI
  0
TEXT
  8
NTEXT
 10
20521.78
 20
13802.05
 40
180.00
 41
0.64
  1
下降時制限バランス装置
 50
0.00
  7
KANJI
  0
TEXT
  8
NTEXT
 10
20521.78
 20
13502.05
 40
180.00
 41
0.64
  1
昇降確認ブザー
 50
0.00
  7
KANJI
  0
TEXT
  8
NTEXT
 10
20521.78
 20
13202.05
 40
180.00
 41
0.64
  1
非常停止押ボタン
 50
0.00
  7
KANJI
  0
TEXT
  8
NTEXT
 10
20521.78
 20
12902.05
 40
180.00
 41
0.64
  1
ベース緩衝ゴム
 50
0.00
  7
KANJI
  0
TEXT
  8
NTEXT
 10
20521.78
 20
12602.05
 40
180.00
 41
0.64
  1
逆相警報ブザー
 50
0.00
  7
KANJI
  0
TEXT
  8
NTEXT
 10
20521.78
 20
12302.05
 40
180.00
 41
0.53
  1
過昇降制限リミットスイッチ
 50
0.00
  7
KANJI
  0
TEXT
  8
NTEXT
 10
18689.92
 20
1851.71
 40
180.00
 41
0.64
  1
図　名
 50
0.00
  7
KANJI
  0
TEXT
  8
NTEXT
 10
18783.35
 20
1564.23
 40
180.00
 41
0.64
  1
ロングスパンエレベーター組立計画図
 50
0.00
  7
KANJI
  0
TEXT
  8
NTEXT
 10
18783.35
 20
1064.26
 40
180.00
 41
0.64
  1
ＨＳＬ－６００
 50
0.00
  7
KANJI
  0
TEXT
  8
NTEXT
 10
21649.92
 20
1351.71
 40
180.00
 41
0.64
  1
縮　尺
 50
0.00
  7
KANJI
  0
TEXT
  8
NTEXT
 10
21743.35
 20
1064.24
 40
180.00
 41
0.64
  1
１／６０
 50
0.00
  7
KANJI
  0
TEXT
  8
NTEXT
 10
21649.91
 20
1851.70
 40
180.00
 41
0.64
  1
図面番号
 50
0.00
  7
KANJI
  0
TEXT
  8
NTEXT
 10
17729.93
 20
1851.71
 40
180.00
 41
0.64
  1
校　閲
 50
0.00
  7
KANJI
  0
TEXT
  8
NTEXT
 10
17729.92
 20
1351.72
 40
180.00
 41
0.64
  1
製　図
 50
0.00
  7
KANJI
  0
TEXT
  8
NTEXT
 10
17729.92
 20
851.74
 40
180.00
 41
0.64
  1
日　付
 50
0.00
  7
KANJI
  0
TEXT
  8
NTEXT
 10
17129.92
 20
1851.70
 40
180.00
 41
0.64
  1
承　認
 50
0.00
  7
KANJI
  0
TEXT
  8
NTEXT
 10
16953.08
 20
8158.14
 40
210.00
 41
0.64
  1
８００
 50
90.00
  7
KANJI
  0
TEXT
  8
NTEXT
 10
17630.59
 20
7061.02
 40
210.00
 41
0.64
  1
アンカーボルト芯々６４００（４６００）
 50
0.00
  7
KANJI
  0
TEXT
  8
NTEXT
 10
18134.01
 20
5990.36
 40
210.00
 41
0.64
  1
基礎図　１／６０
 50
0.00
  7
KANJI
  0
TEXT
  8
NTEXT
 10
15855.77
 20
8223.86
 40
210.00
 41
0.46
  1
４００
 50
90.00
  7
KANJI
  0
TEXT
  8
NTEXT
 10
15302.42
 20
9321.55
 40
210.00
 41
0.46
  1
300
 50
0.00
  7
KANJI
  0
TEXT
  8
NTEXT
 10
15436.84
 20
9630.48
 40
210.00
 41
0.64
  1
８００
 50
0.00
  7
KANJI
  0
TEXT
  8
NTEXT
 10
14302.42
 20
9621.55
 40
210.00
 41
0.46
  1
300
 50
0.00
  7
KANJI
  0
TEXT
  8
NTEXT
 10
13837.23
 20
9398.69
 40
210.00
 41
0.46
  1
２００
 50
0.00
  7
KANJI
  0
TEXT
  8
NTEXT
 10
14650.15
 20
9328.54
 40
210.00
 41
0.46
  1
９０以上
 50
0.00
  7
KANJI
  0
TEXT
  8
NTEXT
 10
15406.43
 20
7581.28
 40
210.00
 41
0.50
  1
アンカーボルト　２×２－Ｗ５／８
 50
0.00
  7
KANJI
  0
ENDSEC
  0
EOF
