  0
SECTION
  2
HEADER
  9
$EXTMIN
 10
0
 20
0
  9
$EXTMAX
 10
420
 20
297
  0
ENDSEC
  0
SECTION
  2
TABLES
  0
TABLE
  2
LTYPE
 70
     9
  0
LTYPE
  2
CONTINUOUS
 70
    64
  3
実線
 72
    65
 73
     0
 40
0.0
  0
LTYPE
  2
DASHED1
 70
    64
  3
--  --  --  --  --  --  --  --  
 72
    65
 73
     2
 40
2.5
 49
1.25
 49
-1.25
  0
LTYPE
  2
DASHED2
 70
    64
  3
----    ----    ----    ----    
 72
    65
 73
     2
 40
5.0
 49
2.5
 49
-2.5
  0
LTYPE
  2
DASHED3
 70
    64
  3
------  ------  ------  ------  
 72
    65
 73
     2
 40
5.0
 49
3.75
 49
-1.25
  0
LTYPE
  2
CENTER1
 70
    64
  3
----- - ----- - ----- - ----- - 
 72
    65
 73
     4
 40
10.0
 49
6.25
 49
-1.25
 49
1.25
 49
-1.25
  0
LTYPE
  2
CENTER2
 70
    64
  3
----------  --  ----------  --  
 72
    65
 73
     4
 40
20.0
 49
12.5
 49
-2.5
 49
2.5
 49
-2.5
  0
LTYPE
  2
PHANTOM1
 70
    64
  3
--- - - --- - - --- - - --- - - 
 72
    65
 73
     6
 40
10.0
 49
3.25
 49
-1.25
 49
1.25
 49
-1.25
 49
1.25
 49
-1.25
  0
LTYPE
  2
PHANTOM2
 70
    64
  3
--------  -  -  --------  -  -  
 72
    65
 73
     6
 40
20.0
 49
10.0
 49
-2.5
 49
1.25
 49
-2.5
 49
1.25
 49
-2.5
  0
LTYPE
  2
DOT
 70
    64
  3
-   -   -   -   -   -   -   -   
 72
    65
 73
     2
 40
2.5
 49
0.625
 49
-1.875
  0
ENDTAB
  0
TABLE
  2
STYLE
 70
    1
  0
STYLE
  2
STANDARD
 70
    64
 40
0.0
 41
1.0
 42
0.0
 50
0.0
 71
     0
  3
TXT
  4
BIGFONT
  0
ENDTAB
  0
TABLE
  2
LAYER
 70
    5
  0
LAYER
  2
0-0
 70
   64
 62
    7
  6
CONTINUOUS
  0
LAYER
  2
0-1
 70
   64
 62
    7
  6
CONTINUOUS
  0
LAYER
  2
1-0
 70
   64
 62
    7
  6
CONTINUOUS
  0
LAYER
  2
2-0
 70
   64
 62
    7
  6
CONTINUOUS
  0
LAYER
  2
ADD_LINE
 70
   64
 62
    7
  6
CONTINUOUS
  0
ENDTAB
  0
ENDSEC
  0
SECTION
  2
ENTITIES
  0
LINE
  8
0-0
  6
CONTINUOUS
 62
    7
 10
305.92682
 20
38.486486
 11
305.92682
 21
6.4864864
  0
LINE
  8
0-0
  6
CONTINUOUS
 62
    7
 10
309.92681
 20
38.486486
 11
309.92681
 21
6.4864864
  0
LINE
  8
0-0
  6
CONTINUOUS
 62
    7
 10
364.92682
 20
38.486486
 11
364.92682
 21
6.4864864
  0
LINE
  8
0-0
  6
CONTINUOUS
 62
    7
 10
305.92682
 20
22.486486
 11
364.72448
 21
22.486486
  0
LINE
  8
0-0
  6
CONTINUOUS
 62
    7
 10
305.92682
 20
14.486486
 11
364.72448
 21
14.486486
  0
LINE
  8
0-0
  6
CONTINUOUS
 62
    7
 10
321.9268
 20
22.417825
 11
321.9268
 21
6.4864864
  0
LINE
  8
0-0
  6
CONTINUOUS
 62
    7
 10
325.92679
 20
22.417825
 11
325.92679
 21
6.4864864
  0
LINE
  8
0-0
  6
CONTINUOUS
 62
    7
 10
337.92678
 20
22.417825
 11
337.92678
 21
6.4864864
  0
LINE
  8
0-0
  6
CONTINUOUS
 62
    7
 10
341.92676
 20
22.417825
 11
341.92676
 21
6.4864864
  0
LINE
  8
0-0
  6
CONTINUOUS
 62
    7
 10
368.9268
 20
38.486486
 11
368.9268
 21
18.560996
  0
LINE
  8
0-0
  6
CONTINUOUS
 62
    7
 10
210.28113
 20
291.57244
 11
210.20272
 21
291.57244
  0
LINE
  8
0-0
  6
CONTINUOUS
 62
    7
 10
210.25909
 20
291.37246
 11
210.12433
 21
291.37246
  0
LINE
  8
0-0
  6
CONTINUOUS
 62
    7
 10
210.25909
 20
291.17248
 11
210.05898
 21
291.17248
  0
LINE
  8
0-0
  6
CONTINUOUS
 62
    7
 10
210.25909
 20
290.97247
 11
209.98059
 21
290.97247
  0
LINE
  8
0-0
  6
CONTINUOUS
 62
    7
 10
210.25909
 20
290.77247
 11
209.90221
 21
290.77247
  0
LINE
  8
0-0
  6
CONTINUOUS
 62
    7
 10
210.25909
 20
290.57246
 11
209.81073
 21
290.57246
  0
LINE
  8
0-0
  6
CONTINUOUS
 62
    7
 10
210.25909
 20
290.37248
 11
209.7454
 21
290.37248
  0
LINE
  8
0-0
  6
CONTINUOUS
 62
    7
 10
210.25909
 20
290.1725
 11
209.66701
 21
290.1725
  0
LINE
  8
0-0
  6
CONTINUOUS
 62
    7
 10
210.25909
 20
289.97247
 11
209.5886
 21
289.97247
  0
LINE
  8
0-0
  6
CONTINUOUS
 62
    7
 10
210.25909
 20
289.77246
 11
209.51021
 21
289.77246
  0
LINE
  8
0-0
  6
CONTINUOUS
 62
    7
 10
210.25909
 20
289.57246
 11
209.41871
 21
289.57246
  0
LINE
  8
0-0
  6
CONTINUOUS
 62
    7
 10
210.25909
 20
289.37248
 11
209.35341
 21
289.37248
  0
LINE
  8
0-0
  6
CONTINUOUS
 62
    7
 10
210.25909
 20
289.1725
 11
209.26193
 21
289.1725
  0
LINE
  8
0-0
  6
CONTINUOUS
 62
    7
 10
210.25909
 20
288.97247
 11
209.17048
 21
288.97247
  0
LINE
  8
0-0
  6
CONTINUOUS
 62
    7
 10
210.25909
 20
288.77246
 11
209.10513
 21
288.77246
  0
LINE
  8
0-0
  6
CONTINUOUS
 62
    7
 10
210.25909
 20
288.57248
 11
209.01058
 21
288.57248
  0
LINE
  8
0-0
  6
CONTINUOUS
 62
    7
 10
210.25909
 20
288.37247
 11
208.95916
 21
288.37247
  0
LINE
  8
0-0
  6
CONTINUOUS
 62
    7
 10
210.25909
 20
288.17247
 11
208.85628
 21
288.17247
  0
LINE
  8
0-0
  6
CONTINUOUS
 62
    7
 10
210.25909
 20
287.97249
 11
208.77908
 21
287.97249
  0
LINE
  8
0-0
  6
CONTINUOUS
 62
    7
 10
210.25909
 20
287.77246
 11
208.70192
 21
287.77246
  0
LINE
  8
0-0
  6
CONTINUOUS
 62
    7
 10
210.25909
 20
287.57248
 11
208.61188
 21
287.57248
  0
LINE
  8
0-0
  6
CONTINUOUS
 62
    7
 10
210.25909
 20
287.37247
 11
208.5347
 21
287.37247
  0
LINE
  8
0-0
  6
CONTINUOUS
 62
    7
 10
210.25909
 20
287.17246
 11
208.45753
 21
287.17246
  0
LINE
  8
0-0
  6
CONTINUOUS
 62
    7
 10
210.25909
 20
286.97248
 11
208.38035
 21
286.97248
  0
LINE
  8
0-0
  6
CONTINUOUS
 62
    7
 10
210.25909
 20
286.7725
 11
208.30317
 21
286.7725
  0
LINE
  8
0-0
  6
CONTINUOUS
 62
    7
 10
210.25909
 20
286.57247
 11
208.21313
 21
286.57247
  0
LINE
  8
0-0
  6
CONTINUOUS
 62
    7
 10
210.25909
 20
286.37247
 11
208.13598
 21
286.37247
  0
LINE
  8
0-0
  6
CONTINUOUS
 62
    7
 10
210.25909
 20
286.17246
 11
208.0588
 21
286.17246
  0
LINE
  8
0-0
  6
CONTINUOUS
 62
    7
 10
210.25909
 20
285.97246
 11
207.98163
 21
285.97246
  0
LINE
  8
0-0
  6
CONTINUOUS
 62
    7
 10
210.25909
 20
285.77248
 11
207.89158
 21
285.77248
  0
LINE
  8
0-0
  6
CONTINUOUS
 62
    7
 10
210.25909
 20
285.57247
 11
207.81441
 21
285.57247
  0
LINE
  8
0-0
  6
CONTINUOUS
 62
    7
 10
210.25909
 20
285.37246
 11
207.72256
 21
285.37246
  0
LINE
  8
0-0
  6
CONTINUOUS
 62
    7
 10
210.25909
 20
285.17246
 11
207.64325
 21
285.17246
  0
LINE
  8
0-0
  6
CONTINUOUS
 62
    7
 10
210.25909
 20
284.97248
 11
207.56395
 21
284.97248
  0
LINE
  8
0-0
  6
CONTINUOUS
 62
    7
 10
210.25909
 20
284.77247
 11
207.48462
 21
284.77247
  0
LINE
  8
0-0
  6
CONTINUOUS
 62
    7
 10
210.25909
 20
284.57249
 11
207.40531
 21
284.57249
  0
LINE
  8
0-0
  6
CONTINUOUS
 62
    7
 10
210.25909
 20
284.37246
 11
207.31277
 21
284.37246
  0
LINE
  8
0-0
  6
CONTINUOUS
 62
    7
 10
210.25909
 20
284.17248
 11
207.24666
 21
284.17248
  0
LINE
  8
0-0
  6
CONTINUOUS
 62
    7
 10
210.25909
 20
283.97247
 11
207.16735
 21
283.97247
  0
LINE
  8
0-0
  6
CONTINUOUS
 62
    7
 10
210.25909
 20
283.77247
 11
207.08802
 21
283.77247
  0
LINE
  8
0-0
  6
CONTINUOUS
 62
    7
 10
210.25909
 20
283.57246
 11
206.99548
 21
283.57246
  0
LINE
  8
0-0
  6
CONTINUOUS
 62
    7
 10
210.25909
 20
283.17248
 11
206.83685
 21
283.17248
  0
LINE
  8
0-0
  6
CONTINUOUS
 62
    7
 10
210.25909
 20
282.97247
 11
206.75754
 21
282.97247
  0
LINE
  8
0-0
  6
CONTINUOUS
 62
    7
 10
210.25909
 20
282.77247
 11
206.67821
 21
282.77247
  0
LINE
  8
0-0
  6
CONTINUOUS
 62
    7
 10
210.25909
 20
282.57246
 11
206.59891
 21
282.57246
  0
LINE
  8
0-0
  6
CONTINUOUS
 62
    7
 10
210.25909
 20
282.37248
 11
206.51958
 21
282.37248
  0
LINE
  8
0-0
  6
CONTINUOUS
 62
    7
 10
210.25909
 20
282.1725
 11
206.45349
 21
282.1725
  0
LINE
  8
0-0
  6
CONTINUOUS
 62
    7
 10
210.30454
 20
281.77246
 11
206.27927
 21
281.77246
  0
LINE
  8
0-0
  6
CONTINUOUS
 62
    7
 10
210.30454
 20
291.85677
 11
210.30454
 21
281.77246
  0
LINE
  8
0-0
  6
CONTINUOUS
 62
    7
 10
212.30455
 20
291.72212
 11
212.30455
 21
281.77246
  0
LINE
  8
0-0
  6
CONTINUOUS
 62
    7
 10
216.10456
 20
282.19358
 11
216.10456
 21
281.77246
  0
LINE
  8
0-0
  6
CONTINUOUS
 62
    7
 10
216.28536
 20
281.77246
 11
212.30455
 21
281.77246
  0
LINE
  8
0-0
  6
CONTINUOUS
 62
    7
 10
212.28173
 20
291.79895
 11
216.28536
 21
281.77246
  0
LINE
  8
0-0
  6
CONTINUOUS
 62
    7
 10
216.20455
 20
281.96017
 11
216.20455
 21
281.77308
  0
LINE
  8
0-0
  6
CONTINUOUS
 62
    7
 10
216.00454
 20
282.45156
 11
216.00454
 21
281.77753
  0
LINE
  8
0-0
  6
CONTINUOUS
 62
    7
 10
215.90455
 20
282.69517
 11
215.90455
 21
281.77308
  0
LINE
  8
0-0
  6
CONTINUOUS
 62
    7
 10
215.80456
 20
282.88156
 11
215.80456
 21
281.77308
  0
LINE
  8
0-0
  6
CONTINUOUS
 62
    7
 10
215.70452
 20
283.13957
 11
215.70452
 21
281.77753
  0
LINE
  8
0-0
  6
CONTINUOUS
 62
    7
 10
215.60455
 20
283.42625
 11
215.60455
 21
281.77308
  0
LINE
  8
0-0
  6
CONTINUOUS
 62
    7
 10
215.50454
 20
283.65558
 11
215.50454
 21
281.77753
  0
LINE
  8
0-0
  6
CONTINUOUS
 62
    7
 10
215.40455
 20
283.97092
 11
215.40455
 21
281.77753
  0
LINE
  8
0-0
  6
CONTINUOUS
 62
    7
 10
215.30456
 20
284.17156
 11
215.30456
 21
281.77308
  0
LINE
  8
0-0
  6
CONTINUOUS
 62
    7
 10
215.20454
 20
284.42957
 11
215.20454
 21
281.77753
  0
LINE
  8
0-0
  6
CONTINUOUS
 62
    7
 10
215.10455
 20
284.71625
 11
215.10455
 21
281.77254
  0
LINE
  8
0-0
  6
CONTINUOUS
 62
    7
 10
215.00454
 20
284.97423
 11
215.00454
 21
281.77254
  0
LINE
  8
0-0
  6
CONTINUOUS
 62
    7
 10
214.90455
 20
285.14625
 11
214.90455
 21
281.77882
  0
LINE
  8
0-0
  6
CONTINUOUS
 62
    7
 10
214.80456
 20
285.43291
 11
214.80456
 21
281.77254
  0
LINE
  8
0-0
  6
CONTINUOUS
 62
    7
 10
214.70454
 20
285.66224
 11
214.70454
 21
281.77254
  0
LINE
  8
0-0
  6
CONTINUOUS
 62
    7
 10
214.60455
 20
285.97607
 11
214.60455
 21
281.77254
  0
LINE
  8
0-0
  6
CONTINUOUS
 62
    7
 10
214.50456
 20
286.17761
 11
214.50456
 21
281.77882
  0
LINE
  8
0-0
  6
CONTINUOUS
 62
    7
 10
214.40455
 20
286.45241
 11
214.40455
 21
281.77254
  0
LINE
  8
0-0
  6
CONTINUOUS
 62
    7
 10
214.30456
 20
286.69058
 11
214.30456
 21
281.77882
  0
LINE
  8
0-0
  6
CONTINUOUS
 62
    7
 10
214.20454
 20
286.9471
 11
214.20454
 21
281.77882
  0
LINE
  8
0-0
  6
CONTINUOUS
 62
    7
 10
214.10455
 20
287.20354
 11
214.10455
 21
281.77254
  0
LINE
  8
0-0
  6
CONTINUOUS
 62
    7
 10
214.00456
 20
287.42344
 11
214.00456
 21
281.77254
  0
LINE
  8
0-0
  6
CONTINUOUS
 62
    7
 10
213.90454
 20
287.69823
 11
213.90454
 21
281.77254
  0
LINE
  8
0-0
  6
CONTINUOUS
 62
    7
 10
213.80455
 20
287.93812
 11
213.80455
 21
281.77254
  0
LINE
  8
0-0
  6
CONTINUOUS
 62
    7
 10
213.70454
 20
288.19615
 11
213.70454
 21
281.77882
  0
LINE
  8
0-0
  6
CONTINUOUS
 62
    7
 10
213.60455
 20
288.4664
 11
213.60455
 21
281.77254
  0
LINE
  8
0-0
  6
CONTINUOUS
 62
    7
 10
213.50456
 20
288.71211
 11
213.50456
 21
281.77254
  0
LINE
  8
0-0
  6
CONTINUOUS
 62
    7
 10
213.40452
 20
288.97012
 11
213.40452
 21
281.77254
  0
LINE
  8
0-0
  6
CONTINUOUS
 62
    7
 10
213.30455
 20
289.21585
 11
213.30455
 21
281.77254
  0
LINE
  8
0-0
  6
CONTINUOUS
 62
    7
 10
213.20454
 20
289.46156
 11
213.20454
 21
281.77882
  0
LINE
  8
0-0
  6
CONTINUOUS
 62
    7
 10
213.10455
 20
289.70729
 11
213.10455
 21
281.77254
  0
LINE
  8
0-0
  6
CONTINUOUS
 62
    7
 10
213.00456
 20
289.96527
 11
213.00456
 21
281.77254
  0
LINE
  8
0-0
  6
CONTINUOUS
 62
    7
 10
212.90454
 20
290.26014
 11
212.90454
 21
281.77254
  0
LINE
  8
0-0
  6
CONTINUOUS
 62
    7
 10
212.80453
 20
290.49355
 11
212.80453
 21
281.77882
  0
LINE
  8
0-0
  6
CONTINUOUS
 62
    7
 10
212.70456
 20
290.73926
 11
212.70456
 21
281.77254
  0
LINE
  8
0-0
  6
CONTINUOUS
 62
    7
 10
212.60454
 20
290.99727
 11
212.60454
 21
281.77254
  0
LINE
  8
0-0
  6
CONTINUOUS
 62
    7
 10
212.50455
 20
291.24297
 11
212.50455
 21
281.77254
  0
LINE
  8
0-0
  6
CONTINUOUS
 62
    7
 10
212.40454
 20
291.48871
 11
212.40454
 21
281.77882
  0
LINE
  8
0-0
  6
CONTINUOUS
 62
    7
 10
210.25909
 20
281.97247
 11
206.35847
 21
281.97247
  0
LINE
  8
0-0
  6
CONTINUOUS
 62
    7
 10
206.27927
 20
281.77246
 11
210.30373
 21
291.79895
  0
LINE
  8
0-0
  6
CONTINUOUS
 62
    7
 10
210.25909
 20
283.37246
 11
206.92268
 21
283.37246
  0
LINE
  8
0-0
  6
CONTINUOUS
 62
    7
 10
310.04944
 20
30.486485
 11
364.86402
 21
30.486485
  0
LINE
  8
0-0
  6
CONTINUOUS
 62
    7
 10
305.92682
 20
38.486486
 11
415.13562
 21
38.486486
  0
LINE
  8
0-0
  6
CONTINUOUS
 62
    7
 10
364.96554
 20
28.486487
 11
415.13562
 21
28.486487
  0
LINE
  8
0-0
  6
CONTINUOUS
 62
    3
 10
216.7068
 20
286.72076
 11
415.13513
 21
286.72076
  0
LINE
  8
0-0
  6
CONTINUOUS
 62
    3
 10
415.13513
 20
286.72076
 11
415.13513
 21
6.4864864
  0
LINE
  8
0-0
  6
CONTINUOUS
 62
    3
 10
7.3476759
 20
6.4864864
 11
415.13513
 21
6.4864864
  0
LINE
  8
0-0
  6
CONTINUOUS
 62
    3
 10
7.3476759
 20
6.4864864
 11
7.3476759
 21
286.72076
  0
LINE
  8
0-0
  6
CONTINUOUS
 62
    7
 10
364.92682
 20
18.486488
 11
415.13562
 21
18.486488
  0
LINE
  8
0-0
  6
CONTINUOUS
 62
    3
 10
7.3476759
 20
286.72076
 11
206.78538
 21
286.72076
  0
LINE
  8
1-0
  6
CONTINUOUS
 62
    7
 10
130.10134
 20
53.581076
 11
130.10134
 21
53.441087
  0
LINE
  8
1-0
  6
CONTINUOUS
 62
    7
 10
130.10134
 20
51.221082
 11
130.10134
 21
51.08108
  0
LINE
  8
1-0
  6
CONTINUOUS
 62
    7
 10
132.60135
 20
53.581076
 11
132.60135
 21
53.441087
  0
LINE
  8
1-0
  6
CONTINUOUS
 62
    7
 10
132.60135
 20
51.221082
 11
132.60135
 21
51.08108
  0
LINE
  8
1-0
  6
CONTINUOUS
 62
    7
 10
121.35136
 20
53.581076
 11
141.35134
 21
53.581076
  0
LINE
  8
1-0
  6
CONTINUOUS
 62
    7
 10
141.35134
 20
53.581076
 11
141.35134
 21
51.08108
  0
LINE
  8
1-0
  6
CONTINUOUS
 62
    7
 10
121.35136
 20
51.08108
 11
141.35134
 21
51.08108
  0
LINE
  8
1-0
  6
CONTINUOUS
 62
    7
 10
121.35136
 20
53.581076
 11
121.35136
 21
51.08108
  0
LINE
  8
1-0
  6
CONTINUOUS
 62
    7
 10
130.10134
 20
53.441087
 11
121.35136
 21
53.441087
  0
LINE
  8
1-0
  6
CONTINUOUS
 62
    7
 10
130.10134
 20
51.221082
 11
121.35136
 21
51.221082
  0
LINE
  8
1-0
  6
CONTINUOUS
 62
    7
 10
132.60135
 20
51.221082
 11
141.35134
 21
51.221082
  0
LINE
  8
1-0
  6
CONTINUOUS
 62
    7
 10
132.60135
 20
53.441087
 11
141.35134
 21
53.441087
  0
LINE
  8
1-0
  6
CONTINUOUS
 62
    7
 10
129.02635
 20
53.831077
 11
129.02635
 21
53.581076
  0
LINE
  8
1-0
  6
CONTINUOUS
 62
    7
 10
129.02635
 20
53.831077
 11
133.67634
 21
53.831077
  0
LINE
  8
1-0
  6
CONTINUOUS
 62
    7
 10
133.67634
 20
53.831077
 11
133.67634
 21
53.581076
  0
LINE
  8
1-0
  6
CONTINUOUS
 62
    7
 10
130.16159
 20
53.831077
 11
130.16159
 21
53.581076
  0
LINE
  8
1-0
  6
CONTINUOUS
 62
    7
 10
129.84134
 20
53.831077
 11
129.84134
 21
53.581076
  0
LINE
  8
1-0
  6
CONTINUOUS
 62
    7
 10
132.5411
 20
53.831077
 11
132.5411
 21
53.581076
  0
LINE
  8
1-0
  6
CONTINUOUS
 62
    7
 10
132.86135
 20
53.831077
 11
132.86135
 21
53.581076
  0
LINE
  8
1-0
  6
CONTINUOUS
 62
    7
 10
129.52134
 20
54.581079
 11
129.52134
 21
53.581076
  0
LINE
  8
1-0
  6
CONTINUOUS
 62
    7
 10
133.18135
 20
54.581079
 11
133.18135
 21
53.581076
  0
LINE
  8
1-0
  6
CONTINUOUS
 62
    7
 10
130.15135
 20
53.441087
 11
130.15135
 21
51.221082
  0
LINE
  8
1-0
  6
CONTINUOUS
 62
    7
 10
132.55134
 20
53.441087
 11
132.55134
 21
51.221082
  0
LINE
  8
1-0
  6
CONTINUOUS
 62
    7
 10
131.10634
 20
53.441087
 11
131.30635
 21
53.241081
  0
LINE
  8
1-0
  6
CONTINUOUS
 62
    7
 10
131.14634
 20
53.441087
 11
130.10134
 21
53.441087
  0
LINE
  8
1-0
  6
CONTINUOUS
 62
    7
 10
131.39634
 20
53.241081
 11
131.59635
 21
53.441087
  0
LINE
  8
1-0
  6
CONTINUOUS
 62
    7
 10
131.55635
 20
53.441087
 11
132.60135
 21
53.441087
  0
LINE
  8
1-0
  6
CONTINUOUS
 62
    7
 10
131.10634
 20
51.221082
 11
131.30635
 21
51.421081
  0
LINE
  8
1-0
  6
CONTINUOUS
 62
    7
 10
131.14634
 20
51.221082
 11
130.10134
 21
51.221082
  0
LINE
  8
1-0
  6
CONTINUOUS
 62
    7
 10
131.30635
 20
51.381079
 11
131.30635
 21
53.28108
  0
LINE
  8
1-0
  6
CONTINUOUS
 62
    7
 10
131.39634
 20
51.421081
 11
131.59635
 21
51.221082
  0
LINE
  8
1-0
  6
CONTINUOUS
 62
    7
 10
131.39634
 20
51.381079
 11
131.39634
 21
53.28108
  0
LINE
  8
1-0
  6
CONTINUOUS
 62
    7
 10
131.55635
 20
51.221082
 11
132.60135
 21
51.221082
  0
LINE
  8
1-0
  6
CONTINUOUS
 62
    7
 10
121.85134
 20
54.581079
 11
121.85134
 21
53.581076
  0
LINE
  8
1-0
  6
CONTINUOUS
 62
    7
 10
121.88134
 20
54.581079
 11
121.85134
 21
54.581079
  0
LINE
  8
1-0
  6
CONTINUOUS
 62
    7
 10
121.95134
 20
54.511079
 11
121.95134
 21
53.781075
  0
LINE
  8
1-0
  6
CONTINUOUS
 62
    7
 10
122.78134
 20
53.681079
 11
122.05134
 21
53.681079
  0
LINE
  8
1-0
  6
CONTINUOUS
 62
    7
 10
122.85134
 20
53.611078
 11
122.85134
 21
53.581076
  0
LINE
  8
1-0
  6
CONTINUOUS
 62
    7
 10
122.23133
 20
54.361081
 11
122.25134
 21
54.381086
  0
LINE
  8
1-0
  6
CONTINUOUS
 62
    7
 10
122.45134
 20
54.381086
 11
122.25134
 21
54.381086
  0
LINE
  8
1-0
  6
CONTINUOUS
 62
    7
 10
122.45134
 20
54.381086
 11
122.47135
 21
54.361081
  0
LINE
  8
1-0
  6
CONTINUOUS
 62
    7
 10
122.54135
 20
53.781082
 11
122.54135
 21
53.731086
  0
LINE
  8
1-0
  6
CONTINUOUS
 62
    7
 10
122.16133
 20
53.781082
 11
122.16133
 21
53.731086
  0
LINE
  8
1-0
  6
CONTINUOUS
 62
    7
 10
122.11135
 20
53.731086
 11
122.11135
 21
53.681079
  0
LINE
  8
1-0
  6
CONTINUOUS
 62
    7
 10
122.59133
 20
53.731086
 11
122.11135
 21
53.731086
  0
LINE
  8
1-0
  6
CONTINUOUS
 62
    7
 10
122.59133
 20
53.731086
 11
122.59133
 21
53.681079
  0
LINE
  8
1-0
  6
CONTINUOUS
 62
    7
 10
122.58805
 20
53.781082
 11
122.11463
 21
53.781082
  0
LINE
  8
1-0
  6
CONTINUOUS
 62
    7
 10
122.11463
 20
53.91108
 11
122.11463
 21
53.781082
  0
LINE
  8
1-0
  6
CONTINUOUS
 62
    7
 10
122.11463
 20
53.91108
 11
122.14463
 21
53.941082
  0
LINE
  8
1-0
  6
CONTINUOUS
 62
    7
 10
122.55805
 20
53.941082
 11
122.14463
 21
53.941082
  0
LINE
  8
1-0
  6
CONTINUOUS
 62
    7
 10
122.58805
 20
53.91108
 11
122.58805
 21
53.781082
  0
LINE
  8
1-0
  6
CONTINUOUS
 62
    7
 10
122.55805
 20
53.941082
 11
122.58805
 21
53.91108
  0
LINE
  8
1-0
  6
CONTINUOUS
 62
    7
 10
122.11463
 20
53.91108
 11
122.58805
 21
53.91108
  0
LINE
  8
1-0
  6
CONTINUOUS
 62
    7
 10
122.23299
 20
53.91108
 11
122.23299
 21
53.781082
  0
LINE
  8
1-0
  6
CONTINUOUS
 62
    7
 10
122.46969
 20
53.91108
 11
122.46969
 21
53.781082
  0
LINE
  8
1-0
  6
CONTINUOUS
 62
    7
 10
122.58805
 20
53.941082
 11
122.11463
 21
53.941082
  0
LINE
  8
1-0
  6
CONTINUOUS
 62
    7
 10
122.11463
 20
54.071081
 11
122.11463
 21
53.941082
  0
LINE
  8
1-0
  6
CONTINUOUS
 62
    7
 10
122.11463
 20
54.071081
 11
122.14463
 21
54.101083
  0
LINE
  8
1-0
  6
CONTINUOUS
 62
    7
 10
122.55805
 20
54.101083
 11
122.14463
 21
54.101083
  0
LINE
  8
1-0
  6
CONTINUOUS
 62
    7
 10
122.58805
 20
54.071081
 11
122.58805
 21
53.941082
  0
LINE
  8
1-0
  6
CONTINUOUS
 62
    7
 10
122.55805
 20
54.101083
 11
122.58805
 21
54.071081
  0
LINE
  8
1-0
  6
CONTINUOUS
 62
    7
 10
122.11463
 20
54.071081
 11
122.58805
 21
54.071081
  0
LINE
  8
1-0
  6
CONTINUOUS
 62
    7
 10
122.23299
 20
54.071081
 11
122.23299
 21
53.941082
  0
LINE
  8
1-0
  6
CONTINUOUS
 62
    7
 10
122.46969
 20
54.071081
 11
122.46969
 21
53.941082
  0
LINE
  8
1-0
  6
CONTINUOUS
 62
    7
 10
122.23133
 20
54.361081
 11
122.23133
 21
54.101083
  0
LINE
  8
1-0
  6
CONTINUOUS
 62
    7
 10
122.47135
 20
54.361081
 11
122.47135
 21
54.101083
  0
LINE
  8
1-0
  6
CONTINUOUS
 62
    7
 10
122.25134
 20
54.381086
 11
122.25134
 21
54.101083
  0
LINE
  8
1-0
  6
CONTINUOUS
 62
    7
 10
122.45134
 20
54.381086
 11
122.45134
 21
54.101083
  0
LINE
  8
1-0
  6
CONTINUOUS
 62
    7
 10
122.23133
 20
52.861088
 11
122.25134
 21
52.881081
  0
LINE
  8
1-0
  6
CONTINUOUS
 62
    7
 10
122.45134
 20
52.881081
 11
122.25134
 21
52.881081
  0
LINE
  8
1-0
  6
CONTINUOUS
 62
    7
 10
122.45134
 20
52.881081
 11
122.47135
 21
52.861088
  0
LINE
  8
1-0
  6
CONTINUOUS
 62
    7
 10
122.25134
 20
52.881081
 11
122.25134
 21
53.441087
  0
LINE
  8
1-0
  6
CONTINUOUS
 62
    7
 10
122.45134
 20
52.881081
 11
122.45134
 21
53.441087
  0
LINE
  8
1-0
  6
CONTINUOUS
 62
    7
 10
122.23133
 20
53.441087
 11
122.23133
 21
38.201077
  0
LINE
  8
1-0
  6
CONTINUOUS
 62
    7
 10
122.47135
 20
53.441087
 11
122.47135
 21
38.201077
  0
LINE
  8
1-0
  6
CONTINUOUS
 62
    7
 10
140.85135
 20
54.581079
 11
140.85135
 21
53.581076
  0
LINE
  8
1-0
  6
CONTINUOUS
 62
    7
 10
140.82135
 20
54.581079
 11
140.85135
 21
54.581079
  0
LINE
  8
1-0
  6
CONTINUOUS
 62
    7
 10
140.75135
 20
54.511079
 11
140.75135
 21
53.781075
  0
LINE
  8
1-0
  6
CONTINUOUS
 62
    7
 10
139.92135
 20
53.681079
 11
140.65135
 21
53.681079
  0
LINE
  8
1-0
  6
CONTINUOUS
 62
    7
 10
139.85135
 20
53.611078
 11
139.85135
 21
53.581076
  0
LINE
  8
1-0
  6
CONTINUOUS
 62
    7
 10
140.47136
 20
54.361081
 11
140.45135
 21
54.381086
  0
LINE
  8
1-0
  6
CONTINUOUS
 62
    7
 10
140.25135
 20
54.381086
 11
140.45135
 21
54.381086
  0
LINE
  8
1-0
  6
CONTINUOUS
 62
    7
 10
140.25135
 20
54.381086
 11
140.23134
 21
54.361081
  0
LINE
  8
1-0
  6
CONTINUOUS
 62
    7
 10
140.16134
 20
53.781082
 11
140.16134
 21
53.731086
  0
LINE
  8
1-0
  6
CONTINUOUS
 62
    7
 10
140.54136
 20
53.781082
 11
140.54136
 21
53.731086
  0
LINE
  8
1-0
  6
CONTINUOUS
 62
    7
 10
140.59134
 20
53.731086
 11
140.59134
 21
53.681079
  0
LINE
  8
1-0
  6
CONTINUOUS
 62
    7
 10
140.11136
 20
53.731086
 11
140.59134
 21
53.731086
  0
LINE
  8
1-0
  6
CONTINUOUS
 62
    7
 10
140.11136
 20
53.731086
 11
140.11136
 21
53.681079
  0
LINE
  8
1-0
  6
CONTINUOUS
 62
    7
 10
140.11464
 20
53.781082
 11
140.58806
 21
53.781082
  0
LINE
  8
1-0
  6
CONTINUOUS
 62
    7
 10
140.58806
 20
53.91108
 11
140.58806
 21
53.781082
  0
LINE
  8
1-0
  6
CONTINUOUS
 62
    7
 10
140.58806
 20
53.91108
 11
140.55806
 21
53.941082
  0
LINE
  8
1-0
  6
CONTINUOUS
 62
    7
 10
140.14464
 20
53.941082
 11
140.55806
 21
53.941082
  0
LINE
  8
1-0
  6
CONTINUOUS
 62
    7
 10
140.11464
 20
53.91108
 11
140.11464
 21
53.781082
  0
LINE
  8
1-0
  6
CONTINUOUS
 62
    7
 10
140.14464
 20
53.941082
 11
140.11464
 21
53.91108
  0
LINE
  8
1-0
  6
CONTINUOUS
 62
    7
 10
140.58806
 20
53.91108
 11
140.11464
 21
53.91108
  0
LINE
  8
1-0
  6
CONTINUOUS
 62
    7
 10
140.4697
 20
53.91108
 11
140.4697
 21
53.781082
  0
LINE
  8
1-0
  6
CONTINUOUS
 62
    7
 10
140.233
 20
53.91108
 11
140.233
 21
53.781082
  0
LINE
  8
1-0
  6
CONTINUOUS
 62
    7
 10
140.11464
 20
53.941082
 11
140.58806
 21
53.941082
  0
LINE
  8
1-0
  6
CONTINUOUS
 62
    7
 10
140.58806
 20
54.071081
 11
140.58806
 21
53.941082
  0
LINE
  8
1-0
  6
CONTINUOUS
 62
    7
 10
140.58806
 20
54.071081
 11
140.55806
 21
54.101083
  0
LINE
  8
1-0
  6
CONTINUOUS
 62
    7
 10
140.14464
 20
54.101083
 11
140.55806
 21
54.101083
  0
LINE
  8
1-0
  6
CONTINUOUS
 62
    7
 10
140.11464
 20
54.071081
 11
140.11464
 21
53.941082
  0
LINE
  8
1-0
  6
CONTINUOUS
 62
    7
 10
140.14464
 20
54.101083
 11
140.11464
 21
54.071081
  0
LINE
  8
1-0
  6
CONTINUOUS
 62
    7
 10
140.58806
 20
54.071081
 11
140.11464
 21
54.071081
  0
LINE
  8
1-0
  6
CONTINUOUS
 62
    7
 10
140.4697
 20
54.071081
 11
140.4697
 21
53.941082
  0
LINE
  8
1-0
  6
CONTINUOUS
 62
    7
 10
140.233
 20
54.071081
 11
140.233
 21
53.941082
  0
LINE
  8
1-0
  6
CONTINUOUS
 62
    7
 10
140.47136
 20
54.361081
 11
140.47136
 21
54.101083
  0
LINE
  8
1-0
  6
CONTINUOUS
 62
    7
 10
140.23134
 20
54.361081
 11
140.23134
 21
54.101083
  0
LINE
  8
1-0
  6
CONTINUOUS
 62
    7
 10
140.45135
 20
54.381086
 11
140.45135
 21
54.101083
  0
LINE
  8
1-0
  6
CONTINUOUS
 62
    7
 10
140.25135
 20
54.381086
 11
140.25135
 21
54.101083
  0
LINE
  8
1-0
  6
CONTINUOUS
 62
    7
 10
140.47136
 20
52.861088
 11
140.45135
 21
52.881081
  0
LINE
  8
1-0
  6
CONTINUOUS
 62
    7
 10
140.25135
 20
52.881081
 11
140.45135
 21
52.881081
  0
LINE
  8
1-0
  6
CONTINUOUS
 62
    7
 10
140.25135
 20
52.881081
 11
140.23134
 21
52.861088
  0
LINE
  8
1-0
  6
CONTINUOUS
 62
    7
 10
140.45135
 20
52.881081
 11
140.45135
 21
53.441087
  0
LINE
  8
1-0
  6
CONTINUOUS
 62
    7
 10
140.25135
 20
52.881081
 11
140.25135
 21
53.441087
  0
LINE
  8
1-0
  6
CONTINUOUS
 62
    7
 10
140.47136
 20
53.441087
 11
140.47136
 21
38.201077
  0
LINE
  8
1-0
  6
CONTINUOUS
 62
    7
 10
140.23134
 20
53.441087
 11
140.23134
 21
38.201077
  0
LINE
  8
1-0
  6
CONTINUOUS
 62
    7
 10
129.80133
 20
54.361081
 11
129.82134
 21
54.381086
  0
LINE
  8
1-0
  6
CONTINUOUS
 62
    7
 10
130.02134
 20
54.381086
 11
129.82134
 21
54.381086
  0
LINE
  8
1-0
  6
CONTINUOUS
 62
    7
 10
130.02134
 20
54.381086
 11
130.04135
 21
54.361081
  0
LINE
  8
1-0
  6
CONTINUOUS
 62
    7
 10
130.11135
 20
53.781082
 11
130.11135
 21
53.731086
  0
LINE
  8
1-0
  6
CONTINUOUS
 62
    7
 10
129.73133
 20
53.781082
 11
129.73133
 21
53.731086
  0
LINE
  8
1-0
  6
CONTINUOUS
 62
    7
 10
129.68135
 20
53.731086
 11
129.68135
 21
53.681079
  0
LINE
  8
1-0
  6
CONTINUOUS
 62
    7
 10
130.16133
 20
53.731086
 11
129.68135
 21
53.731086
  0
LINE
  8
1-0
  6
CONTINUOUS
 62
    7
 10
130.16133
 20
53.731086
 11
130.16133
 21
53.681079
  0
LINE
  8
1-0
  6
CONTINUOUS
 62
    7
 10
130.15805
 20
53.781082
 11
129.68463
 21
53.781082
  0
LINE
  8
1-0
  6
CONTINUOUS
 62
    7
 10
129.68463
 20
53.91108
 11
129.68463
 21
53.781082
  0
LINE
  8
1-0
  6
CONTINUOUS
 62
    7
 10
129.68463
 20
53.91108
 11
129.71463
 21
53.941082
  0
LINE
  8
1-0
  6
CONTINUOUS
 62
    7
 10
130.12805
 20
53.941082
 11
129.71463
 21
53.941082
  0
LINE
  8
1-0
  6
CONTINUOUS
 62
    7
 10
130.15805
 20
53.91108
 11
130.15805
 21
53.781082
  0
LINE
  8
1-0
  6
CONTINUOUS
 62
    7
 10
130.12805
 20
53.941082
 11
130.15805
 21
53.91108
  0
LINE
  8
1-0
  6
CONTINUOUS
 62
    7
 10
129.68463
 20
53.91108
 11
130.15805
 21
53.91108
  0
LINE
  8
1-0
  6
CONTINUOUS
 62
    7
 10
129.80299
 20
53.91108
 11
129.80299
 21
53.781082
  0
LINE
  8
1-0
  6
CONTINUOUS
 62
    7
 10
130.03969
 20
53.91108
 11
130.03969
 21
53.781082
  0
LINE
  8
1-0
  6
CONTINUOUS
 62
    7
 10
130.15805
 20
53.941082
 11
129.68463
 21
53.941082
  0
LINE
  8
1-0
  6
CONTINUOUS
 62
    7
 10
129.68463
 20
54.071081
 11
129.68463
 21
53.941082
  0
LINE
  8
1-0
  6
CONTINUOUS
 62
    7
 10
129.68463
 20
54.071081
 11
129.71463
 21
54.101083
  0
LINE
  8
1-0
  6
CONTINUOUS
 62
    7
 10
130.12805
 20
54.101083
 11
129.71463
 21
54.101083
  0
LINE
  8
1-0
  6
CONTINUOUS
 62
    7
 10
130.15805
 20
54.071081
 11
130.15805
 21
53.941082
  0
LINE
  8
1-0
  6
CONTINUOUS
 62
    7
 10
130.12805
 20
54.101083
 11
130.15805
 21
54.071081
  0
LINE
  8
1-0
  6
CONTINUOUS
 62
    7
 10
129.68463
 20
54.071081
 11
130.15805
 21
54.071081
  0
LINE
  8
1-0
  6
CONTINUOUS
 62
    7
 10
129.80299
 20
54.071081
 11
129.80299
 21
53.941082
  0
LINE
  8
1-0
  6
CONTINUOUS
 62
    7
 10
130.03969
 20
54.071081
 11
130.03969
 21
53.941082
  0
LINE
  8
1-0
  6
CONTINUOUS
 62
    7
 10
129.80133
 20
54.361081
 11
129.80133
 21
54.101083
  0
LINE
  8
1-0
  6
CONTINUOUS
 62
    7
 10
130.04135
 20
54.361081
 11
130.04135
 21
54.101083
  0
LINE
  8
1-0
  6
CONTINUOUS
 62
    7
 10
129.82134
 20
54.381086
 11
129.82134
 21
54.101083
  0
LINE
  8
1-0
  6
CONTINUOUS
 62
    7
 10
130.02134
 20
54.381086
 11
130.02134
 21
54.101083
  0
LINE
  8
1-0
  6
CONTINUOUS
 62
    7
 10
129.80133
 20
52.861088
 11
129.82134
 21
52.881081
  0
LINE
  8
1-0
  6
CONTINUOUS
 62
    7
 10
130.02134
 20
52.881081
 11
129.82134
 21
52.881081
  0
LINE
  8
1-0
  6
CONTINUOUS
 62
    7
 10
130.02134
 20
52.881081
 11
130.04135
 21
52.861088
  0
LINE
  8
1-0
  6
CONTINUOUS
 62
    7
 10
129.82134
 20
52.881081
 11
129.82134
 21
53.441087
  0
LINE
  8
1-0
  6
CONTINUOUS
 62
    7
 10
130.02134
 20
52.881081
 11
130.02134
 21
53.441087
  0
LINE
  8
1-0
  6
CONTINUOUS
 62
    7
 10
128.80134
 20
38.701075
 11
128.80134
 21
38.801075
  0
LINE
  8
1-0
  6
CONTINUOUS
 62
    7
 10
128.80134
 20
38.801075
 11
129.04133
 21
38.801075
  0
LINE
  8
1-0
  6
CONTINUOUS
 62
    7
 10
129.04133
 20
38.701075
 11
129.04133
 21
38.801075
  0
LINE
  8
1-0
  6
CONTINUOUS
 62
    7
 10
129.80133
 20
53.441087
 11
129.80133
 21
38.701075
  0
LINE
  8
1-0
  6
CONTINUOUS
 62
    7
 10
130.04135
 20
53.441087
 11
130.04135
 21
38.701075
  0
LINE
  8
1-0
  6
CONTINUOUS
 62
    7
 10
132.60135
 20
51.221082
 11
132.60135
 21
51.08108
  0
LINE
  8
1-0
  6
CONTINUOUS
 62
    7
 10
132.90136
 20
54.361081
 11
132.88135
 21
54.381086
  0
LINE
  8
1-0
  6
CONTINUOUS
 62
    7
 10
132.68135
 20
54.381086
 11
132.88135
 21
54.381086
  0
LINE
  8
1-0
  6
CONTINUOUS
 62
    7
 10
132.68135
 20
54.381086
 11
132.66134
 21
54.361081
  0
LINE
  8
1-0
  6
CONTINUOUS
 62
    7
 10
132.59134
 20
53.781082
 11
132.59134
 21
53.731086
  0
LINE
  8
1-0
  6
CONTINUOUS
 62
    7
 10
132.97136
 20
53.781082
 11
132.97136
 21
53.731086
  0
LINE
  8
1-0
  6
CONTINUOUS
 62
    7
 10
133.02134
 20
53.731086
 11
133.02134
 21
53.681079
  0
LINE
  8
1-0
  6
CONTINUOUS
 62
    7
 10
132.54136
 20
53.731086
 11
133.02134
 21
53.731086
  0
LINE
  8
1-0
  6
CONTINUOUS
 62
    7
 10
132.54464
 20
53.781082
 11
133.01806
 21
53.781082
  0
LINE
  8
1-0
  6
CONTINUOUS
 62
    7
 10
133.01806
 20
53.91108
 11
133.01806
 21
53.781082
  0
LINE
  8
1-0
  6
CONTINUOUS
 62
    7
 10
133.01806
 20
53.91108
 11
132.98806
 21
53.941082
  0
LINE
  8
1-0
  6
CONTINUOUS
 62
    7
 10
132.57464
 20
53.941082
 11
132.98806
 21
53.941082
  0
LINE
  8
1-0
  6
CONTINUOUS
 62
    7
 10
132.54464
 20
53.91108
 11
132.54464
 21
53.781082
  0
LINE
  8
1-0
  6
CONTINUOUS
 62
    7
 10
132.57464
 20
53.941082
 11
132.54464
 21
53.91108
  0
LINE
  8
1-0
  6
CONTINUOUS
 62
    7
 10
133.01806
 20
53.91108
 11
132.54464
 21
53.91108
  0
LINE
  8
1-0
  6
CONTINUOUS
 62
    7
 10
132.8997
 20
53.91108
 11
132.8997
 21
53.781082
  0
LINE
  8
1-0
  6
CONTINUOUS
 62
    7
 10
132.663
 20
53.91108
 11
132.663
 21
53.781082
  0
LINE
  8
1-0
  6
CONTINUOUS
 62
    7
 10
132.54464
 20
53.941082
 11
133.01806
 21
53.941082
  0
LINE
  8
1-0
  6
CONTINUOUS
 62
    7
 10
133.01806
 20
54.071081
 11
133.01806
 21
53.941082
  0
LINE
  8
1-0
  6
CONTINUOUS
 62
    7
 10
133.01806
 20
54.071081
 11
132.98806
 21
54.101083
  0
LINE
  8
1-0
  6
CONTINUOUS
 62
    7
 10
132.57464
 20
54.101083
 11
132.98806
 21
54.101083
  0
LINE
  8
1-0
  6
CONTINUOUS
 62
    7
 10
132.54464
 20
54.071081
 11
132.54464
 21
53.941082
  0
LINE
  8
1-0
  6
CONTINUOUS
 62
    7
 10
132.57464
 20
54.101083
 11
132.54464
 21
54.071081
  0
LINE
  8
1-0
  6
CONTINUOUS
 62
    7
 10
133.01806
 20
54.071081
 11
132.54464
 21
54.071081
  0
LINE
  8
1-0
  6
CONTINUOUS
 62
    7
 10
132.8997
 20
54.071081
 11
132.8997
 21
53.941082
  0
LINE
  8
1-0
  6
CONTINUOUS
 62
    7
 10
132.663
 20
54.071081
 11
132.663
 21
53.941082
  0
LINE
  8
1-0
  6
CONTINUOUS
 62
    7
 10
132.90136
 20
54.361081
 11
132.90136
 21
54.101083
  0
LINE
  8
1-0
  6
CONTINUOUS
 62
    7
 10
132.66134
 20
54.361081
 11
132.66134
 21
54.101083
  0
LINE
  8
1-0
  6
CONTINUOUS
 62
    7
 10
132.88135
 20
54.381086
 11
132.88135
 21
54.101083
  0
LINE
  8
1-0
  6
CONTINUOUS
 62
    7
 10
132.68135
 20
54.381086
 11
132.68135
 21
54.101083
  0
LINE
  8
1-0
  6
CONTINUOUS
 62
    7
 10
132.90136
 20
52.861088
 11
132.88135
 21
52.881081
  0
LINE
  8
1-0
  6
CONTINUOUS
 62
    7
 10
132.68135
 20
52.881081
 11
132.88135
 21
52.881081
  0
LINE
  8
1-0
  6
CONTINUOUS
 62
    7
 10
132.68135
 20
52.881081
 11
132.66134
 21
52.861088
  0
LINE
  8
1-0
  6
CONTINUOUS
 62
    7
 10
132.88135
 20
52.881081
 11
132.88135
 21
53.441087
  0
LINE
  8
1-0
  6
CONTINUOUS
 62
    7
 10
132.68135
 20
52.881081
 11
132.68135
 21
53.441087
  0
LINE
  8
1-0
  6
CONTINUOUS
 62
    7
 10
133.90135
 20
38.701075
 11
133.90135
 21
38.801075
  0
LINE
  8
1-0
  6
CONTINUOUS
 62
    7
 10
133.90135
 20
38.801075
 11
133.66136
 21
38.801075
  0
LINE
  8
1-0
  6
CONTINUOUS
 62
    7
 10
133.66136
 20
38.701075
 11
133.66136
 21
38.801075
  0
LINE
  8
1-0
  6
CONTINUOUS
 62
    7
 10
132.90136
 20
53.441087
 11
132.90136
 21
38.701075
  0
LINE
  8
1-0
  6
CONTINUOUS
 62
    7
 10
132.66134
 20
53.441087
 11
132.66134
 21
38.701075
  0
LINE
  8
1-0
  6
DASHED1
 62
    7
 10
129.52134
 20
53.681079
 11
133.18135
 21
53.681079
  0
LINE
  8
1-0
  6
CONTINUOUS
 62
    7
 10
129.02635
 20
83.831089
 11
133.67634
 21
83.831089
  0
LINE
  8
1-0
  6
CONTINUOUS
 62
    7
 10
132.16135
 20
53.831077
 11
133.67634
 21
53.831077
  0
LINE
  8
1-0
  6
CONTINUOUS
 62
    7
 10
131.76137
 20
53.831077
 11
131.86136
 21
53.831077
  0
LINE
  8
1-0
  6
CONTINUOUS
 62
    7
 10
131.35135
 20
53.831077
 11
131.46134
 21
53.831077
  0
LINE
  8
1-0
  6
CONTINUOUS
 62
    7
 10
133.67634
 20
53.831077
 11
133.67634
 21
54.431081
  0
LINE
  8
1-0
  6
CONTINUOUS
 62
    7
 10
129.57135
 20
54.431081
 11
129.57135
 21
74.153916
  0
LINE
  8
1-0
  6
CONTINUOUS
 62
    7
 10
133.13134
 20
54.431081
 11
133.13134
 21
74.559321
  0
LINE
  8
1-0
  6
CONTINUOUS
 62
    7
 10
133.13134
 20
74.241076
 11
133.13134
 21
83.231085
  0
LINE
  8
1-0
  6
CONTINUOUS
 62
    7
 10
129.57135
 20
74.241076
 11
129.57135
 21
83.231085
  0
LINE
  8
1-0
  6
CONTINUOUS
 62
    7
 10
130.80135
 20
75.13108
 11
130.80135
 21
74.881086
  0
LINE
  8
1-0
  6
CONTINUOUS
 62
    7
 10
131.90134
 20
75.13108
 11
131.90134
 21
74.881086
  0
LINE
  8
1-0
  6
CONTINUOUS
 62
    7
 10
130.80135
 20
75.13108
 11
131.90134
 21
75.13108
  0
LINE
  8
1-0
  6
CONTINUOUS
 62
    7
 10
130.85134
 20
75.831087
 11
130.97135
 21
75.831087
  0
LINE
  8
1-0
  6
CONTINUOUS
 62
    7
 10
131.73134
 20
75.831087
 11
131.85135
 21
75.831087
  0
LINE
  8
1-0
  6
CONTINUOUS
 62
    7
 10
131.24135
 20
74.881086
 11
131.24135
 21
73.881088
  0
LINE
  8
1-0
  6
CONTINUOUS
 62
    7
 10
131.24135
 20
73.881088
 11
131.46134
 21
73.881088
  0
LINE
  8
1-0
  6
CONTINUOUS
 62
    7
 10
131.46134
 20
74.881086
 11
131.46134
 21
73.881088
  0
LINE
  8
1-0
  6
CONTINUOUS
 62
    7
 10
133.13134
 20
74.881086
 11
133.68134
 21
74.881086
  0
LINE
  8
1-0
  6
CONTINUOUS
 62
    7
 10
133.48134
 20
73.881088
 11
133.13134
 21
73.881088
  0
LINE
  8
1-0
  6
CONTINUOUS
 62
    7
 10
133.68134
 20
74.081088
 11
133.68134
 21
74.881086
  0
LINE
  8
1-0
  6
CONTINUOUS
 62
    7
 10
130.80135
 20
74.881086
 11
131.90134
 21
74.881086
  0
LINE
  8
1-0
  6
CONTINUOUS
 62
    7
 10
130.80135
 20
58.081078
 11
131.90134
 21
58.081078
  0
LINE
  8
1-0
  6
CONTINUOUS
 62
    7
 10
130.80135
 20
58.081078
 11
130.80135
 21
57.961076
  0
LINE
  8
1-0
  6
CONTINUOUS
 62
    7
 10
131.90134
 20
58.081078
 11
131.90134
 21
57.961076
  0
LINE
  8
1-0
  6
CONTINUOUS
 62
    7
 10
130.80135
 20
57.961076
 11
131.90134
 21
57.961076
  0
LINE
  8
1-0
  6
CONTINUOUS
 62
    7
 10
129.57135
 20
74.881086
 11
129.02135
 21
74.881086
  0
LINE
  8
1-0
  6
CONTINUOUS
 62
    7
 10
129.22135
 20
73.881088
 11
129.57135
 21
73.881088
  0
LINE
  8
1-0
  6
CONTINUOUS
 62
    7
 10
129.02135
 20
74.081088
 11
129.02135
 21
74.881086
  0
LINE
  8
1-0
  6
CONTINUOUS
 62
    7
 10
129.02635
 20
53.831077
 11
129.02635
 21
54.431081
  0
LINE
  8
1-0
  6
CONTINUOUS
 62
    7
 10
129.02635
 20
53.831077
 11
132.34373
 21
53.831077
  0
LINE
  8
1-0
  6
CONTINUOUS
 62
    7
 10
130.16161
 20
53.831077
 11
130.16161
 21
54.431081
  0
LINE
  8
1-0
  6
CONTINUOUS
 62
    7
 10
132.54109
 20
53.831077
 11
132.54109
 21
54.431081
  0
LINE
  8
1-0
  6
CONTINUOUS
 62
    7
 10
130.16161
 20
54.431081
 11
132.54109
 21
54.431081
  0
LINE
  8
1-0
  6
CONTINUOUS
 62
    7
 10
132.86135
 20
54.431081
 11
133.67634
 21
54.431081
  0
LINE
  8
1-0
  6
CONTINUOUS
 62
    7
 10
129.02635
 20
83.831089
 11
133.67634
 21
83.831089
  0
LINE
  8
1-0
  6
CONTINUOUS
 62
    7
 10
130.16161
 20
83.231085
 11
130.16161
 21
83.831089
  0
LINE
  8
1-0
  6
CONTINUOUS
 62
    7
 10
132.54109
 20
83.231085
 11
132.54109
 21
83.831089
  0
LINE
  8
1-0
  6
CONTINUOUS
 62
    7
 10
129.02635
 20
83.231085
 11
129.02635
 21
83.831089
  0
LINE
  8
1-0
  6
CONTINUOUS
 62
    7
 10
133.67634
 20
83.231085
 11
133.67634
 21
83.831089
  0
LINE
  8
1-0
  6
CONTINUOUS
 62
    7
 10
130.16161
 20
83.231085
 11
132.54109
 21
83.231085
  0
LINE
  8
1-0
  6
CENTER2
 62
    2
 10
131.35135
 20
56.263287
 11
131.35135
 21
53.831077
  0
LINE
  8
1-0
  6
CONTINUOUS
 62
    7
 10
132.16135
 20
83.831077
 11
133.67634
 21
83.831077
  0
LINE
  8
1-0
  6
CONTINUOUS
 62
    7
 10
131.76137
 20
83.831077
 11
131.86136
 21
83.831077
  0
LINE
  8
1-0
  6
CONTINUOUS
 62
    7
 10
131.35135
 20
83.831077
 11
131.46134
 21
83.831077
  0
LINE
  8
1-0
  6
CONTINUOUS
 62
    7
 10
133.67634
 20
83.831077
 11
133.67634
 21
84.431081
  0
LINE
  8
1-0
  6
CONTINUOUS
 62
    7
 10
130.80135
 20
88.081078
 11
131.90134
 21
88.081078
  0
LINE
  8
1-0
  6
CONTINUOUS
 62
    7
 10
130.80135
 20
88.081078
 11
130.80135
 21
87.961082
  0
LINE
  8
1-0
  6
CONTINUOUS
 62
    7
 10
131.90134
 20
88.081078
 11
131.90134
 21
87.961082
  0
LINE
  8
1-0
  6
CONTINUOUS
 62
    7
 10
130.80135
 20
87.961082
 11
131.90134
 21
87.961082
  0
LINE
  8
1-0
  6
CONTINUOUS
 62
    7
 10
129.02635
 20
83.831077
 11
129.02635
 21
84.431081
  0
LINE
  8
1-0
  6
CONTINUOUS
 62
    7
 10
129.02635
 20
83.831077
 11
132.34373
 21
83.831077
  0
LINE
  8
1-0
  6
CONTINUOUS
 62
    7
 10
129.02635
 20
84.431081
 11
129.84134
 21
84.431081
  0
LINE
  8
1-0
  6
CONTINUOUS
 62
    7
 10
130.16161
 20
83.831077
 11
130.16161
 21
84.431081
  0
LINE
  8
1-0
  6
CONTINUOUS
 62
    7
 10
132.54109
 20
83.831077
 11
132.54109
 21
84.431081
  0
LINE
  8
1-0
  6
CONTINUOUS
 62
    7
 10
130.16161
 20
84.431081
 11
132.54109
 21
84.431081
  0
LINE
  8
1-0
  6
CONTINUOUS
 62
    7
 10
132.86135
 20
84.431081
 11
133.67634
 21
84.431081
  0
LINE
  8
1-0
  6
CONTINUOUS
 62
    7
 10
130.16161
 20
113.23108
 11
130.16161
 21
113.83107
  0
LINE
  8
1-0
  6
CONTINUOUS
 62
    7
 10
132.54109
 20
113.23108
 11
132.54109
 21
113.83107
  0
LINE
  8
1-0
  6
CONTINUOUS
 62
    7
 10
129.02635
 20
113.23108
 11
129.02635
 21
113.83107
  0
LINE
  8
1-0
  6
CONTINUOUS
 62
    7
 10
133.67634
 20
113.23108
 11
133.67634
 21
113.83107
  0
LINE
  8
1-0
  6
CONTINUOUS
 62
    7
 10
129.02635
 20
113.23108
 11
129.84134
 21
113.23108
  0
LINE
  8
1-0
  6
CONTINUOUS
 62
    7
 10
132.86135
 20
113.23108
 11
133.67634
 21
113.23108
  0
LINE
  8
1-0
  6
CENTER2
 62
    2
 10
131.35135
 20
86.263286
 11
131.35135
 21
83.831077
  0
LINE
  8
1-0
  6
CONTINUOUS
 62
    7
 10
131.76137
 20
83.831089
 11
131.86136
 21
83.831089
  0
LINE
  8
1-0
  6
CONTINUOUS
 62
    7
 10
131.35135
 20
83.831089
 11
131.46134
 21
83.831089
  0
LINE
  8
1-0
  6
CONTINUOUS
 62
    7
 10
132.16135
 20
83.831089
 11
133.67634
 21
83.831089
  0
LINE
  8
1-0
  6
CONTINUOUS
 62
    7
 10
131.76137
 20
83.831089
 11
131.86136
 21
83.831089
  0
LINE
  8
1-0
  6
CONTINUOUS
 62
    7
 10
131.35135
 20
83.831089
 11
131.46134
 21
83.831089
  0
LINE
  8
1-0
  6
CONTINUOUS
 62
    7
 10
129.02635
 20
83.831089
 11
132.34373
 21
83.831089
  0
LINE
  8
1-0
  6
CONTINUOUS
 62
    7
 10
131.24135
 20
84.91109
 11
131.26135
 21
84.931083
  0
LINE
  8
1-0
  6
CONTINUOUS
 62
    7
 10
131.44134
 20
84.931083
 11
131.26135
 21
84.931083
  0
LINE
  8
1-0
  6
CONTINUOUS
 62
    7
 10
131.44134
 20
84.931083
 11
131.46134
 21
84.91109
  0
LINE
  8
1-0
  6
CONTINUOUS
 62
    7
 10
131.1435
 20
84.651092
 11
131.1635
 21
84.671085
  0
LINE
  8
1-0
  6
CONTINUOUS
 62
    7
 10
131.53919
 20
84.671085
 11
131.1635
 21
84.671085
  0
LINE
  8
1-0
  6
CONTINUOUS
 62
    7
 10
131.53919
 20
84.671085
 11
131.55919
 21
84.651092
  0
LINE
  8
1-0
  6
CONTINUOUS
 62
    7
 10
131.1435
 20
84.651092
 11
131.55919
 21
84.651092
  0
LINE
  8
1-0
  6
CONTINUOUS
 62
    7
 10
131.24135
 20
84.91109
 11
131.24135
 21
84.671085
  0
LINE
  8
1-0
  6
CONTINUOUS
 62
    7
 10
131.46134
 20
84.91109
 11
131.46134
 21
84.671085
  0
LINE
  8
1-0
  6
CONTINUOUS
 62
    7
 10
131.45527
 20
84.651092
 11
131.45527
 21
84.531084
  0
LINE
  8
1-0
  6
CONTINUOUS
 62
    7
 10
131.24742
 20
84.651092
 11
131.24742
 21
84.531084
  0
LINE
  8
1-0
  6
CONTINUOUS
 62
    7
 10
131.26135
 20
84.931083
 11
131.26135
 21
84.671085
  0
LINE
  8
1-0
  6
CONTINUOUS
 62
    7
 10
131.44134
 20
84.931083
 11
131.44134
 21
84.671085
  0
LINE
  8
1-0
  6
CONTINUOUS
 62
    7
 10
131.53919
 20
84.531084
 11
131.53919
 21
84.481089
  0
LINE
  8
1-0
  6
CONTINUOUS
 62
    7
 10
131.1635
 20
84.531084
 11
131.1635
 21
84.481089
  0
LINE
  8
1-0
  6
CONTINUOUS
 62
    7
 10
131.1435
 20
84.651092
 11
131.1435
 21
84.531084
  0
LINE
  8
1-0
  6
CONTINUOUS
 62
    7
 10
131.1435
 20
84.531084
 11
131.55919
 21
84.531084
  0
LINE
  8
1-0
  6
CONTINUOUS
 62
    7
 10
131.55919
 20
84.651092
 11
131.55919
 21
84.531084
  0
LINE
  8
1-0
  6
CONTINUOUS
 62
    7
 10
131.1435
 20
84.481089
 11
131.1435
 21
84.431081
  0
LINE
  8
1-0
  6
CONTINUOUS
 62
    7
 10
131.1435
 20
84.481089
 11
131.55919
 21
84.481089
  0
LINE
  8
1-0
  6
CONTINUOUS
 62
    7
 10
131.55919
 20
84.481089
 11
131.55919
 21
84.431081
  0
LINE
  8
1-0
  6
CONTINUOUS
 62
    7
 10
131.1435
 20
83.111089
 11
131.1635
 21
83.091083
  0
LINE
  8
1-0
  6
CONTINUOUS
 62
    7
 10
131.53919
 20
83.091083
 11
131.1635
 21
83.091083
  0
LINE
  8
1-0
  6
CONTINUOUS
 62
    7
 10
131.53919
 20
83.091083
 11
131.55919
 21
83.111089
  0
LINE
  8
1-0
  6
CONTINUOUS
 62
    7
 10
131.1435
 20
83.111089
 11
131.55919
 21
83.111089
  0
LINE
  8
1-0
  6
CONTINUOUS
 62
    7
 10
131.45527
 20
83.111089
 11
131.45527
 21
83.231085
  0
LINE
  8
1-0
  6
CONTINUOUS
 62
    7
 10
131.24742
 20
83.111089
 11
131.24742
 21
83.231085
  0
LINE
  8
1-0
  6
CONTINUOUS
 62
    7
 10
131.1435
 20
83.111089
 11
131.1435
 21
83.231085
  0
LINE
  8
1-0
  6
CONTINUOUS
 62
    7
 10
131.1435
 20
83.231085
 11
131.55919
 21
83.231085
  0
LINE
  8
1-0
  6
CONTINUOUS
 62
    7
 10
131.55919
 20
83.111089
 11
131.55919
 21
83.231085
  0
LINE
  8
1-0
  6
CONTINUOUS
 62
    7
 10
130.94815
 20
83.831089
 11
131.04814
 21
83.831089
  0
LINE
  8
1-0
  6
CONTINUOUS
 62
    7
 10
130.53813
 20
83.831089
 11
130.64813
 21
83.831089
  0
LINE
  8
1-0
  6
CONTINUOUS
 62
    7
 10
130.94815
 20
83.831089
 11
131.04814
 21
83.831089
  0
LINE
  8
1-0
  6
CONTINUOUS
 62
    7
 10
130.53813
 20
83.831089
 11
130.64813
 21
83.831089
  0
LINE
  8
1-0
  6
CONTINUOUS
 62
    7
 10
130.42813
 20
84.91109
 11
130.44814
 21
84.931083
  0
LINE
  8
1-0
  6
CONTINUOUS
 62
    7
 10
130.62813
 20
84.931083
 11
130.44814
 21
84.931083
  0
LINE
  8
1-0
  6
CONTINUOUS
 62
    7
 10
130.62813
 20
84.931083
 11
130.64813
 21
84.91109
  0
LINE
  8
1-0
  6
CONTINUOUS
 62
    7
 10
130.33028
 20
84.651092
 11
130.35029
 21
84.671085
  0
LINE
  8
1-0
  6
CONTINUOUS
 62
    7
 10
130.72598
 20
84.671085
 11
130.35029
 21
84.671085
  0
LINE
  8
1-0
  6
CONTINUOUS
 62
    7
 10
130.72598
 20
84.671085
 11
130.74598
 21
84.651092
  0
LINE
  8
1-0
  6
CONTINUOUS
 62
    7
 10
130.33028
 20
84.651092
 11
130.74598
 21
84.651092
  0
LINE
  8
1-0
  6
CONTINUOUS
 62
    7
 10
130.42813
 20
84.91109
 11
130.42813
 21
84.671085
  0
LINE
  8
1-0
  6
CONTINUOUS
 62
    7
 10
130.64813
 20
84.91109
 11
130.64813
 21
84.671085
  0
LINE
  8
1-0
  6
CONTINUOUS
 62
    7
 10
130.64206
 20
84.651092
 11
130.64206
 21
84.531084
  0
LINE
  8
1-0
  6
CONTINUOUS
 62
    7
 10
130.43421
 20
84.651092
 11
130.43421
 21
84.531084
  0
LINE
  8
1-0
  6
CONTINUOUS
 62
    7
 10
130.44814
 20
84.931083
 11
130.44814
 21
84.671085
  0
LINE
  8
1-0
  6
CONTINUOUS
 62
    7
 10
130.62813
 20
84.931083
 11
130.62813
 21
84.671085
  0
LINE
  8
1-0
  6
CONTINUOUS
 62
    7
 10
130.72598
 20
84.531084
 11
130.72598
 21
84.481089
  0
LINE
  8
1-0
  6
CONTINUOUS
 62
    7
 10
130.35029
 20
84.531084
 11
130.35029
 21
84.481089
  0
LINE
  8
1-0
  6
CONTINUOUS
 62
    7
 10
130.33028
 20
84.651092
 11
130.33028
 21
84.531084
  0
LINE
  8
1-0
  6
CONTINUOUS
 62
    7
 10
130.33028
 20
84.531084
 11
130.74598
 21
84.531084
  0
LINE
  8
1-0
  6
CONTINUOUS
 62
    7
 10
130.74598
 20
84.651092
 11
130.74598
 21
84.531084
  0
LINE
  8
1-0
  6
CONTINUOUS
 62
    7
 10
130.33028
 20
84.481089
 11
130.33028
 21
84.431081
  0
LINE
  8
1-0
  6
CONTINUOUS
 62
    7
 10
130.33028
 20
84.481089
 11
130.74598
 21
84.481089
  0
LINE
  8
1-0
  6
CONTINUOUS
 62
    7
 10
130.74598
 20
84.481089
 11
130.74598
 21
84.431081
  0
LINE
  8
1-0
  6
CONTINUOUS
 62
    7
 10
130.33028
 20
83.111089
 11
130.35029
 21
83.091083
  0
LINE
  8
1-0
  6
CONTINUOUS
 62
    7
 10
130.72598
 20
83.091083
 11
130.35029
 21
83.091083
  0
LINE
  8
1-0
  6
CONTINUOUS
 62
    7
 10
130.72598
 20
83.091083
 11
130.74598
 21
83.111089
  0
LINE
  8
1-0
  6
CONTINUOUS
 62
    7
 10
130.33028
 20
83.111089
 11
130.74598
 21
83.111089
  0
LINE
  8
1-0
  6
CONTINUOUS
 62
    7
 10
130.64206
 20
83.111089
 11
130.64206
 21
83.231085
  0
LINE
  8
1-0
  6
CONTINUOUS
 62
    7
 10
130.43421
 20
83.111089
 11
130.43421
 21
83.231085
  0
LINE
  8
1-0
  6
CONTINUOUS
 62
    7
 10
130.33028
 20
83.111089
 11
130.33028
 21
83.231085
  0
LINE
  8
1-0
  6
CONTINUOUS
 62
    7
 10
130.33028
 20
83.231085
 11
130.74598
 21
83.231085
  0
LINE
  8
1-0
  6
CONTINUOUS
 62
    7
 10
130.74598
 20
83.111089
 11
130.74598
 21
83.231085
  0
LINE
  8
1-0
  6
CONTINUOUS
 62
    7
 10
129.79812
 20
83.831089
 11
129.89811
 21
83.831089
  0
LINE
  8
1-0
  6
CONTINUOUS
 62
    7
 10
129.3881
 20
83.831089
 11
129.4981
 21
83.831089
  0
LINE
  8
1-0
  6
CONTINUOUS
 62
    7
 10
129.79812
 20
83.831089
 11
129.89811
 21
83.831089
  0
LINE
  8
1-0
  6
CONTINUOUS
 62
    7
 10
129.3881
 20
83.831089
 11
129.4981
 21
83.831089
  0
LINE
  8
1-0
  6
CONTINUOUS
 62
    7
 10
129.2781
 20
84.91109
 11
129.2981
 21
84.931083
  0
LINE
  8
1-0
  6
CONTINUOUS
 62
    7
 10
129.47809
 20
84.931083
 11
129.2981
 21
84.931083
  0
LINE
  8
1-0
  6
CONTINUOUS
 62
    7
 10
129.47809
 20
84.931083
 11
129.4981
 21
84.91109
  0
LINE
  8
1-0
  6
CONTINUOUS
 62
    7
 10
129.18025
 20
84.651092
 11
129.20025
 21
84.671085
  0
LINE
  8
1-0
  6
CONTINUOUS
 62
    7
 10
129.57594
 20
84.671085
 11
129.20025
 21
84.671085
  0
LINE
  8
1-0
  6
CONTINUOUS
 62
    7
 10
129.57594
 20
84.671085
 11
129.59595
 21
84.651092
  0
LINE
  8
1-0
  6
CONTINUOUS
 62
    7
 10
129.18025
 20
84.651092
 11
129.59595
 21
84.651092
  0
LINE
  8
1-0
  6
CONTINUOUS
 62
    7
 10
129.2781
 20
84.91109
 11
129.2781
 21
84.671085
  0
LINE
  8
1-0
  6
CONTINUOUS
 62
    7
 10
129.4981
 20
84.91109
 11
129.4981
 21
84.671085
  0
LINE
  8
1-0
  6
CONTINUOUS
 62
    7
 10
129.49202
 20
84.651092
 11
129.49202
 21
84.531084
  0
LINE
  8
1-0
  6
CONTINUOUS
 62
    7
 10
129.28417
 20
84.651092
 11
129.28417
 21
84.531084
  0
LINE
  8
1-0
  6
CONTINUOUS
 62
    7
 10
129.2981
 20
84.931083
 11
129.2981
 21
84.671085
  0
LINE
  8
1-0
  6
CONTINUOUS
 62
    7
 10
129.47809
 20
84.931083
 11
129.47809
 21
84.671085
  0
LINE
  8
1-0
  6
CONTINUOUS
 62
    7
 10
129.57594
 20
84.531084
 11
129.57594
 21
84.481089
  0
LINE
  8
1-0
  6
CONTINUOUS
 62
    7
 10
129.20025
 20
84.531084
 11
129.20025
 21
84.481089
  0
LINE
  8
1-0
  6
CONTINUOUS
 62
    7
 10
129.18025
 20
84.651092
 11
129.18025
 21
84.531084
  0
LINE
  8
1-0
  6
CONTINUOUS
 62
    7
 10
129.18025
 20
84.531084
 11
129.59595
 21
84.531084
  0
LINE
  8
1-0
  6
CONTINUOUS
 62
    7
 10
129.59595
 20
84.651092
 11
129.59595
 21
84.531084
  0
LINE
  8
1-0
  6
CONTINUOUS
 62
    7
 10
129.18025
 20
84.481089
 11
129.18025
 21
84.431081
  0
LINE
  8
1-0
  6
CONTINUOUS
 62
    7
 10
129.18025
 20
84.481089
 11
129.59595
 21
84.481089
  0
LINE
  8
1-0
  6
CONTINUOUS
 62
    7
 10
129.59595
 20
84.481089
 11
129.59595
 21
84.431081
  0
LINE
  8
1-0
  6
CONTINUOUS
 62
    7
 10
129.18025
 20
83.111089
 11
129.20025
 21
83.091083
  0
LINE
  8
1-0
  6
CONTINUOUS
 62
    7
 10
129.57594
 20
83.091083
 11
129.20025
 21
83.091083
  0
LINE
  8
1-0
  6
CONTINUOUS
 62
    7
 10
129.57594
 20
83.091083
 11
129.59595
 21
83.111089
  0
LINE
  8
1-0
  6
CONTINUOUS
 62
    7
 10
129.18025
 20
83.111089
 11
129.59595
 21
83.111089
  0
LINE
  8
1-0
  6
CONTINUOUS
 62
    7
 10
129.49202
 20
83.111089
 11
129.49202
 21
83.231085
  0
LINE
  8
1-0
  6
CONTINUOUS
 62
    7
 10
129.28417
 20
83.111089
 11
129.28417
 21
83.231085
  0
LINE
  8
1-0
  6
CONTINUOUS
 62
    7
 10
129.18025
 20
83.111089
 11
129.18025
 21
83.231085
  0
LINE
  8
1-0
  6
CONTINUOUS
 62
    7
 10
129.18025
 20
83.231085
 11
129.59595
 21
83.231085
  0
LINE
  8
1-0
  6
CONTINUOUS
 62
    7
 10
129.59595
 20
83.111089
 11
129.59595
 21
83.231085
  0
LINE
  8
1-0
  6
CONTINUOUS
 62
    7
 10
129.63636
 20
83.831089
 11
129.73636
 21
83.831089
  0
LINE
  8
1-0
  6
CONTINUOUS
 62
    7
 10
129.22634
 20
83.831089
 11
129.33634
 21
83.831089
  0
LINE
  8
1-0
  6
CONTINUOUS
 62
    7
 10
129.63636
 20
83.831089
 11
129.73636
 21
83.831089
  0
LINE
  8
1-0
  6
CONTINUOUS
 62
    7
 10
129.22634
 20
83.831089
 11
129.33634
 21
83.831089
  0
LINE
  8
1-0
  6
CONTINUOUS
 62
    7
 10
129.11635
 20
84.91109
 11
129.13635
 21
84.931083
  0
LINE
  8
1-0
  6
CONTINUOUS
 62
    7
 10
129.31634
 20
84.931083
 11
129.13635
 21
84.931083
  0
LINE
  8
1-0
  6
CONTINUOUS
 62
    7
 10
129.0185
 20
84.651092
 11
129.0385
 21
84.671085
  0
LINE
  8
1-0
  6
CONTINUOUS
 62
    7
 10
129.41419
 20
84.671085
 11
129.0385
 21
84.671085
  0
LINE
  8
1-0
  6
CONTINUOUS
 62
    7
 10
129.0185
 20
84.651092
 11
129.43419
 21
84.651092
  0
LINE
  8
1-0
  6
CONTINUOUS
 62
    7
 10
129.11635
 20
84.91109
 11
129.11635
 21
84.671085
  0
LINE
  8
1-0
  6
CONTINUOUS
 62
    7
 10
129.12242
 20
84.651092
 11
129.12242
 21
84.531084
  0
LINE
  8
1-0
  6
CONTINUOUS
 62
    7
 10
129.13635
 20
84.931083
 11
129.13635
 21
84.671085
  0
LINE
  8
1-0
  6
CONTINUOUS
 62
    7
 10
129.41419
 20
84.531084
 11
129.41419
 21
84.481089
  0
LINE
  8
1-0
  6
CONTINUOUS
 62
    7
 10
129.0385
 20
84.531084
 11
129.0385
 21
84.481089
  0
LINE
  8
1-0
  6
CONTINUOUS
 62
    7
 10
129.0185
 20
84.651092
 11
129.0185
 21
84.531084
  0
LINE
  8
1-0
  6
CONTINUOUS
 62
    7
 10
129.0185
 20
84.531084
 11
129.43419
 21
84.531084
  0
LINE
  8
1-0
  6
CONTINUOUS
 62
    7
 10
129.0185
 20
84.481089
 11
129.0185
 21
84.431081
  0
LINE
  8
1-0
  6
CONTINUOUS
 62
    7
 10
129.0185
 20
84.481089
 11
129.43419
 21
84.481089
  0
LINE
  8
1-0
  6
CONTINUOUS
 62
    7
 10
129.43419
 20
84.481089
 11
129.43419
 21
84.431081
  0
LINE
  8
1-0
  6
CONTINUOUS
 62
    7
 10
129.0185
 20
83.111089
 11
129.0385
 21
83.091083
  0
LINE
  8
1-0
  6
CONTINUOUS
 62
    7
 10
129.41419
 20
83.091083
 11
129.0385
 21
83.091083
  0
LINE
  8
1-0
  6
CONTINUOUS
 62
    7
 10
129.0185
 20
83.111089
 11
129.43419
 21
83.111089
  0
LINE
  8
1-0
  6
CONTINUOUS
 62
    7
 10
129.12242
 20
83.111089
 11
129.12242
 21
83.231085
  0
LINE
  8
1-0
  6
CONTINUOUS
 62
    7
 10
129.0185
 20
83.111089
 11
129.0185
 21
83.231085
  0
LINE
  8
1-0
  6
CONTINUOUS
 62
    7
 10
129.0185
 20
83.231085
 11
129.43419
 21
83.231085
  0
LINE
  8
1-0
  6
CONTINUOUS
 62
    7
 10
133.67634
 20
83.831089
 11
133.67634
 21
84.431081
  0
LINE
  8
1-0
  6
CONTINUOUS
 62
    7
 10
133.67634
 20
84.431081
 11
132.86135
 21
84.431081
  0
LINE
  8
1-0
  6
CONTINUOUS
 62
    7
 10
132.54109
 20
83.831089
 11
132.54109
 21
84.431081
  0
LINE
  8
1-0
  6
CONTINUOUS
 62
    7
 10
133.67634
 20
83.831089
 11
133.67634
 21
83.231085
  0
LINE
  8
1-0
  6
CONTINUOUS
 62
    7
 10
132.54109
 20
83.831089
 11
132.54109
 21
83.231085
  0
LINE
  8
1-0
  6
CONTINUOUS
 62
    7
 10
132.16456
 20
83.831089
 11
132.05456
 21
83.831089
  0
LINE
  8
1-0
  6
CONTINUOUS
 62
    7
 10
132.16456
 20
83.831089
 11
132.05456
 21
83.831089
  0
LINE
  8
1-0
  6
CONTINUOUS
 62
    7
 10
132.27456
 20
84.91109
 11
132.25455
 21
84.931083
  0
LINE
  8
1-0
  6
CONTINUOUS
 62
    7
 10
132.07456
 20
84.931083
 11
132.25455
 21
84.931083
  0
LINE
  8
1-0
  6
CONTINUOUS
 62
    7
 10
132.07456
 20
84.931083
 11
132.05456
 21
84.91109
  0
LINE
  8
1-0
  6
CONTINUOUS
 62
    7
 10
132.37241
 20
84.651092
 11
132.3524
 21
84.671085
  0
LINE
  8
1-0
  6
CONTINUOUS
 62
    7
 10
131.97671
 20
84.671085
 11
132.3524
 21
84.671085
  0
LINE
  8
1-0
  6
CONTINUOUS
 62
    7
 10
131.97671
 20
84.671085
 11
131.95671
 21
84.651092
  0
LINE
  8
1-0
  6
CONTINUOUS
 62
    7
 10
132.37241
 20
84.651092
 11
131.95671
 21
84.651092
  0
LINE
  8
1-0
  6
CONTINUOUS
 62
    7
 10
132.27456
 20
84.91109
 11
132.27456
 21
84.671085
  0
LINE
  8
1-0
  6
CONTINUOUS
 62
    7
 10
132.05456
 20
84.91109
 11
132.05456
 21
84.671085
  0
LINE
  8
1-0
  6
CONTINUOUS
 62
    7
 10
132.06063
 20
84.651092
 11
132.06063
 21
84.531084
  0
LINE
  8
1-0
  6
CONTINUOUS
 62
    7
 10
132.26848
 20
84.651092
 11
132.26848
 21
84.531084
  0
LINE
  8
1-0
  6
CONTINUOUS
 62
    7
 10
132.25455
 20
84.931083
 11
132.25455
 21
84.671085
  0
LINE
  8
1-0
  6
CONTINUOUS
 62
    7
 10
132.07456
 20
84.931083
 11
132.07456
 21
84.671085
  0
LINE
  8
1-0
  6
CONTINUOUS
 62
    7
 10
131.97671
 20
84.531084
 11
131.97671
 21
84.481089
  0
LINE
  8
1-0
  6
CONTINUOUS
 62
    7
 10
132.3524
 20
84.531084
 11
132.3524
 21
84.481089
  0
LINE
  8
1-0
  6
CONTINUOUS
 62
    7
 10
132.37241
 20
84.651092
 11
132.37241
 21
84.531084
  0
LINE
  8
1-0
  6
CONTINUOUS
 62
    7
 10
132.37241
 20
84.531084
 11
131.95671
 21
84.531084
  0
LINE
  8
1-0
  6
CONTINUOUS
 62
    7
 10
131.95671
 20
84.651092
 11
131.95671
 21
84.531084
  0
LINE
  8
1-0
  6
CONTINUOUS
 62
    7
 10
132.37241
 20
84.481089
 11
132.37241
 21
84.431081
  0
LINE
  8
1-0
  6
CONTINUOUS
 62
    7
 10
132.37241
 20
84.481089
 11
131.95671
 21
84.481089
  0
LINE
  8
1-0
  6
CONTINUOUS
 62
    7
 10
131.95671
 20
84.481089
 11
131.95671
 21
84.431081
  0
LINE
  8
1-0
  6
CONTINUOUS
 62
    7
 10
132.37241
 20
83.111089
 11
132.3524
 21
83.091083
  0
LINE
  8
1-0
  6
CONTINUOUS
 62
    7
 10
131.97671
 20
83.091083
 11
132.3524
 21
83.091083
  0
LINE
  8
1-0
  6
CONTINUOUS
 62
    7
 10
131.97671
 20
83.091083
 11
131.95671
 21
83.111089
  0
LINE
  8
1-0
  6
CONTINUOUS
 62
    7
 10
132.37241
 20
83.111089
 11
131.95671
 21
83.111089
  0
LINE
  8
1-0
  6
CONTINUOUS
 62
    7
 10
132.06063
 20
83.111089
 11
132.06063
 21
83.231085
  0
LINE
  8
1-0
  6
CONTINUOUS
 62
    7
 10
132.26848
 20
83.111089
 11
132.26848
 21
83.231085
  0
LINE
  8
1-0
  6
CONTINUOUS
 62
    7
 10
132.37241
 20
83.111089
 11
132.37241
 21
83.231085
  0
LINE
  8
1-0
  6
CONTINUOUS
 62
    7
 10
132.37241
 20
83.231085
 11
131.95671
 21
83.231085
  0
LINE
  8
1-0
  6
CONTINUOUS
 62
    7
 10
131.95671
 20
83.111089
 11
131.95671
 21
83.231085
  0
LINE
  8
1-0
  6
CONTINUOUS
 62
    7
 10
132.90457
 20
83.831089
 11
132.80458
 21
83.831089
  0
LINE
  8
1-0
  6
CONTINUOUS
 62
    7
 10
133.31459
 20
83.831089
 11
133.2046
 21
83.831089
  0
LINE
  8
1-0
  6
CONTINUOUS
 62
    7
 10
132.90457
 20
83.831089
 11
132.80458
 21
83.831089
  0
LINE
  8
1-0
  6
CONTINUOUS
 62
    7
 10
133.31459
 20
83.831089
 11
133.2046
 21
83.831089
  0
LINE
  8
1-0
  6
CONTINUOUS
 62
    7
 10
133.42459
 20
84.91109
 11
133.40459
 21
84.931083
  0
LINE
  8
1-0
  6
CONTINUOUS
 62
    7
 10
133.2246
 20
84.931083
 11
133.40459
 21
84.931083
  0
LINE
  8
1-0
  6
CONTINUOUS
 62
    7
 10
133.2246
 20
84.931083
 11
133.2046
 21
84.91109
  0
LINE
  8
1-0
  6
CONTINUOUS
 62
    7
 10
133.52244
 20
84.651092
 11
133.50244
 21
84.671085
  0
LINE
  8
1-0
  6
CONTINUOUS
 62
    7
 10
133.12675
 20
84.671085
 11
133.50244
 21
84.671085
  0
LINE
  8
1-0
  6
CONTINUOUS
 62
    7
 10
133.12675
 20
84.671085
 11
133.10675
 21
84.651092
  0
LINE
  8
1-0
  6
CONTINUOUS
 62
    7
 10
133.52244
 20
84.651092
 11
133.10675
 21
84.651092
  0
LINE
  8
1-0
  6
CONTINUOUS
 62
    7
 10
133.42459
 20
84.91109
 11
133.42459
 21
84.671085
  0
LINE
  8
1-0
  6
CONTINUOUS
 62
    7
 10
133.2046
 20
84.91109
 11
133.2046
 21
84.671085
  0
LINE
  8
1-0
  6
CONTINUOUS
 62
    7
 10
133.21067
 20
84.651092
 11
133.21067
 21
84.531084
  0
LINE
  8
1-0
  6
CONTINUOUS
 62
    7
 10
133.41852
 20
84.651092
 11
133.41852
 21
84.531084
  0
LINE
  8
1-0
  6
CONTINUOUS
 62
    7
 10
133.40459
 20
84.931083
 11
133.40459
 21
84.671085
  0
LINE
  8
1-0
  6
CONTINUOUS
 62
    7
 10
133.2246
 20
84.931083
 11
133.2246
 21
84.671085
  0
LINE
  8
1-0
  6
CONTINUOUS
 62
    7
 10
133.12675
 20
84.531084
 11
133.12675
 21
84.481089
  0
LINE
  8
1-0
  6
CONTINUOUS
 62
    7
 10
133.50244
 20
84.531084
 11
133.50244
 21
84.481089
  0
LINE
  8
1-0
  6
CONTINUOUS
 62
    7
 10
133.52244
 20
84.651092
 11
133.52244
 21
84.531084
  0
LINE
  8
1-0
  6
CONTINUOUS
 62
    7
 10
133.52244
 20
84.531084
 11
133.10675
 21
84.531084
  0
LINE
  8
1-0
  6
CONTINUOUS
 62
    7
 10
133.10675
 20
84.651092
 11
133.10675
 21
84.531084
  0
LINE
  8
1-0
  6
CONTINUOUS
 62
    7
 10
133.52244
 20
84.481089
 11
133.52244
 21
84.431081
  0
LINE
  8
1-0
  6
CONTINUOUS
 62
    7
 10
133.52244
 20
84.481089
 11
133.10675
 21
84.481089
  0
LINE
  8
1-0
  6
CONTINUOUS
 62
    7
 10
133.10675
 20
84.481089
 11
133.10675
 21
84.431081
  0
LINE
  8
1-0
  6
CONTINUOUS
 62
    7
 10
133.52244
 20
83.111089
 11
133.50244
 21
83.091083
  0
LINE
  8
1-0
  6
CONTINUOUS
 62
    7
 10
133.12675
 20
83.091083
 11
133.50244
 21
83.091083
  0
LINE
  8
1-0
  6
CONTINUOUS
 62
    7
 10
133.12675
 20
83.091083
 11
133.10675
 21
83.111089
  0
LINE
  8
1-0
  6
CONTINUOUS
 62
    7
 10
133.52244
 20
83.111089
 11
133.10675
 21
83.111089
  0
LINE
  8
1-0
  6
CONTINUOUS
 62
    7
 10
133.21067
 20
83.111089
 11
133.21067
 21
83.231085
  0
LINE
  8
1-0
  6
CONTINUOUS
 62
    7
 10
133.41852
 20
83.111089
 11
133.41852
 21
83.231085
  0
LINE
  8
1-0
  6
CONTINUOUS
 62
    7
 10
133.52244
 20
83.111089
 11
133.52244
 21
83.231085
  0
LINE
  8
1-0
  6
CONTINUOUS
 62
    7
 10
133.52244
 20
83.231085
 11
133.10675
 21
83.231085
  0
LINE
  8
1-0
  6
CONTINUOUS
 62
    7
 10
133.10675
 20
83.111089
 11
133.10675
 21
83.231085
  0
LINE
  8
1-0
  6
CONTINUOUS
 62
    7
 10
133.06633
 20
83.831089
 11
132.96634
 21
83.831089
  0
LINE
  8
1-0
  6
CONTINUOUS
 62
    7
 10
133.47635
 20
83.831089
 11
133.36635
 21
83.831089
  0
LINE
  8
1-0
  6
CONTINUOUS
 62
    7
 10
133.06633
 20
83.831089
 11
132.96634
 21
83.831089
  0
LINE
  8
1-0
  6
CONTINUOUS
 62
    7
 10
133.47635
 20
83.831089
 11
133.36635
 21
83.831089
  0
LINE
  8
1-0
  6
CONTINUOUS
 62
    7
 10
133.58635
 20
84.91109
 11
133.56634
 21
84.931083
  0
LINE
  8
1-0
  6
CONTINUOUS
 62
    7
 10
133.38635
 20
84.931083
 11
133.56634
 21
84.931083
  0
LINE
  8
1-0
  6
CONTINUOUS
 62
    7
 10
133.6842
 20
84.651092
 11
133.66419
 21
84.671085
  0
LINE
  8
1-0
  6
CONTINUOUS
 62
    7
 10
133.2885
 20
84.671085
 11
133.66419
 21
84.671085
  0
LINE
  8
1-0
  6
CONTINUOUS
 62
    7
 10
133.6842
 20
84.651092
 11
133.2685
 21
84.651092
  0
LINE
  8
1-0
  6
CONTINUOUS
 62
    7
 10
133.58635
 20
84.91109
 11
133.58635
 21
84.671085
  0
LINE
  8
1-0
  6
CONTINUOUS
 62
    7
 10
133.58027
 20
84.651092
 11
133.58027
 21
84.531084
  0
LINE
  8
1-0
  6
CONTINUOUS
 62
    7
 10
133.56634
 20
84.931083
 11
133.56634
 21
84.671085
  0
LINE
  8
1-0
  6
CONTINUOUS
 62
    7
 10
133.2885
 20
84.531084
 11
133.2885
 21
84.481089
  0
LINE
  8
1-0
  6
CONTINUOUS
 62
    7
 10
133.66419
 20
84.531084
 11
133.66419
 21
84.481089
  0
LINE
  8
1-0
  6
CONTINUOUS
 62
    7
 10
133.6842
 20
84.651092
 11
133.6842
 21
84.531084
  0
LINE
  8
1-0
  6
CONTINUOUS
 62
    7
 10
133.6842
 20
84.531084
 11
133.2685
 21
84.531084
  0
LINE
  8
1-0
  6
CONTINUOUS
 62
    7
 10
133.6842
 20
84.481089
 11
133.6842
 21
84.431081
  0
LINE
  8
1-0
  6
CONTINUOUS
 62
    7
 10
133.6842
 20
84.481089
 11
133.2685
 21
84.481089
  0
LINE
  8
1-0
  6
CONTINUOUS
 62
    7
 10
133.2685
 20
84.481089
 11
133.2685
 21
84.431081
  0
LINE
  8
1-0
  6
CONTINUOUS
 62
    7
 10
133.6842
 20
83.111089
 11
133.66419
 21
83.091083
  0
LINE
  8
1-0
  6
CONTINUOUS
 62
    7
 10
133.2885
 20
83.091083
 11
133.66419
 21
83.091083
  0
LINE
  8
1-0
  6
CONTINUOUS
 62
    7
 10
133.6842
 20
83.111089
 11
133.2685
 21
83.111089
  0
LINE
  8
1-0
  6
CONTINUOUS
 62
    7
 10
133.58027
 20
83.111089
 11
133.58027
 21
83.231085
  0
LINE
  8
1-0
  6
CONTINUOUS
 62
    7
 10
133.6842
 20
83.111089
 11
133.6842
 21
83.231085
  0
LINE
  8
1-0
  6
CONTINUOUS
 62
    7
 10
133.6842
 20
83.231085
 11
133.2685
 21
83.231085
  0
LINE
  8
1-0
  6
CENTER2
 62
    2
 10
131.35135
 20
83.529485
 11
131.35135
 21
82.810165
  0
LINE
  8
1-0
  6
CENTER2
 62
    2
 10
131.35135
 20
83.656619
 11
131.35135
 21
84.143952
  0
LINE
  8
1-0
  6
CONTINUOUS
 62
    7
 10
126.05135
 20
110.69107
 11
128.17547
 21
112.43859
  0
LINE
  8
1-0
  6
CONTINUOUS
 62
    7
 10
128.05134
 20
110.69107
 11
128.83314
 21
111.83754
  0
LINE
  8
1-0
  6
CONTINUOUS
 62
    7
 10
128.91134
 20
112.54108
 11
127.1531
 21
112.78816
  0
LINE
  8
1-0
  6
CONTINUOUS
 62
    7
 10
128.92699
 20
112.35007
 11
129.03069
 21
112.29948
  0
LINE
  8
1-0
  6
CONTINUOUS
 62
    7
 10
129.03069
 20
112.29948
 11
128.93271
 21
112.23856
  0
LINE
  8
1-0
  6
CONTINUOUS
 62
    7
 10
128.93271
 20
112.23854
 11
129.03264
 21
112.18085
  0
LINE
  8
1-0
  6
CONTINUOUS
 62
    7
 10
129.03264
 20
112.18085
 11
128.93064
 21
112.12689
  0
LINE
  8
1-0
  6
CONTINUOUS
 62
    7
 10
128.93064
 20
112.12689
 11
129.0263
 21
112.06236
  0
LINE
  8
1-0
  6
CONTINUOUS
 62
    7
 10
129.0263
 20
112.06236
 11
128.92081
 21
112.01566
  0
LINE
  8
1-0
  6
CONTINUOUS
 62
    7
 10
128.92081
 20
112.01564
 11
129.01172
 21
111.9446
  0
LINE
  8
1-0
  6
CONTINUOUS
 62
    7
 10
129.01172
 20
111.9446
 11
128.90321
 21
111.90536
  0
LINE
  8
1-0
  6
CONTINUOUS
 62
    7
 10
128.90321
 20
111.90536
 11
128.98895
 21
111.82815
  0
LINE
  8
1-0
  6
CONTINUOUS
 62
    7
 10
128.98895
 20
111.82815
 11
128.87797
 21
111.79658
  0
LINE
  8
1-0
  6
CONTINUOUS
 62
    7
 10
128.87797
 20
111.79658
 11
128.95812
 21
111.71356
  0
LINE
  8
1-0
  6
CONTINUOUS
 62
    7
 10
128.95812
 20
111.71356
 11
128.8452
 21
111.6898
  0
LINE
  8
1-0
  6
CONTINUOUS
 62
    7
 10
128.8452
 20
111.6898
 11
128.91936
 21
111.6014
  0
LINE
  8
1-0
  6
CONTINUOUS
 62
    7
 10
128.91936
 20
111.6014
 11
128.80508
 21
111.58559
  0
LINE
  8
1-0
  6
CONTINUOUS
 62
    7
 10
128.80508
 20
111.58559
 11
128.8729
 21
111.49223
  0
LINE
  8
1-0
  6
CONTINUOUS
 62
    7
 10
128.8729
 20
111.49223
 11
128.75777
 21
111.48443
  0
LINE
  8
1-0
  6
CONTINUOUS
 62
    7
 10
128.75777
 20
111.48443
 11
128.81891
 21
111.38656
  0
LINE
  8
1-0
  6
CONTINUOUS
 62
    7
 10
128.81891
 20
111.38656
 11
128.70352
 21
111.38682
  0
LINE
  8
1-0
  6
CONTINUOUS
 62
    7
 10
128.70352
 20
111.38682
 11
128.75768
 21
111.28493
  0
LINE
  8
1-0
  6
CONTINUOUS
 62
    7
 10
128.75768
 20
111.28493
 11
128.6426
 21
111.29322
  0
LINE
  8
1-0
  6
CONTINUOUS
 62
    7
 10
128.6426
 20
111.29322
 11
128.68952
 21
111.18777
  0
LINE
  8
1-0
  6
CONTINUOUS
 62
    7
 10
128.68952
 20
111.18777
 11
128.57529
 21
111.20409
  0
LINE
  8
1-0
  6
CONTINUOUS
 62
    7
 10
128.57529
 20
111.20409
 11
128.61474
 21
111.09566
  0
LINE
  8
1-0
  6
CONTINUOUS
 62
    7
 10
128.61474
 20
111.09566
 11
128.50193
 21
111.11989
  0
LINE
  8
1-0
  6
CONTINUOUS
 62
    7
 10
128.50193
 20
111.11989
 11
128.53374
 21
111.00896
  0
LINE
  8
1-0
  6
CONTINUOUS
 62
    7
 10
128.53374
 20
111.00896
 11
128.42288
 21
111.041
  0
LINE
  8
1-0
  6
CONTINUOUS
 62
    7
 10
128.42288
 20
111.041
 11
128.44687
 21
110.92811
  0
LINE
  8
1-0
  6
CONTINUOUS
 62
    7
 10
128.44687
 20
110.92811
 11
128.33852
 21
110.96783
  0
LINE
  8
1-0
  6
CONTINUOUS
 62
    7
 10
128.33852
 20
110.96783
 11
128.35458
 21
110.85357
  0
LINE
  8
1-0
  6
CONTINUOUS
 62
    7
 10
128.35458
 20
110.85357
 11
128.24925
 21
110.90069
  0
LINE
  8
1-0
  6
CONTINUOUS
 62
    7
 10
127.51115
 20
111.89207
 11
126.95387
 21
112.23574
  0
LINE
  8
1-0
  6
CONTINUOUS
 62
    7
 10
127.65073
 20
112.73609
 11
127.77198
 21
112.73609
  0
LINE
  8
1-0
  6
CONTINUOUS
 62
    7
 10
127.77198
 20
112.73609
 11
127.8326
 21
112.84108
  0
LINE
  8
1-0
  6
CONTINUOUS
 62
    7
 10
127.8326
 20
112.84108
 11
127.77198
 21
112.94607
  0
LINE
  8
1-0
  6
CONTINUOUS
 62
    7
 10
127.77198
 20
112.94607
 11
127.65073
 21
112.94607
  0
LINE
  8
1-0
  6
CONTINUOUS
 62
    7
 10
127.65073
 20
112.94607
 11
127.59011
 21
112.84108
  0
LINE
  8
1-0
  6
CONTINUOUS
 62
    7
 10
127.59011
 20
112.84108
 11
127.65073
 21
112.73609
  0
LINE
  8
1-0
  6
CONTINUOUS
 62
    7
 10
127.5348
 20
112.73452
 11
127.57934
 21
113.05139
  0
LINE
  8
1-0
  6
CONTINUOUS
 62
    7
 10
127.89623
 20
113.00686
 11
127.57934
 21
113.05139
  0
LINE
  8
1-0
  6
CONTINUOUS
 62
    7
 10
127.85169
 20
112.68998
 11
127.89623
 21
113.00686
  0
LINE
  8
1-0
  6
CONTINUOUS
 62
    7
 10
127.65073
 20
110.78608
 11
127.77198
 21
110.78608
  0
LINE
  8
1-0
  6
CONTINUOUS
 62
    7
 10
127.77198
 20
110.78608
 11
127.8326
 21
110.89108
  0
LINE
  8
1-0
  6
CONTINUOUS
 62
    7
 10
127.8326
 20
110.89108
 11
127.77198
 21
110.99609
  0
LINE
  8
1-0
  6
CONTINUOUS
 62
    7
 10
127.77198
 20
110.99609
 11
127.65073
 21
110.99609
  0
LINE
  8
1-0
  6
CONTINUOUS
 62
    7
 10
127.65073
 20
110.99609
 11
127.59011
 21
110.89108
  0
LINE
  8
1-0
  6
CONTINUOUS
 62
    7
 10
127.59011
 20
110.89108
 11
127.65073
 21
110.78608
  0
LINE
  8
1-0
  6
CONTINUOUS
 62
    7
 10
127.70808
 20
112.73343
 11
127.70808
 21
110.98612
  0
LINE
  8
1-0
  6
CONTINUOUS
 62
    7
 10
137.60135
 20
112.84108
 11
137.60135
 21
111.84106
  0
LINE
  8
1-0
  6
CONTINUOUS
 62
    7
 10
136.57635
 20
112.84108
 11
137.60135
 21
112.84108
  0
LINE
  8
1-0
  6
CONTINUOUS
 62
    7
 10
136.25135
 20
112.74109
 11
136.25135
 21
112.44107
  0
LINE
  8
1-0
  6
CONTINUOUS
 62
    7
 10
136.21636
 20
112.6286
 11
136.21636
 21
112.55355
  0
LINE
  8
1-0
  6
CONTINUOUS
 62
    7
 10
136.53397
 20
113.10048
 11
136.37458
 21
112.94107
  0
LINE
  8
1-0
  6
CONTINUOUS
 62
    7
 10
136.71074
 20
112.9237
 11
136.62812
 21
112.84108
  0
LINE
  8
1-0
  6
CONTINUOUS
 62
    7
 10
61.228043
 20
152.35562
 11
61.165812
 21
152.3867
  0
LINE
  8
1-0
  6
CONTINUOUS
 62
    7
 10
62.735848
 20
153.61263
 11
62.708624
 21
153.55818
  0
LINE
  8
1-0
  6
CENTER2
 62
    2
 10
81.961619
 20
148.24557
 11
81.667042
 21
147.08572
  0
LINE
  8
1-0
  6
CONTINUOUS
 62
    7
 10
82.249812
 20
148.77101
 11
81.959071
 21
148.84488
  0
LINE
  8
1-0
  6
CONTINUOUS
 62
    7
 10
81.683683
 20
146.5418
 11
81.392916
 21
146.61561
  0
LINE
  8
1-0
  6
CONTINUOUS
 62
    7
 10
82.249812
 20
148.77101
 11
82.084176
 21
148.11868
  0
LINE
  8
1-0
  6
CONTINUOUS
 62
    7
 10
81.959071
 20
148.84488
 11
81.799039
 21
148.21489
  0
LINE
  8
1-0
  6
CONTINUOUS
 62
    7
 10
81.552898
 20
147.24564
 11
81.392916
 21
146.61561
  0
LINE
  8
1-0
  6
CONTINUOUS
 62
    7
 10
63.572226
 20
152.69344
 11
63.464392
 21
152.74732
  0
LINE
  8
1-0
  6
CONTINUOUS
 62
    7
 10
75.446764
 20
148.7964
 11
75.692905
 21
149.76561
  0
LINE
  8
1-0
  6
CONTINUOUS
 62
    7
 10
74.47753
 20
149.04257
 11
74.723683
 21
150.01177
  0
LINE
  8
1-0
  6
CONTINUOUS
 62
    7
 10
142.14994
 20
113.43039
 11
142.7142
 21
112.83535
  0
LINE
  8
1-0
  6
CONTINUOUS
 62
    7
 10
141.47942
 20
112.08858
 11
142.29409
 21
111.99461
  0
LINE
  8
1-0
  6
CONTINUOUS
 62
    7
 10
142.14994
 20
113.43039
 11
141.47942
 21
112.08858
  0
LINE
  8
1-0
  6
CONTINUOUS
 62
    7
 10
142.0694
 20
113.47063
 11
141.39891
 21
112.1288
  0
LINE
  8
1-0
  6
CONTINUOUS
 62
    7
 10
119.59403
 20
124.42142
 11
119.14702
 21
123.5269
  0
LINE
  8
1-0
  6
CONTINUOUS
 62
    7
 10
129.79594
 20
120.72119
 11
129.71543
 21
120.76145
  0
LINE
  8
1-0
  6
CONTINUOUS
 62
    7
 10
129.71543
 20
120.76145
 11
129.1567
 21
119.64326
  0
LINE
  8
1-0
  6
CONTINUOUS
 62
    7
 10
129.79594
 20
120.72119
 11
129.23721
 21
119.60304
  0
LINE
  8
1-0
  6
CONTINUOUS
 62
    7
 10
126.66505
 20
122.28563
 11
126.58455
 21
122.32587
  0
LINE
  8
1-0
  6
CONTINUOUS
 62
    7
 10
126.58455
 20
122.32587
 11
126.02583
 21
121.20767
  0
LINE
  8
1-0
  6
CONTINUOUS
 62
    7
 10
126.66505
 20
122.28563
 11
126.10631
 21
121.16744
  0
LINE
  8
1-0
  6
CONTINUOUS
 62
    7
 10
123.53412
 20
123.85005
 11
123.45361
 21
123.8903
  0
LINE
  8
1-0
  6
CONTINUOUS
 62
    7
 10
123.45361
 20
123.8903
 11
122.8949
 21
122.7721
  0
LINE
  8
1-0
  6
CONTINUOUS
 62
    7
 10
123.53412
 20
123.85005
 11
122.97541
 21
122.73188
  0
LINE
  8
1-0
  6
CONTINUOUS
 62
    7
 10
120.40322
 20
125.41448
 11
120.32271
 21
125.45468
  0
LINE
  8
1-0
  6
CONTINUOUS
 62
    7
 10
120.32271
 20
125.45468
 11
119.764
 21
124.33653
  0
LINE
  8
1-0
  6
CONTINUOUS
 62
    7
 10
120.40322
 20
125.41448
 11
119.84452
 21
124.29629
  0
LINE
  8
1-0
  6
CONTINUOUS
 62
    7
 10
117.27232
 20
126.97892
 11
117.19181
 21
127.01912
  0
LINE
  8
1-0
  6
CONTINUOUS
 62
    7
 10
117.19181
 20
127.01912
 11
116.63308
 21
125.90094
  0
LINE
  8
1-0
  6
CONTINUOUS
 62
    7
 10
117.27232
 20
126.97892
 11
116.71358
 21
125.86073
  0
LINE
  8
1-0
  6
CONTINUOUS
 62
    7
 10
114.1414
 20
128.54332
 11
114.06088
 21
128.58356
  0
LINE
  8
1-0
  6
CONTINUOUS
 62
    7
 10
114.06088
 20
128.58356
 11
113.50219
 21
127.46538
  0
LINE
  8
1-0
  6
CONTINUOUS
 62
    7
 10
114.1414
 20
128.54332
 11
113.58267
 21
127.42514
  0
LINE
  8
1-0
  6
CONTINUOUS
 62
    7
 10
111.01049
 20
130.10774
 11
110.92999
 21
130.14797
  0
LINE
  8
1-0
  6
CONTINUOUS
 62
    7
 10
110.92999
 20
130.14797
 11
110.37122
 21
129.0298
  0
LINE
  8
1-0
  6
CONTINUOUS
 62
    7
 10
111.01049
 20
130.10774
 11
110.4518
 21
128.98958
  0
LINE
  8
1-0
  6
CONTINUOUS
 62
    7
 10
107.8796
 20
131.67218
 11
107.79906
 21
131.71242
  0
LINE
  8
1-0
  6
CONTINUOUS
 62
    7
 10
107.79906
 20
131.71242
 11
107.24036
 21
130.59422
  0
LINE
  8
1-0
  6
CONTINUOUS
 62
    7
 10
107.8796
 20
131.67218
 11
107.32087
 21
130.554
  0
LINE
  8
1-0
  6
CONTINUOUS
 62
    7
 10
104.74867
 20
133.23661
 11
104.66816
 21
133.27682
  0
LINE
  8
1-0
  6
CONTINUOUS
 62
    7
 10
104.66816
 20
133.27682
 11
104.10946
 21
132.15868
  0
LINE
  8
1-0
  6
CONTINUOUS
 62
    7
 10
104.74867
 20
133.23661
 11
104.18994
 21
132.11842
  0
LINE
  8
1-0
  6
CONTINUOUS
 62
    7
 10
101.61775
 20
134.80104
 11
101.53727
 21
134.84127
  0
LINE
  8
1-0
  6
CONTINUOUS
 62
    7
 10
101.53727
 20
134.84127
 11
100.97855
 21
133.72308
  0
LINE
  8
1-0
  6
CONTINUOUS
 62
    7
 10
101.61775
 20
134.80104
 11
101.05904
 21
133.68285
  0
LINE
  8
1-0
  6
CONTINUOUS
 62
    7
 10
98.486888
 20
136.36545
 11
98.406371
 21
136.40565
  0
LINE
  8
1-0
  6
CONTINUOUS
 62
    7
 10
98.406371
 20
136.40565
 11
97.847639
 21
135.28749
  0
LINE
  8
1-0
  6
CONTINUOUS
 62
    7
 10
98.486888
 20
136.36545
 11
97.928144
 21
135.24726
  0
LINE
  8
1-0
  6
CONTINUOUS
 62
    7
 10
95.355982
 20
137.92988
 11
95.275453
 21
137.97011
  0
LINE
  8
1-0
  6
CONTINUOUS
 62
    7
 10
95.275453
 20
137.97011
 11
94.716746
 21
136.85194
  0
LINE
  8
1-0
  6
CONTINUOUS
 62
    7
 10
95.355982
 20
137.92988
 11
94.797263
 21
136.81167
  0
LINE
  8
1-0
  6
CONTINUOUS
 62
    7
 10
92.225052
 20
139.49429
 11
92.14456
 21
139.53453
  0
LINE
  8
1-0
  6
CONTINUOUS
 62
    7
 10
92.225052
 20
139.49429
 11
91.666333
 21
138.37614
  0
LINE
  8
1-0
  6
CONTINUOUS
 62
    7
 10
87.895535
 20
141.32228
 11
85.748649
 21
142.39503
  0
LINE
  8
1-0
  6
CONTINUOUS
 62
    7
 10
85.748649
 20
142.39503
 11
84.675861
 21
140.24809
  0
LINE
  8
1-0
  6
CONTINUOUS
 62
    7
 10
85.980896
 20
141.99847
 11
85.936987
 21
141.91064
  0
LINE
  8
1-0
  6
CONTINUOUS
 62
    7
 10
85.936987
 20
141.91064
 11
85.839026
 21
141.90479
  0
LINE
  8
1-0
  6
CONTINUOUS
 62
    7
 10
85.839026
 20
141.90479
 11
85.784936
 21
141.98663
  0
LINE
  8
1-0
  6
CONTINUOUS
 62
    7
 10
85.784936
 20
141.98663
 11
85.828794
 21
142.07445
  0
LINE
  8
1-0
  6
CONTINUOUS
 62
    7
 10
85.828794
 20
142.07445
 11
85.926793
 21
142.08034
  0
LINE
  8
1-0
  6
CONTINUOUS
 62
    7
 10
85.926793
 20
142.08034
 11
85.980896
 21
141.99847
  0
LINE
  8
1-0
  6
CONTINUOUS
 62
    7
 10
85.265733
 20
140.56719
 11
85.221837
 21
140.4794
  0
LINE
  8
1-0
  6
CONTINUOUS
 62
    7
 10
85.221837
 20
140.4794
 11
85.123888
 21
140.47349
  0
LINE
  8
1-0
  6
CONTINUOUS
 62
    7
 10
85.123888
 20
140.47349
 11
85.06976
 21
140.55539
  0
LINE
  8
1-0
  6
CONTINUOUS
 62
    7
 10
85.06976
 20
140.55539
 11
85.113656
 21
140.64317
  0
LINE
  8
1-0
  6
CONTINUOUS
 62
    7
 10
85.113656
 20
140.64317
 11
85.211618
 21
140.64907
  0
LINE
  8
1-0
  6
CONTINUOUS
 62
    7
 10
85.211618
 20
140.64907
 11
85.265733
 21
140.56719
  0
LINE
  8
1-0
  6
CONTINUOUS
 62
    7
 10
84.765286
 20
140.42699
 11
62.793941
 21
151.40545
  0
LINE
  8
1-0
  6
CONTINUOUS
 62
    7
 10
66.382524
 20
149.05341
 11
66.60603
 21
149.50071
  0
LINE
  8
1-0
  6
CONTINUOUS
 62
    7
 10
66.203612
 20
149.14276
 11
66.4271
 21
149.59009
  0
LINE
  8
1-0
  6
CENTER2
 62
    2
 10
66.577593
 20
148.95597
 11
66.075005
 21
149.20707
  0
LINE
  8
1-0
  6
CENTER2
 62
    2
 10
66.419776
 20
149.35168
 11
66.139921
 21
148.7916
  0
LINE
  8
1-0
  6
CONTINUOUS
 62
    7
 10
127.61874
 20
117.90767
 11
127.08202
 21
118.17584
  0
LINE
  8
1-0
  6
CONTINUOUS
 62
    7
 10
127.02834
 20
118.06849
 11
127.56508
 21
117.80029
  0
LINE
  8
1-0
  6
CONTINUOUS
 62
    7
 10
125.73567
 20
119.06096
 11
126.45127
 21
118.7034
  0
LINE
  8
1-0
  6
CONTINUOUS
 62
    7
 10
126.27256
 20
118.12198
 11
126.49608
 21
118.56924
  0
LINE
  8
1-0
  6
CONTINUOUS
 62
    7
 10
125.4228
 20
118.43479
 11
126.13842
 21
118.07723
  0
LINE
  8
1-0
  6
CONTINUOUS
 62
    7
 10
125.37807
 20
118.56896
 11
125.60154
 21
119.0162
  0
LINE
  8
1-0
  6
CONTINUOUS
 62
    7
 10
128.37433
 20
118.6368
 11
127.68463
 21
117.63999
  0
LINE
  8
1-0
  6
CONTINUOUS
 62
    7
 10
127.68463
 20
117.63999
 11
127.36514
 21
117.79961
  0
LINE
  8
1-0
  6
CONTINUOUS
 62
    7
 10
127.74818
 20
118.94969
 11
127.36514
 21
117.79961
  0
LINE
  8
1-0
  6
CONTINUOUS
 62
    7
 10
126.47814
 20
118.53346
 11
126.80132
 21
118.37199
  0
LINE
  8
1-0
  6
CONTINUOUS
 62
    7
 10
126.70323
 20
118.17508
 11
126.37981
 21
118.33663
  0
LINE
  8
1-0
  6
CONTINUOUS
 62
    7
 10
125.29667
 20
119.12383
 11
125.57673
 21
118.98389
  0
LINE
  8
1-0
  6
CONTINUOUS
 62
    7
 10
125.47863
 20
118.78696
 11
125.19791
 21
118.92722
  0
LINE
  8
1-0
  6
CONTINUOUS
 62
    7
 10
125.12212
 20
119.12317
 11
66.382524
 21
149.05341
  0
LINE
  8
1-0
  6
CONTINUOUS
 62
    7
 10
81.698269
 20
147.20877
 11
63.342565
 21
151.87047
  0
LINE
  8
1-0
  6
CONTINUOUS
 62
    7
 10
81.944435
 20
148.17798
 11
63.536582
 21
152.85301
  0
LINE
  8
1-0
  6
CONTINUOUS
 62
    7
 10
81.849343
 20
147.19408
 11
81.683683
 21
146.5418
  0
LINE
  8
1-0
  6
CONTINUOUS
 62
    7
 10
120.13077
 20
124.15323
 11
119.68374
 21
123.25869
  0
LINE
  8
1-0
  6
CONTINUOUS
 62
    7
 10
126.05135
 20
110.69107
 11
126.05135
 21
108.19105
  0
LINE
  8
1-0
  6
CONTINUOUS
 62
    7
 10
127.85136
 20
108.19105
 11
128.05134
 21
107.59107
  0
LINE
  8
1-0
  6
CONTINUOUS
 62
    7
 10
128.05134
 20
107.59107
 11
131.35135
 21
107.59107
  0
LINE
  8
1-0
  6
CONTINUOUS
 62
    7
 10
128.13526
 20
108.19105
 11
128.32005
 21
107.59107
  0
LINE
  8
1-0
  6
CONTINUOUS
 62
    7
 10
128.10081
 20
108.19105
 11
128.2856
 21
107.59107
  0
LINE
  8
1-0
  6
CONTINUOUS
 62
    7
 10
128.84487
 20
108.19105
 11
128.9863
 21
107.59107
  0
LINE
  8
1-0
  6
CONTINUOUS
 62
    7
 10
128.90851
 20
108.19105
 11
129.04993
 21
107.59107
  0
LINE
  8
1-0
  6
CONTINUOUS
 62
    7
 10
129.9705
 20
108.19105
 11
130.04705
 21
107.59107
  0
LINE
  8
1-0
  6
CONTINUOUS
 62
    7
 10
130.05363
 20
108.19105
 11
130.13019
 21
107.59107
  0
LINE
  8
1-0
  6
CONTINUOUS
 62
    7
 10
131.41136
 20
108.19105
 11
131.41136
 21
107.59107
  0
LINE
  8
1-0
  6
CONTINUOUS
 62
    7
 10
131.29134
 20
108.19105
 11
131.29134
 21
107.59107
  0
LINE
  8
1-0
  6
CONTINUOUS
 62
    7
 10
134.85134
 20
108.19105
 11
134.65136
 21
107.59107
  0
LINE
  8
1-0
  6
CONTINUOUS
 62
    7
 10
134.65136
 20
107.59107
 11
131.35135
 21
107.59107
  0
LINE
  8
1-0
  6
CONTINUOUS
 62
    7
 10
134.56744
 20
108.19105
 11
134.38264
 21
107.59107
  0
LINE
  8
1-0
  6
CONTINUOUS
 62
    7
 10
134.60189
 20
108.19105
 11
134.4171
 21
107.59107
  0
LINE
  8
1-0
  6
CONTINUOUS
 62
    7
 10
133.85785
 20
108.19105
 11
133.7164
 21
107.59107
  0
LINE
  8
1-0
  6
CONTINUOUS
 62
    7
 10
133.79419
 20
108.19105
 11
133.65277
 21
107.59107
  0
LINE
  8
1-0
  6
CONTINUOUS
 62
    7
 10
132.73221
 20
108.19105
 11
132.65566
 21
107.59107
  0
LINE
  8
1-0
  6
CONTINUOUS
 62
    7
 10
132.64907
 20
108.19105
 11
132.57251
 21
107.59107
  0
LINE
  8
1-0
  6
CONTINUOUS
 62
    7
 10
134.65136
 20
107.59107
 11
134.65136
 21
107.47106
  0
LINE
  8
1-0
  6
CONTINUOUS
 62
    7
 10
134.65136
 20
107.47106
 11
131.35135
 21
107.47106
  0
LINE
  8
1-0
  6
CONTINUOUS
 62
    7
 10
129.34461
 20
106.49108
 11
129.41531
 21
106.49108
  0
LINE
  8
1-0
  6
CONTINUOUS
 62
    7
 10
129.34461
 20
106.09107
 11
129.41531
 21
106.09107
  0
LINE
  8
1-0
  6
CONTINUOUS
 62
    7
 10
128.95784
 20
106.43422
 11
129.28088
 21
106.57757
  0
LINE
  8
1-0
  6
CONTINUOUS
 62
    7
 10
128.95784
 20
106.14794
 11
129.28088
 21
106.00459
  0
LINE
  8
1-0
  6
CONTINUOUS
 62
    7
 10
128.89419
 20
106.43422
 11
129.24766
 21
106.59106
  0
LINE
  8
1-0
  6
CONTINUOUS
 62
    7
 10
129.24766
 20
106.59106
 11
129.34317
 21
106.59106
  0
LINE
  8
1-0
  6
CONTINUOUS
 62
    7
 10
128.95784
 20
106.14794
 11
129.28088
 21
106.00459
  0
LINE
  8
1-0
  6
CONTINUOUS
 62
    7
 10
128.89419
 20
106.14794
 11
129.24766
 21
105.99108
  0
LINE
  8
1-0
  6
CONTINUOUS
 62
    7
 10
129.24766
 20
105.99108
 11
129.34317
 21
105.99108
  0
LINE
  8
1-0
  6
CONTINUOUS
 62
    7
 10
128.73507
 20
106.54109
 11
128.81992
 21
106.54109
  0
LINE
  8
1-0
  6
CONTINUOUS
 62
    7
 10
128.73507
 20
106.04107
 11
128.73507
 21
106.54109
  0
LINE
  8
1-0
  6
CONTINUOUS
 62
    7
 10
128.73507
 20
106.04107
 11
128.81992
 21
106.04107
  0
LINE
  8
1-0
  6
CONTINUOUS
 62
    7
 10
128.81992
 20
106.04107
 11
128.81992
 21
106.54109
  0
LINE
  8
1-0
  6
CONTINUOUS
 62
    7
 10
128.81992
 20
106.54109
 11
129.20916
 21
107.47106
  0
LINE
  8
1-0
  6
CONTINUOUS
 62
    7
 10
128.73507
 20
106.54109
 11
129.12431
 21
107.47106
  0
LINE
  8
1-0
  6
CONTINUOUS
 62
    7
 10
129.73915
 20
106.29107
 11
129.73915
 21
107.47106
  0
LINE
  8
1-0
  6
CONTINUOUS
 62
    7
 10
128.81992
 20
106.04107
 11
129.20916
 21
105.11108
  0
LINE
  8
1-0
  6
CONTINUOUS
 62
    7
 10
128.73507
 20
106.04107
 11
129.12431
 21
105.11108
  0
LINE
  8
1-0
  6
CONTINUOUS
 62
    7
 10
129.73915
 20
106.29107
 11
129.73915
 21
105.11108
  0
LINE
  8
1-0
  6
CONTINUOUS
 62
    7
 10
129.12431
 20
105.11108
 11
129.73915
 21
105.11108
  0
LINE
  8
1-0
  6
CONTINUOUS
 62
    7
 10
128.7543
 20
105.11108
 11
129.36917
 21
105.11108
  0
LINE
  8
1-0
  6
CONTINUOUS
 62
    7
 10
128.63689
 20
107.1905
 11
128.7543
 21
107.47106
  0
LINE
  8
1-0
  6
CONTINUOUS
 62
    7
 10
128.74681
 20
107.25042
 11
128.83916
 21
107.47106
  0
LINE
  8
1-0
  6
CONTINUOUS
 62
    7
 10
128.63689
 20
105.39164
 11
128.7543
 21
105.11108
  0
LINE
  8
1-0
  6
CONTINUOUS
 62
    7
 10
128.74681
 20
105.33171
 11
128.83916
 21
105.11108
  0
LINE
  8
1-0
  6
CONTINUOUS
 62
    7
 10
133.35809
 20
106.49108
 11
133.28739
 21
106.49108
  0
LINE
  8
1-0
  6
CONTINUOUS
 62
    7
 10
133.35809
 20
106.09107
 11
133.28739
 21
106.09107
  0
LINE
  8
1-0
  6
CONTINUOUS
 62
    7
 10
133.74487
 20
106.43422
 11
133.42182
 21
106.57757
  0
LINE
  8
1-0
  6
CONTINUOUS
 62
    7
 10
133.74487
 20
106.14794
 11
133.42182
 21
106.00459
  0
LINE
  8
1-0
  6
CONTINUOUS
 62
    7
 10
133.80851
 20
106.43422
 11
133.45504
 21
106.59106
  0
LINE
  8
1-0
  6
CONTINUOUS
 62
    7
 10
133.45504
 20
106.59106
 11
133.35953
 21
106.59106
  0
LINE
  8
1-0
  6
CONTINUOUS
 62
    7
 10
133.74487
 20
106.14794
 11
133.42182
 21
106.00459
  0
LINE
  8
1-0
  6
CONTINUOUS
 62
    7
 10
133.80851
 20
106.14794
 11
133.45504
 21
105.99108
  0
LINE
  8
1-0
  6
CONTINUOUS
 62
    7
 10
133.45504
 20
105.99108
 11
133.35953
 21
105.99108
  0
LINE
  8
1-0
  6
CONTINUOUS
 62
    7
 10
133.96764
 20
106.54109
 11
133.88279
 21
106.54109
  0
LINE
  8
1-0
  6
CONTINUOUS
 62
    7
 10
133.96764
 20
106.04107
 11
133.96764
 21
106.54109
  0
LINE
  8
1-0
  6
CONTINUOUS
 62
    7
 10
133.96764
 20
106.04107
 11
133.88279
 21
106.04107
  0
LINE
  8
1-0
  6
CONTINUOUS
 62
    7
 10
133.88279
 20
106.04107
 11
133.88279
 21
106.54109
  0
LINE
  8
1-0
  6
CONTINUOUS
 62
    7
 10
133.88279
 20
106.54109
 11
133.49354
 21
107.47106
  0
LINE
  8
1-0
  6
CONTINUOUS
 62
    7
 10
133.96764
 20
106.54109
 11
133.57839
 21
107.47106
  0
LINE
  8
1-0
  6
CONTINUOUS
 62
    7
 10
132.96355
 20
106.29107
 11
132.96355
 21
107.47106
  0
LINE
  8
1-0
  6
CONTINUOUS
 62
    7
 10
133.88279
 20
106.04107
 11
133.49354
 21
105.11108
  0
LINE
  8
1-0
  6
CONTINUOUS
 62
    7
 10
133.96764
 20
106.04107
 11
133.57839
 21
105.11108
  0
LINE
  8
1-0
  6
CONTINUOUS
 62
    7
 10
132.96355
 20
106.29107
 11
132.96355
 21
105.11108
  0
LINE
  8
1-0
  6
CONTINUOUS
 62
    7
 10
133.57839
 20
105.11108
 11
132.96355
 21
105.11108
  0
LINE
  8
1-0
  6
CONTINUOUS
 62
    7
 10
133.9484
 20
105.11108
 11
133.33354
 21
105.11108
  0
LINE
  8
1-0
  6
CONTINUOUS
 62
    7
 10
134.06581
 20
107.1905
 11
133.9484
 21
107.47106
  0
LINE
  8
1-0
  6
CONTINUOUS
 62
    7
 10
133.9559
 20
107.25042
 11
133.86355
 21
107.47106
  0
LINE
  8
1-0
  6
CONTINUOUS
 62
    7
 10
134.06581
 20
105.39164
 11
133.9484
 21
105.11108
  0
LINE
  8
1-0
  6
CONTINUOUS
 62
    7
 10
133.9559
 20
105.33171
 11
133.86355
 21
105.11108
  0
LINE
  8
1-0
  6
CONTINUOUS
 62
    7
 10
129.34461
 20
99.921074
 11
129.41531
 21
99.921074
  0
LINE
  8
1-0
  6
CONTINUOUS
 62
    7
 10
129.34461
 20
99.521075
 11
129.41531
 21
99.521075
  0
LINE
  8
1-0
  6
CONTINUOUS
 62
    7
 10
128.95784
 20
99.8642
 11
129.28088
 21
100.00756
  0
LINE
  8
1-0
  6
CONTINUOUS
 62
    7
 10
128.95784
 20
99.57793
 11
129.28088
 21
99.43457
  0
LINE
  8
1-0
  6
CONTINUOUS
 62
    7
 10
128.89419
 20
99.8642
 11
129.24766
 21
100.02106
  0
LINE
  8
1-0
  6
CONTINUOUS
 62
    7
 10
129.24766
 20
100.02106
 11
129.34317
 21
100.02106
  0
LINE
  8
1-0
  6
CONTINUOUS
 62
    7
 10
128.95784
 20
99.57793
 11
129.28088
 21
99.43457
  0
LINE
  8
1-0
  6
CONTINUOUS
 62
    7
 10
128.89419
 20
99.57793
 11
129.24766
 21
99.42106
  0
LINE
  8
1-0
  6
CONTINUOUS
 62
    7
 10
129.24766
 20
99.42106
 11
129.34317
 21
99.42106
  0
LINE
  8
1-0
  6
CONTINUOUS
 62
    7
 10
128.73507
 20
99.971069
 11
128.81992
 21
99.971069
  0
LINE
  8
1-0
  6
CONTINUOUS
 62
    7
 10
128.73507
 20
99.471061
 11
128.73507
 21
99.971069
  0
LINE
  8
1-0
  6
CONTINUOUS
 62
    7
 10
128.73507
 20
99.471061
 11
128.81992
 21
99.471061
  0
LINE
  8
1-0
  6
CONTINUOUS
 62
    7
 10
128.81992
 20
99.471061
 11
128.81992
 21
99.971069
  0
LINE
  8
1-0
  6
CONTINUOUS
 62
    7
 10
128.81992
 20
99.471061
 11
129.20916
 21
98.541089
  0
LINE
  8
1-0
  6
CONTINUOUS
 62
    7
 10
128.73507
 20
99.471061
 11
129.12431
 21
98.541089
  0
LINE
  8
1-0
  6
CONTINUOUS
 62
    7
 10
129.73915
 20
99.721074
 11
129.73915
 21
98.541089
  0
LINE
  8
1-0
  6
CONTINUOUS
 62
    7
 10
129.12431
 20
98.541089
 11
129.73915
 21
98.541089
  0
LINE
  8
1-0
  6
CONTINUOUS
 62
    7
 10
128.7543
 20
98.541089
 11
129.36917
 21
98.541089
  0
LINE
  8
1-0
  6
CONTINUOUS
 62
    7
 10
128.63689
 20
100.62049
 11
128.7543
 21
100.90105
  0
LINE
  8
1-0
  6
CONTINUOUS
 62
    7
 10
128.74681
 20
100.68042
 11
128.83916
 21
100.90105
  0
LINE
  8
1-0
  6
CONTINUOUS
 62
    7
 10
128.63689
 20
98.821655
 11
128.7543
 21
98.541089
  0
LINE
  8
1-0
  6
CONTINUOUS
 62
    7
 10
128.74681
 20
98.761719
 11
128.83916
 21
98.541089
  0
LINE
  8
1-0
  6
CONTINUOUS
 62
    7
 10
133.35809
 20
99.921074
 11
133.28739
 21
99.921074
  0
LINE
  8
1-0
  6
CONTINUOUS
 62
    7
 10
133.35809
 20
99.521075
 11
133.28739
 21
99.521075
  0
LINE
  8
1-0
  6
CONTINUOUS
 62
    7
 10
133.74487
 20
99.8642
 11
133.42182
 21
100.00756
  0
LINE
  8
1-0
  6
CONTINUOUS
 62
    7
 10
133.74487
 20
99.57793
 11
133.42182
 21
99.43457
  0
LINE
  8
1-0
  6
CONTINUOUS
 62
    7
 10
133.80851
 20
99.8642
 11
133.45504
 21
100.02106
  0
LINE
  8
1-0
  6
CONTINUOUS
 62
    7
 10
133.45504
 20
100.02106
 11
133.35953
 21
100.02106
  0
LINE
  8
1-0
  6
CONTINUOUS
 62
    7
 10
133.74487
 20
99.57793
 11
133.42182
 21
99.43457
  0
LINE
  8
1-0
  6
CONTINUOUS
 62
    7
 10
133.80851
 20
99.57793
 11
133.45504
 21
99.42106
  0
LINE
  8
1-0
  6
CONTINUOUS
 62
    7
 10
133.45504
 20
99.42106
 11
133.35953
 21
99.42106
  0
LINE
  8
1-0
  6
CONTINUOUS
 62
    7
 10
132.96355
 20
99.721074
 11
132.96355
 21
98.541089
  0
LINE
  8
1-0
  6
CONTINUOUS
 62
    7
 10
133.57839
 20
98.541089
 11
132.96355
 21
98.541089
  0
LINE
  8
1-0
  6
CONTINUOUS
 62
    7
 10
128.7543
 20
100.90105
 11
129.73915
 21
100.90105
  0
LINE
  8
1-0
  6
CONTINUOUS
 62
    7
 10
127.95135
 20
98.541089
 11
127.95135
 21
98.421069
  0
LINE
  8
1-0
  6
CONTINUOUS
 62
    7
 10
127.95135
 20
98.541089
 11
131.35135
 21
98.541089
  0
LINE
  8
1-0
  6
CONTINUOUS
 62
    7
 10
127.95135
 20
98.421069
 11
131.35135
 21
98.421069
  0
LINE
  8
1-0
  6
CONTINUOUS
 62
    7
 10
134.75135
 20
98.541089
 11
134.75135
 21
98.421069
  0
LINE
  8
1-0
  6
CONTINUOUS
 62
    7
 10
128.05134
 20
107.47106
 11
131.35135
 21
107.47106
  0
LINE
  8
1-0
  6
CONTINUOUS
 62
    7
 10
128.05134
 20
107.59107
 11
128.05134
 21
107.47106
  0
LINE
  8
1-0
  6
CONTINUOUS
 62
    7
 10
128.60135
 20
107.47106
 11
128.60135
 21
107.16441
  0
LINE
  8
1-0
  6
CONTINUOUS
 62
    7
 10
128.60135
 20
98.821655
 11
128.60135
 21
98.541089
  0
LINE
  8
1-0
  6
CONTINUOUS
 62
    7
 10
134.10135
 20
107.47106
 11
134.10135
 21
107.16441
  0
LINE
  8
1-0
  6
CONTINUOUS
 62
    7
 10
92.14456
 20
139.53453
 11
91.585816
 21
138.41635
  0
LINE
  8
1-0
  6
CONTINUOUS
 62
    7
 10
131.35135
 20
111.19106
 11
131.35135
 21
110.69107
  0
LINE
  8
1-0
  6
CONTINUOUS
 62
    7
 10
126.05135
 20
110.69107
 11
156.05133
 21
110.69107
  0
LINE
  8
1-0
  6
CONTINUOUS
 62
    7
 10
156.05133
 20
111.19106
 11
156.05133
 21
110.69107
  0
LINE
  8
1-0
  6
CONTINUOUS
 62
    7
 10
131.35135
 20
111.19106
 11
156.05133
 21
111.19106
  0
LINE
  8
1-0
  6
CONTINUOUS
 62
    7
 10
141.85134
 20
112.49107
 11
141.85134
 21
111.19106
  0
LINE
  8
1-0
  6
CONTINUOUS
 62
    7
 10
143.21736
 20
111.19106
 11
142.83427
 21
112.62061
  0
LINE
  8
1-0
  6
CONTINUOUS
 62
    7
 10
147.76123
 20
127.10098
 11
148.29202
 21
126.57019
  0
LINE
  8
1-0
  6
CONTINUOUS
 62
    7
 10
151.35134
 20
129.39108
 11
150.05136
 21
129.39108
  0
LINE
  8
1-0
  6
CONTINUOUS
 62
    7
 10
151.35134
 20
126.39107
 11
150.41379
 21
126.39107
  0
LINE
  8
1-0
  6
CONTINUOUS
 62
    7
 10
151.45135
 20
127.89107
 11
151.84622
 21
130.6195
  0
LINE
  8
1-0
  6
CONTINUOUS
 62
    7
 10
150.05136
 20
129.39108
 11
150.915
 21
130.93519
  0
LINE
  8
1-0
  6
CONTINUOUS
 62
    7
 10
151.45135
 20
127.89107
 11
151.3426
 21
127.89107
  0
LINE
  8
1-0
  6
CONTINUOUS
 62
    7
 10
151.3426
 20
127.89107
 11
151.35134
 21
127.89107
  0
LINE
  8
1-0
  6
CONTINUOUS
 62
    7
 10
151.8283
 20
130.84109
 11
152.55704
 21
130.84109
  0
LINE
  8
1-0
  6
CONTINUOUS
 62
    7
 10
151.83486
 20
130.54107
 11
152.55704
 21
130.54107
  0
LINE
  8
1-0
  6
CONTINUOUS
 62
    7
 10
153.85135
 20
126.79107
 11
151.35134
 21
126.79107
  0
LINE
  8
1-0
  6
CONTINUOUS
 62
    7
 10
151.35134
 20
127.39107
 11
153.85135
 21
127.19108
  0
LINE
  8
1-0
  6
CONTINUOUS
 62
    7
 10
153.85135
 20
127.19108
 11
153.85135
 21
126.79107
  0
LINE
  8
1-0
  6
CONTINUOUS
 62
    7
 10
151.35134
 20
129.39108
 11
151.35134
 21
121.29106
  0
LINE
  8
1-0
  6
CONTINUOUS
 62
    7
 10
153.15136
 20
126.79107
 11
153.15136
 21
121.29106
  0
LINE
  8
1-0
  6
CONTINUOUS
 62
    7
 10
153.20135
 20
126.79107
 11
153.20135
 21
121.29106
  0
LINE
  8
1-0
  6
CONTINUOUS
 62
    7
 10
153.50134
 20
126.79107
 11
153.50134
 21
121.29106
  0
LINE
  8
1-0
  6
CONTINUOUS
 62
    7
 10
151.35134
 20
121.29106
 11
153.15136
 21
121.29106
  0
LINE
  8
1-0
  6
CONTINUOUS
 62
    7
 10
153.20135
 20
121.29106
 11
153.50134
 21
121.29106
  0
LINE
  8
1-0
  6
CONTINUOUS
 62
    7
 10
153.60136
 20
124.59107
 11
153.50134
 21
124.59107
  0
LINE
  8
1-0
  6
CONTINUOUS
 62
    7
 10
153.60136
 20
124.47106
 11
153.50134
 21
124.47106
  0
LINE
  8
1-0
  6
CONTINUOUS
 62
    7
 10
153.70135
 20
124.79107
 11
153.60136
 21
124.79107
  0
LINE
  8
1-0
  6
CONTINUOUS
 62
    7
 10
153.60136
 20
124.79107
 11
153.60136
 21
123.49107
  0
LINE
  8
1-0
  6
CONTINUOUS
 62
    7
 10
153.70135
 20
124.79107
 11
153.70135
 21
124.47106
  0
LINE
  8
1-0
  6
CONTINUOUS
 62
    7
 10
153.60136
 20
123.49107
 11
153.70135
 21
124.47106
  0
LINE
  8
1-0
  6
CONTINUOUS
 62
    7
 10
151.35134
 20
121.99107
 11
150.87286
 21
121.99107
  0
LINE
  8
1-0
  6
CONTINUOUS
 62
    7
 10
151.35134
 20
122.59107
 11
150.90585
 21
122.59107
  0
LINE
  8
1-0
  6
CONTINUOUS
 62
    7
 10
155.59134
 20
111.19106
 11
155.59134
 21
111.89108
  0
LINE
  8
1-0
  6
CONTINUOUS
 62
    7
 10
155.99135
 20
111.19106
 11
155.99135
 21
111.89108
  0
LINE
  8
1-0
  6
CONTINUOUS
 62
    7
 10
155.59134
 20
111.89108
 11
155.99135
 21
111.89108
  0
LINE
  8
1-0
  6
CONTINUOUS
 62
    7
 10
155.64135
 20
120.59105
 11
155.64135
 21
111.89108
  0
LINE
  8
1-0
  6
CONTINUOUS
 62
    7
 10
151.46132
 20
120.59105
 11
151.46132
 21
111.89108
  0
LINE
  8
1-0
  6
CONTINUOUS
 62
    7
 10
151.46132
 20
120.59105
 11
155.64135
 21
120.59105
  0
LINE
  8
1-0
  6
CONTINUOUS
 62
    7
 10
151.11135
 20
111.19106
 11
151.11135
 21
111.89108
  0
LINE
  8
1-0
  6
CONTINUOUS
 62
    7
 10
151.51136
 20
111.19106
 11
151.51136
 21
111.89108
  0
LINE
  8
1-0
  6
CONTINUOUS
 62
    7
 10
151.11135
 20
111.89108
 11
151.51136
 21
111.89108
  0
LINE
  8
1-0
  6
CONTINUOUS
 62
    7
 10
151.46132
 20
116.79107
 11
155.64135
 21
116.79107
  0
LINE
  8
1-0
  6
CONTINUOUS
 62
    7
 10
151.46132
 20
116.49106
 11
155.64135
 21
116.49106
  0
LINE
  8
1-0
  6
CONTINUOUS
 62
    7
 10
150.85136
 20
110.69107
 11
150.85136
 21
109.49109
  0
LINE
  8
1-0
  6
CONTINUOUS
 62
    7
 10
150.35136
 20
109.49109
 11
150.85136
 21
109.49109
  0
LINE
  8
1-0
  6
CONTINUOUS
 62
    7
 10
127.11135
 20
110.57108
 11
127.11135
 21
108.31107
  0
LINE
  8
1-0
  6
CONTINUOUS
 62
    7
 10
131.35135
 20
110.69107
 11
131.35135
 21
108.19105
  0
LINE
  8
1-0
  6
CONTINUOUS
 62
    7
 10
132.85135
 20
110.69107
 11
132.85135
 21
108.19105
  0
LINE
  8
1-0
  6
CONTINUOUS
 62
    7
 10
126.05135
 20
110.57108
 11
131.35135
 21
110.57108
  0
LINE
  8
1-0
  6
CONTINUOUS
 62
    7
 10
126.05135
 20
108.31107
 11
131.35135
 21
108.31107
  0
LINE
  8
1-0
  6
CONTINUOUS
 62
    7
 10
133.91136
 20
110.57108
 11
133.91136
 21
108.31107
  0
LINE
  8
1-0
  6
CONTINUOUS
 62
    7
 10
133.79136
 20
110.57108
 11
133.79136
 21
108.31107
  0
LINE
  8
1-0
  6
CONTINUOUS
 62
    7
 10
141.41137
 20
110.57108
 11
141.41137
 21
108.31107
  0
LINE
  8
1-0
  6
CONTINUOUS
 62
    7
 10
141.29136
 20
110.57108
 11
141.29136
 21
108.31107
  0
LINE
  8
1-0
  6
CONTINUOUS
 62
    7
 10
132.85135
 20
108.31107
 11
144.3984
 21
108.31107
  0
LINE
  8
1-0
  6
CONTINUOUS
 62
    7
 10
144.41137
 20
108.19105
 11
150.35136
 21
109.49109
  0
LINE
  8
1-0
  6
CONTINUOUS
 62
    7
 10
126.05135
 20
108.19105
 11
144.41137
 21
108.19105
  0
LINE
  8
1-0
  6
CONTINUOUS
 62
    7
 10
148.79135
 20
110.57108
 11
148.79135
 21
109.27249
  0
LINE
  8
1-0
  6
CONTINUOUS
 62
    7
 10
148.91136
 20
110.57108
 11
148.91136
 21
109.29877
  0
LINE
  8
1-0
  6
CONTINUOUS
 62
    7
 10
149.85136
 20
110.69107
 11
149.85136
 21
109.38163
  0
LINE
  8
1-0
  6
CONTINUOUS
 62
    7
 10
150.35136
 20
110.69107
 11
150.35136
 21
109.49109
  0
LINE
  8
1-0
  6
CONTINUOUS
 62
    7
 10
144.3984
 20
108.31107
 11
149.85136
 21
109.5045
  0
LINE
  8
1-0
  6
CONTINUOUS
 62
    7
 10
132.85135
 20
110.57108
 11
149.85136
 21
110.57108
  0
LINE
  8
1-0
  6
CONTINUOUS
 62
    7
 10
133.85134
 20
104.42107
 11
134.35134
 21
104.42107
  0
LINE
  8
1-0
  6
CONTINUOUS
 62
    7
 10
134.35134
 20
104.42107
 11
134.35134
 21
93.421089
  0
LINE
  8
1-0
  6
CONTINUOUS
 62
    7
 10
132.96355
 20
100.90105
 11
133.85134
 21
100.90105
  0
LINE
  8
1-0
  6
CONTINUOUS
 62
    7
 10
133.85134
 20
99.193242
 11
133.57839
 21
98.541089
  0
LINE
  8
1-0
  6
CONTINUOUS
 62
    7
 10
133.85134
 20
99.395957
 11
133.49354
 21
98.541089
  0
LINE
  8
1-0
  6
CONTINUOUS
 62
    7
 10
134.75135
 20
98.541089
 11
134.35134
 21
98.541089
  0
LINE
  8
1-0
  6
CONTINUOUS
 62
    7
 10
133.85134
 20
98.541089
 11
131.35135
 21
98.541089
  0
LINE
  8
1-0
  6
CONTINUOUS
 62
    7
 10
134.75135
 20
98.421069
 11
134.35134
 21
98.421069
  0
LINE
  8
1-0
  6
CONTINUOUS
 62
    7
 10
133.85134
 20
98.421069
 11
131.35135
 21
98.421069
  0
LINE
  8
1-0
  6
CONTINUOUS
 62
    7
 10
134.10135
 20
105.39164
 11
134.10135
 21
104.42107
  0
LINE
  8
1-0
  6
CONTINUOUS
 62
    7
 10
133.85134
 20
98.541089
 11
133.33354
 21
98.541089
  0
LINE
  8
1-0
  6
CONTINUOUS
 62
    7
 10
127.25134
 20
104.42107
 11
127.75134
 21
104.42107
  0
LINE
  8
1-0
  6
CONTINUOUS
 62
    7
 10
127.25134
 20
93.421089
 11
127.75134
 21
93.421089
  0
LINE
  8
1-0
  6
CONTINUOUS
 62
    7
 10
123.65134
 20
93.421089
 11
134.35134
 21
93.421089
  0
LINE
  8
1-0
  6
CONTINUOUS
 62
    7
 10
123.65134
 20
93.92106
 11
123.65134
 21
93.421089
  0
LINE
  8
1-0
  6
CONTINUOUS
 62
    7
 10
123.65134
 20
93.92106
 11
134.35134
 21
93.92106
  0
LINE
  8
1-0
  6
CONTINUOUS
 62
    7
 10
133.94135
 20
101.42107
 11
133.94135
 21
93.92106
  0
LINE
  8
1-0
  6
CONTINUOUS
 62
    7
 10
134.29135
 20
101.42107
 11
134.29135
 21
93.92106
  0
LINE
  8
1-0
  6
CONTINUOUS
 62
    7
 10
123.71136
 20
101.42107
 11
123.71136
 21
93.92106
  0
LINE
  8
1-0
  6
CONTINUOUS
 62
    7
 10
124.06136
 20
101.42107
 11
124.06136
 21
93.92106
  0
LINE
  8
1-0
  6
CONTINUOUS
 62
    7
 10
124.23636
 20
101.59607
 11
133.76635
 21
101.59607
  0
LINE
  8
1-0
  6
CONTINUOUS
 62
    7
 10
133.76635
 20
101.24607
 11
124.23636
 21
101.24607
  0
LINE
  8
1-0
  6
CONTINUOUS
 62
    7
 10
133.85134
 20
104.42107
 11
133.85134
 21
101.57405
  0
LINE
  8
1-0
  6
CONTINUOUS
 62
    7
 10
127.75134
 20
104.42107
 11
127.75134
 21
101.59607
  0
LINE
  8
1-0
  6
CONTINUOUS
 62
    7
 10
127.25134
 20
104.42107
 11
127.25134
 21
101.59607
  0
LINE
  8
1-0
  6
CONTINUOUS
 62
    7
 10
133.85134
 20
104.12108
 11
127.75134
 21
104.12108
  0
LINE
  8
1-0
  6
CONTINUOUS
 62
    7
 10
133.85134
 20
103.62107
 11
127.75134
 21
103.62107
  0
LINE
  8
1-0
  6
CONTINUOUS
 62
    7
 10
133.85134
 20
100.62106
 11
127.75134
 21
100.62106
  0
LINE
  8
1-0
  6
CONTINUOUS
 62
    7
 10
133.85134
 20
100.12107
 11
127.75134
 21
100.12107
  0
LINE
  8
1-0
  6
CONTINUOUS
 62
    7
 10
129.73915
 20
99.721074
 11
129.73915
 21
100.12107
  0
LINE
  8
1-0
  6
CONTINUOUS
 62
    7
 10
129.73915
 20
100.62106
 11
129.73915
 21
100.90105
  0
LINE
  8
1-0
  6
CONTINUOUS
 62
    7
 10
132.96355
 20
99.721074
 11
132.96355
 21
100.12107
  0
LINE
  8
1-0
  6
CONTINUOUS
 62
    7
 10
132.96355
 20
100.62106
 11
132.96355
 21
100.90105
  0
LINE
  8
1-0
  6
CONTINUOUS
 62
    7
 10
128.81992
 20
99.971069
 11
128.8827
 21
100.12107
  0
LINE
  8
1-0
  6
CONTINUOUS
 62
    7
 10
129.09196
 20
100.62106
 11
129.20916
 21
100.90105
  0
LINE
  8
1-0
  6
CONTINUOUS
 62
    7
 10
128.73507
 20
99.971069
 11
128.79785
 21
100.12107
  0
LINE
  8
1-0
  6
CONTINUOUS
 62
    7
 10
129.00713
 20
100.62106
 11
129.12431
 21
100.90105
  0
LINE
  8
1-0
  6
CONTINUOUS
 62
    7
 10
128.60135
 20
101.24607
 11
128.60135
 21
100.62106
  0
LINE
  8
1-0
  6
CONTINUOUS
 62
    7
 10
133.85134
 20
100.04619
 11
133.82
 21
100.12107
  0
LINE
  8
1-0
  6
CONTINUOUS
 62
    7
 10
133.61074
 20
100.62106
 11
133.49354
 21
100.90105
  0
LINE
  8
1-0
  6
CONTINUOUS
 62
    7
 10
133.69558
 20
100.62106
 11
133.57839
 21
100.90105
  0
LINE
  8
1-0
  6
CONTINUOUS
 62
    7
 10
128.60135
 20
105.39164
 11
128.60135
 21
104.12108
  0
LINE
  8
1-0
  6
CONTINUOUS
 62
    7
 10
128.60135
 20
103.62107
 11
128.60135
 21
101.59607
  0
LINE
  8
1-0
  6
CONTINUOUS
 62
    7
 10
124.23636
 20
98.296074
 11
133.76635
 21
98.296074
  0
LINE
  8
1-0
  6
CONTINUOUS
 62
    7
 10
133.76635
 20
97.946083
 11
124.23636
 21
97.946083
  0
LINE
  8
1-0
  6
CONTINUOUS
 62
    7
 10
127.25134
 20
101.24607
 11
127.25134
 21
98.296074
  0
LINE
  8
1-0
  6
CONTINUOUS
 62
    7
 10
127.25134
 20
97.946083
 11
127.25134
 21
93.92106
  0
LINE
  8
1-0
  6
CONTINUOUS
 62
    7
 10
127.75134
 20
101.24607
 11
127.75134
 21
98.296074
  0
LINE
  8
1-0
  6
CONTINUOUS
 62
    7
 10
127.75134
 20
97.946083
 11
127.75134
 21
93.92106
  0
LINE
  8
1-0
  6
CONTINUOUS
 62
    7
 10
133.85134
 20
101.26811
 11
133.85134
 21
98.274052
  0
LINE
  8
1-0
  6
CONTINUOUS
 62
    7
 10
133.85134
 20
97.968105
 11
133.85134
 21
93.92106
  0
LINE
  8
1-0
  6
CONTINUOUS
 62
    7
 10
123.71136
 20
93.246075
 11
123.71136
 21
81.821073
  0
LINE
  8
1-0
  6
CONTINUOUS
 62
    7
 10
123.71136
 20
81.821073
 11
124.06136
 21
81.821073
  0
LINE
  8
1-0
  6
CONTINUOUS
 62
    7
 10
127.21134
 20
81.821073
 11
127.56135
 21
81.821073
  0
LINE
  8
1-0
  6
CONTINUOUS
 62
    7
 10
127.56135
 20
93.246075
 11
127.56135
 21
81.821073
  0
LINE
  8
1-0
  6
CONTINUOUS
 62
    7
 10
124.06136
 20
91.296076
 11
127.21134
 21
91.296076
  0
LINE
  8
1-0
  6
CONTINUOUS
 62
    7
 10
124.06136
 20
90.946073
 11
127.21134
 21
90.946073
  0
LINE
  8
1-0
  6
CONTINUOUS
 62
    7
 10
124.06136
 20
93.246075
 11
124.06136
 21
91.296076
  0
LINE
  8
1-0
  6
CONTINUOUS
 62
    7
 10
127.21134
 20
93.246075
 11
127.21134
 21
91.296076
  0
LINE
  8
1-0
  6
CONTINUOUS
 62
    7
 10
124.06136
 20
88.296066
 11
127.21134
 21
88.296066
  0
LINE
  8
1-0
  6
CONTINUOUS
 62
    7
 10
124.06136
 20
87.946087
 11
127.21134
 21
87.946087
  0
LINE
  8
1-0
  6
CONTINUOUS
 62
    7
 10
124.06136
 20
85.296069
 11
127.21134
 21
85.296069
  0
LINE
  8
1-0
  6
CONTINUOUS
 62
    7
 10
124.06136
 20
84.946078
 11
127.21134
 21
84.946078
  0
LINE
  8
1-0
  6
CONTINUOUS
 62
    7
 10
124.06136
 20
82.296071
 11
127.21134
 21
82.296071
  0
LINE
  8
1-0
  6
CONTINUOUS
 62
    7
 10
124.06136
 20
81.94608
 11
127.21134
 21
81.94608
  0
LINE
  8
1-0
  6
CONTINUOUS
 62
    7
 10
124.06136
 20
90.946073
 11
124.06136
 21
88.296066
  0
LINE
  8
1-0
  6
CONTINUOUS
 62
    7
 10
127.21134
 20
90.946073
 11
127.21134
 21
88.296066
  0
LINE
  8
1-0
  6
CONTINUOUS
 62
    7
 10
127.21134
 20
87.946087
 11
127.21134
 21
85.296069
  0
LINE
  8
1-0
  6
CONTINUOUS
 62
    7
 10
124.06136
 20
87.946087
 11
124.06136
 21
85.296069
  0
LINE
  8
1-0
  6
CONTINUOUS
 62
    7
 10
124.06136
 20
84.946078
 11
124.06136
 21
82.296071
  0
LINE
  8
1-0
  6
CONTINUOUS
 62
    7
 10
124.06136
 20
81.94608
 11
124.06136
 21
81.821073
  0
LINE
  8
1-0
  6
CONTINUOUS
 62
    7
 10
127.21134
 20
84.946078
 11
127.21134
 21
82.296071
  0
LINE
  8
1-0
  6
CONTINUOUS
 62
    7
 10
127.21134
 20
81.94608
 11
127.21134
 21
81.821073
  0
LINE
  8
1-0
  6
CONTINUOUS
 62
    7
 10
131.41136
 20
111.19106
 11
131.41136
 21
111.89108
  0
LINE
  8
1-0
  6
CONTINUOUS
 62
    7
 10
131.81135
 20
111.19106
 11
131.81135
 21
111.89108
  0
LINE
  8
1-0
  6
CONTINUOUS
 62
    7
 10
131.41136
 20
111.89108
 11
131.81135
 21
111.89108
  0
LINE
  8
1-0
  6
CONTINUOUS
 62
    7
 10
131.46134
 20
120.74108
 11
131.46134
 21
111.89108
  0
LINE
  8
1-0
  6
CONTINUOUS
 62
    7
 10
131.76137
 20
120.74108
 11
131.76137
 21
111.89108
  0
LINE
  8
1-0
  6
CONTINUOUS
 62
    7
 10
131.81135
 20
111.19106
 11
131.81135
 21
111.89108
  0
LINE
  8
1-0
  6
CONTINUOUS
 62
    7
 10
132.21136
 20
111.19106
 11
132.21136
 21
111.89108
  0
LINE
  8
1-0
  6
CONTINUOUS
 62
    7
 10
131.81135
 20
111.89108
 11
132.21136
 21
111.89108
  0
LINE
  8
1-0
  6
CONTINUOUS
 62
    7
 10
131.86136
 20
120.74108
 11
131.86136
 21
111.89108
  0
LINE
  8
1-0
  6
CONTINUOUS
 62
    7
 10
150.71133
 20
111.19106
 11
150.71133
 21
111.89108
  0
LINE
  8
1-0
  6
CONTINUOUS
 62
    7
 10
151.11135
 20
111.19106
 11
151.11135
 21
111.89108
  0
LINE
  8
1-0
  6
CONTINUOUS
 62
    7
 10
150.71133
 20
111.89108
 11
151.11135
 21
111.89108
  0
LINE
  8
1-0
  6
CONTINUOUS
 62
    7
 10
151.06134
 20
120.74108
 11
151.06134
 21
111.89108
  0
LINE
  8
1-0
  6
CONTINUOUS
 62
    7
 10
150.91136
 20
120.89109
 11
131.97275
 21
120.89109
  0
LINE
  8
1-0
  6
CONTINUOUS
 62
    7
 10
132.16135
 20
120.59105
 11
131.9053
 21
120.84714
  0
LINE
  8
1-0
  6
CONTINUOUS
 62
    7
 10
150.76134
 20
120.59105
 11
132.16135
 21
120.59105
  0
LINE
  8
1-0
  6
CONTINUOUS
 62
    7
 10
150.76134
 20
120.59105
 11
150.76134
 21
111.89108
  0
LINE
  8
1-0
  6
CONTINUOUS
 62
    7
 10
150.76134
 20
120.59105
 11
151.01742
 21
120.84717
  0
LINE
  8
1-0
  6
CONTINUOUS
 62
    7
 10
141.47942
 20
112.08858
 11
136.3179
 21
114.66765
  0
LINE
  8
1-0
  6
CONTINUOUS
 62
    7
 10
141.51067
 20
112.35241
 11
136.50424
 21
114.854
  0
LINE
  8
1-0
  6
CONTINUOUS
 62
    7
 10
141.95768
 20
113.24699
 11
137.24967
 21
115.59944
  0
LINE
  8
1-0
  6
CONTINUOUS
 62
    7
 10
142.14994
 20
113.43039
 11
137.43604
 21
115.7858
  0
LINE
  8
1-0
  6
CONTINUOUS
 62
    7
 10
131.46134
 20
118.49169
 11
119.59403
 21
124.42142
  0
LINE
  8
1-0
  6
CONTINUOUS
 62
    7
 10
131.46134
 20
118.77117
 11
87.489314
 21
140.7427
  0
LINE
  8
1-0
  6
CONTINUOUS
 62
    7
 10
131.86136
 20
118.5713
 11
131.76137
 21
118.62127
  0
LINE
  8
1-0
  6
CONTINUOUS
 62
    7
 10
131.86136
 20
118.29182
 11
131.76137
 21
118.34178
  0
LINE
  8
1-0
  6
CONTINUOUS
 62
    7
 10
131.86136
 20
116.89445
 11
131.76137
 21
116.94442
  0
LINE
  8
1-0
  6
CONTINUOUS
 62
    7
 10
131.46134
 20
117.09433
 11
85.623308
 21
139.99828
  0
LINE
  8
1-0
  6
CONTINUOUS
 62
    7
 10
131.86136
 20
117.17391
 11
131.76137
 21
117.22388
  0
LINE
  8
1-0
  6
CONTINUOUS
 62
    7
 10
131.46134
 20
117.37378
 11
119.14702
 21
123.5269
  0
LINE
  8
1-0
  6
CONTINUOUS
 62
    7
 10
142.54132
 20
120.89109
 11
148.25624
 21
126.60599
  0
LINE
  8
1-0
  6
CONTINUOUS
 62
    7
 10
141.55136
 20
120.89109
 11
150.05136
 21
129.39108
  0
LINE
  8
1-0
  6
CONTINUOUS
 62
    7
 10
150.81236
 20
120.89109
 11
151.11486
 21
126.39107
  0
LINE
  8
1-0
  6
CONTINUOUS
 62
    7
 10
150.11129
 20
120.89109
 11
150.41379
 21
126.39107
  0
LINE
  8
1-0
  6
CONTINUOUS
 62
    7
 10
151.16135
 20
120.74108
 11
151.16135
 21
111.89108
  0
LINE
  8
1-0
  6
CONTINUOUS
 62
    7
 10
155.79135
 20
120.89109
 11
151.31135
 21
120.89109
  0
LINE
  8
1-0
  6
CONTINUOUS
 62
    7
 10
155.94135
 20
120.74108
 11
155.94135
 21
111.89108
  0
LINE
  8
1-0
  6
CONTINUOUS
 62
    7
 10
155.64135
 20
120.59105
 11
155.89743
 21
120.84717
  0
LINE
  8
1-0
  6
CONTINUOUS
 62
    7
 10
151.46132
 20
120.59105
 11
151.23633
 21
120.81608
  0
LINE
  8
1-0
  6
CONTINUOUS
 62
    7
 10
150.76134
 20
116.49109
 11
132.16135
 21
116.49109
  0
LINE
  8
1-0
  6
CONTINUOUS
 62
    7
 10
150.76134
 20
116.79107
 11
132.16135
 21
116.79107
  0
LINE
  8
1-0
  6
CONTINUOUS
 62
    7
 10
132.62753
 20
116.79107
 11
132.16135
 21
117.02401
  0
LINE
  8
1-0
  6
CONTINUOUS
 62
    7
 10
136.58956
 20
115.9293
 11
135.46524
 21
116.49109
  0
LINE
  8
1-0
  6
CONTINUOUS
 62
    7
 10
134.86484
 20
116.79107
 11
132.16135
 21
118.14191
  0
LINE
  8
1-0
  6
CONTINUOUS
 62
    7
 10
136.77591
 20
116.11565
 11
136.02454
 21
116.49109
  0
LINE
  8
1-0
  6
CONTINUOUS
 62
    7
 10
135.42414
 20
116.79107
 11
132.16135
 21
118.42139
  0
LINE
  8
1-0
  6
CONTINUOUS
 62
    7
 10
132.8413
 20
111.19106
 11
138.14132
 21
116.49109
  0
LINE
  8
1-0
  6
CONTINUOUS
 62
    7
 10
138.44131
 20
116.79107
 11
142.2413
 21
120.59105
  0
LINE
  8
1-0
  6
CONTINUOUS
 62
    7
 10
137.45137
 20
116.79107
 11
141.25134
 21
120.59105
  0
LINE
  8
1-0
  6
CONTINUOUS
 62
    7
 10
149.57781
 20
111.19106
 11
149.8693
 21
116.49109
  0
LINE
  8
1-0
  6
CONTINUOUS
 62
    7
 10
149.8858
 20
116.79107
 11
150.09481
 21
120.59105
  0
LINE
  8
1-0
  6
CONTINUOUS
 62
    7
 10
150.27886
 20
111.19106
 11
150.57037
 21
116.49109
  0
LINE
  8
1-0
  6
CONTINUOUS
 62
    7
 10
150.58685
 20
116.79107
 11
150.76134
 21
119.96363
  0
LINE
  8
1-0
  6
CONTINUOUS
 62
    7
 10
144.45135
 20
112.69107
 11
144.45135
 21
111.69108
  0
LINE
  8
1-0
  6
CONTINUOUS
 62
    7
 10
144.45135
 20
112.69107
 11
149.65135
 21
112.69107
  0
LINE
  8
1-0
  6
CONTINUOUS
 62
    7
 10
144.45135
 20
112.57107
 11
149.65135
 21
112.57107
  0
LINE
  8
1-0
  6
CONTINUOUS
 62
    7
 10
144.65138
 20
112.69107
 11
145.28104
 21
116.1166
  0
LINE
  8
1-0
  6
CONTINUOUS
 62
    7
 10
149.45135
 20
112.69107
 11
148.82169
 21
116.1166
  0
LINE
  8
1-0
  6
CONTINUOUS
 62
    7
 10
149.65135
 20
112.69107
 11
149.65135
 21
112.57107
  0
LINE
  8
1-0
  6
CONTINUOUS
 62
    7
 10
144.45135
 20
111.81107
 11
149.61188
 21
111.81107
  0
LINE
  8
1-0
  6
CONTINUOUS
 62
    7
 10
144.45135
 20
111.69108
 11
149.60528
 21
111.69108
  0
LINE
  8
1-0
  6
CONTINUOUS
 62
    7
 10
144.75135
 20
111.62108
 11
144.75135
 21
111.69108
  0
LINE
  8
1-0
  6
CONTINUOUS
 62
    7
 10
145.61138
 20
111.57107
 11
144.80133
 21
111.57107
  0
LINE
  8
1-0
  6
CONTINUOUS
 62
    7
 10
145.66138
 20
111.52107
 11
145.66138
 21
111.19106
  0
LINE
  8
1-0
  6
CONTINUOUS
 62
    7
 10
145.75135
 20
111.69108
 11
145.75135
 21
111.19106
  0
LINE
  8
1-0
  6
CONTINUOUS
 62
    7
 10
145.07136
 20
111.98986
 11
145.07136
 21
111.81107
  0
LINE
  8
1-0
  6
CONTINUOUS
 62
    7
 10
145.07136
 20
111.98986
 11
145.09257
 21
112.01109
  0
LINE
  8
1-0
  6
CONTINUOUS
 62
    7
 10
145.41013
 20
112.01109
 11
145.09257
 21
112.01109
  0
LINE
  8
1-0
  6
CONTINUOUS
 62
    7
 10
145.43136
 20
111.98986
 11
145.43136
 21
111.81107
  0
LINE
  8
1-0
  6
CONTINUOUS
 62
    7
 10
145.41013
 20
112.01109
 11
145.43136
 21
111.98986
  0
LINE
  8
1-0
  6
CONTINUOUS
 62
    7
 10
145.07136
 20
111.98986
 11
145.43136
 21
111.98986
  0
LINE
  8
1-0
  6
CONTINUOUS
 62
    7
 10
145.25138
 20
111.81107
 11
145.25138
 21
111.98986
  0
LINE
  8
1-0
  6
CONTINUOUS
 62
    7
 10
145.14136
 20
112.03986
 11
145.16259
 21
112.06107
  0
LINE
  8
1-0
  6
CONTINUOUS
 62
    7
 10
145.34016
 20
112.06107
 11
145.16259
 21
112.06107
  0
LINE
  8
1-0
  6
CONTINUOUS
 62
    7
 10
145.34016
 20
112.06107
 11
145.36134
 21
112.03986
  0
LINE
  8
1-0
  6
CONTINUOUS
 62
    7
 10
145.14136
 20
112.03986
 11
145.14136
 21
112.01109
  0
LINE
  8
1-0
  6
CONTINUOUS
 62
    7
 10
145.36134
 20
112.03986
 11
145.36134
 21
112.01109
  0
LINE
  8
1-0
  6
CONTINUOUS
 62
    7
 10
145.16259
 20
112.06107
 11
145.16259
 21
112.01109
  0
LINE
  8
1-0
  6
CONTINUOUS
 62
    7
 10
145.34016
 20
112.06107
 11
145.34016
 21
112.01109
  0
LINE
  8
1-0
  6
CONTINUOUS
 62
    7
 10
149.35136
 20
111.62108
 11
149.35136
 21
111.69108
  0
LINE
  8
1-0
  6
CONTINUOUS
 62
    7
 10
148.49135
 20
111.57107
 11
149.30135
 21
111.57107
  0
LINE
  8
1-0
  6
CONTINUOUS
 62
    7
 10
148.44137
 20
111.52107
 11
148.44137
 21
111.19106
  0
LINE
  8
1-0
  6
CONTINUOUS
 62
    7
 10
148.35135
 20
111.69108
 11
148.35135
 21
111.19106
  0
LINE
  8
1-0
  6
CONTINUOUS
 62
    7
 10
149.03134
 20
111.98986
 11
149.03134
 21
111.81107
  0
LINE
  8
1-0
  6
CONTINUOUS
 62
    7
 10
149.03134
 20
111.98986
 11
149.01014
 21
112.01109
  0
LINE
  8
1-0
  6
CONTINUOUS
 62
    7
 10
148.69257
 20
112.01109
 11
149.01014
 21
112.01109
  0
LINE
  8
1-0
  6
CONTINUOUS
 62
    7
 10
148.67137
 20
111.98986
 11
148.67137
 21
111.81107
  0
LINE
  8
1-0
  6
CONTINUOUS
 62
    7
 10
148.69257
 20
112.01109
 11
148.67137
 21
111.98986
  0
LINE
  8
1-0
  6
CONTINUOUS
 62
    7
 10
149.03134
 20
111.98986
 11
148.67137
 21
111.98986
  0
LINE
  8
1-0
  6
CONTINUOUS
 62
    7
 10
148.85135
 20
111.81107
 11
148.85135
 21
111.98986
  0
LINE
  8
1-0
  6
CONTINUOUS
 62
    7
 10
148.96137
 20
112.03986
 11
148.94013
 21
112.06107
  0
LINE
  8
1-0
  6
CONTINUOUS
 62
    7
 10
148.76257
 20
112.06107
 11
148.94013
 21
112.06107
  0
LINE
  8
1-0
  6
CONTINUOUS
 62
    7
 10
148.76257
 20
112.06107
 11
148.74137
 21
112.03986
  0
LINE
  8
1-0
  6
CONTINUOUS
 62
    7
 10
148.96137
 20
112.03986
 11
148.96137
 21
112.01109
  0
LINE
  8
1-0
  6
CONTINUOUS
 62
    7
 10
148.74137
 20
112.03986
 11
148.74137
 21
112.01109
  0
LINE
  8
1-0
  6
CONTINUOUS
 62
    7
 10
148.94013
 20
112.06107
 11
148.94013
 21
112.01109
  0
LINE
  8
1-0
  6
CONTINUOUS
 62
    7
 10
148.76257
 20
112.06107
 11
148.76257
 21
112.01109
  0
LINE
  8
1-0
  6
CONTINUOUS
 62
    7
 10
145.25138
 20
119.69108
 11
145.25138
 21
118.69106
  0
LINE
  8
1-0
  6
CONTINUOUS
 62
    7
 10
145.87136
 20
118.98987
 11
145.87136
 21
118.81107
  0
LINE
  8
1-0
  6
CONTINUOUS
 62
    7
 10
145.87136
 20
118.98987
 11
145.89259
 21
119.01108
  0
LINE
  8
1-0
  6
CONTINUOUS
 62
    7
 10
146.21016
 20
119.01108
 11
145.89259
 21
119.01108
  0
LINE
  8
1-0
  6
CONTINUOUS
 62
    7
 10
146.23136
 20
118.98987
 11
146.23136
 21
118.81107
  0
LINE
  8
1-0
  6
CONTINUOUS
 62
    7
 10
146.21016
 20
119.01108
 11
146.23136
 21
118.98987
  0
LINE
  8
1-0
  6
CONTINUOUS
 62
    7
 10
145.87136
 20
118.98987
 11
146.23136
 21
118.98987
  0
LINE
  8
1-0
  6
CONTINUOUS
 62
    7
 10
146.05135
 20
118.81107
 11
146.05135
 21
118.98987
  0
LINE
  8
1-0
  6
CONTINUOUS
 62
    7
 10
145.94136
 20
119.03987
 11
145.96257
 21
119.06107
  0
LINE
  8
1-0
  6
CONTINUOUS
 62
    7
 10
146.14013
 20
119.06107
 11
145.96257
 21
119.06107
  0
LINE
  8
1-0
  6
CONTINUOUS
 62
    7
 10
146.14013
 20
119.06107
 11
146.16136
 21
119.03987
  0
LINE
  8
1-0
  6
CONTINUOUS
 62
    7
 10
145.94136
 20
119.03987
 11
145.94136
 21
119.01108
  0
LINE
  8
1-0
  6
CONTINUOUS
 62
    7
 10
146.16136
 20
119.03987
 11
146.16136
 21
119.01108
  0
LINE
  8
1-0
  6
CONTINUOUS
 62
    7
 10
145.96257
 20
119.06107
 11
145.96257
 21
119.01108
  0
LINE
  8
1-0
  6
CONTINUOUS
 62
    7
 10
146.14013
 20
119.06107
 11
146.14013
 21
119.01108
  0
LINE
  8
1-0
  6
CONTINUOUS
 62
    7
 10
149.83136
 20
118.98987
 11
149.83136
 21
118.81107
  0
LINE
  8
1-0
  6
CONTINUOUS
 62
    7
 10
149.83136
 20
118.98987
 11
149.81013
 21
119.01108
  0
LINE
  8
1-0
  6
CONTINUOUS
 62
    7
 10
149.49257
 20
119.01108
 11
149.81013
 21
119.01108
  0
LINE
  8
1-0
  6
CONTINUOUS
 62
    7
 10
149.47136
 20
118.98987
 11
149.47136
 21
118.81107
  0
LINE
  8
1-0
  6
CONTINUOUS
 62
    7
 10
149.49257
 20
119.01108
 11
149.47136
 21
118.98987
  0
LINE
  8
1-0
  6
CONTINUOUS
 62
    7
 10
149.83136
 20
118.98987
 11
149.47136
 21
118.98987
  0
LINE
  8
1-0
  6
CONTINUOUS
 62
    7
 10
149.65135
 20
118.81107
 11
149.65135
 21
118.98987
  0
LINE
  8
1-0
  6
CONTINUOUS
 62
    7
 10
149.76136
 20
119.03987
 11
149.74013
 21
119.06107
  0
LINE
  8
1-0
  6
CONTINUOUS
 62
    7
 10
149.56257
 20
119.06107
 11
149.74013
 21
119.06107
  0
LINE
  8
1-0
  6
CONTINUOUS
 62
    7
 10
149.56257
 20
119.06107
 11
149.54134
 21
119.03987
  0
LINE
  8
1-0
  6
CONTINUOUS
 62
    7
 10
149.76136
 20
119.03987
 11
149.76136
 21
119.01108
  0
LINE
  8
1-0
  6
CONTINUOUS
 62
    7
 10
149.54134
 20
119.03987
 11
149.54134
 21
119.01108
  0
LINE
  8
1-0
  6
CONTINUOUS
 62
    7
 10
149.74013
 20
119.06107
 11
149.74013
 21
119.01108
  0
LINE
  8
1-0
  6
CONTINUOUS
 62
    7
 10
149.56257
 20
119.06107
 11
149.56257
 21
119.01108
  0
LINE
  8
1-0
  6
CONTINUOUS
 62
    7
 10
146.65134
 20
122.79107
 11
146.65134
 21
122.19106
  0
LINE
  8
1-0
  6
CONTINUOUS
 62
    7
 10
149.05136
 20
122.79107
 11
149.05136
 21
122.19106
  0
LINE
  8
1-0
  6
CONTINUOUS
 62
    7
 10
145.45136
 20
119.69108
 11
145.6168
 21
120.59105
  0
LINE
  8
1-0
  6
CONTINUOUS
 62
    7
 10
145.67195
 20
120.89109
 11
146.08104
 21
123.11661
  0
LINE
  8
1-0
  6
CONTINUOUS
 62
    7
 10
150.03078
 20
120.89109
 11
149.62168
 21
123.11661
  0
LINE
  8
1-0
  6
CONTINUOUS
 62
    7
 10
139.34131
 20
117.69107
 11
149.93531
 21
117.69107
  0
LINE
  8
1-0
  6
CONTINUOUS
 62
    7
 10
140.34129
 20
118.69106
 11
149.99029
 21
118.69106
  0
LINE
  8
1-0
  6
CONTINUOUS
 62
    7
 10
145.25138
 20
118.81107
 11
149.9969
 21
118.81107
  0
LINE
  8
1-0
  6
CONTINUOUS
 62
    7
 10
145.25138
 20
119.57106
 11
150.03869
 21
119.57106
  0
LINE
  8
1-0
  6
CONTINUOUS
 62
    7
 10
145.25138
 20
119.69108
 11
150.0453
 21
119.69108
  0
LINE
  8
1-0
  6
CONTINUOUS
 62
    7
 10
150.09276
 20
120.55391
 11
150.0862
 21
120.58949
  0
LINE
  8
1-0
  6
CONTINUOUS
 62
    7
 10
132.21136
 20
111.55106
 11
137.15136
 21
116.49109
  0
LINE
  8
1-0
  6
CONTINUOUS
 62
    7
 10
133.91136
 20
111.19106
 11
133.91136
 21
111.99107
  0
LINE
  8
1-0
  6
CONTINUOUS
 62
    7
 10
133.91136
 20
111.99107
 11
136.71136
 21
111.99107
  0
LINE
  8
1-0
  6
CONTINUOUS
 62
    7
 10
136.71136
 20
111.19106
 11
136.71136
 21
111.99107
  0
LINE
  8
1-0
  6
CONTINUOUS
 62
    7
 10
136.71136
 20
111.84106
 11
137.60135
 21
111.84106
  0
LINE
  8
1-0
  6
CONTINUOUS
 62
    7
 10
136.57635
 20
112.94107
 11
136.57635
 21
111.99107
  0
LINE
  8
1-0
  6
CONTINUOUS
 62
    7
 10
136.48634
 20
112.94107
 11
136.48634
 21
111.99107
  0
LINE
  8
1-0
  6
CONTINUOUS
 62
    7
 10
134.30136
 20
112.65111
 11
134.30136
 21
111.99107
  0
LINE
  8
1-0
  6
CONTINUOUS
 62
    7
 10
134.36138
 20
115.29107
 11
134.36138
 21
114.59107
  0
LINE
  8
1-0
  6
CONTINUOUS
 62
    7
 10
134.66137
 20
111.99107
 11
134.66137
 21
112.19107
  0
LINE
  8
1-0
  6
CONTINUOUS
 62
    7
 10
135.96136
 20
111.99107
 11
135.96136
 21
112.19107
  0
LINE
  8
1-0
  6
CONTINUOUS
 62
    7
 10
134.41136
 20
112.49107
 11
136.21137
 21
112.49107
  0
LINE
  8
1-0
  6
CONTINUOUS
 62
    7
 10
134.41136
 20
112.19107
 11
136.21137
 21
112.19107
  0
LINE
  8
1-0
  6
CONTINUOUS
 62
    7
 10
136.21137
 20
112.74109
 11
136.25135
 21
112.74109
  0
LINE
  8
1-0
  6
CONTINUOUS
 62
    7
 10
136.21137
 20
112.44107
 11
136.25135
 21
112.44107
  0
LINE
  8
1-0
  6
CONTINUOUS
 62
    7
 10
136.21137
 20
112.6315
 11
136.21636
 21
112.6286
  0
LINE
  8
1-0
  6
CONTINUOUS
 62
    7
 10
136.21636
 20
112.55355
 11
136.21137
 21
112.55068
  0
LINE
  8
1-0
  6
CONTINUOUS
 62
    7
 10
136.21137
 20
112.94107
 11
136.57635
 21
112.94107
  0
LINE
  8
1-0
  6
CONTINUOUS
 62
    7
 10
134.41136
 20
114.59107
 11
134.41136
 21
113.75109
  0
LINE
  8
1-0
  6
CONTINUOUS
 62
    7
 10
134.41136
 20
112.76113
 11
134.41136
 21
112.19107
  0
LINE
  8
1-0
  6
CONTINUOUS
 62
    7
 10
134.51137
 20
114.59107
 11
134.51137
 21
113.8511
  0
LINE
  8
1-0
  6
CONTINUOUS
 62
    7
 10
134.51137
 20
112.86112
 11
134.51137
 21
112.49107
  0
LINE
  8
1-0
  6
CONTINUOUS
 62
    7
 10
134.61136
 20
114.59107
 11
134.61136
 21
113.95108
  0
LINE
  8
1-0
  6
CONTINUOUS
 62
    7
 10
134.61136
 20
112.96114
 11
134.61136
 21
112.49107
  0
LINE
  8
1-0
  6
CONTINUOUS
 62
    7
 10
134.71138
 20
114.59107
 11
134.71138
 21
114.0511
  0
LINE
  8
1-0
  6
CONTINUOUS
 62
    7
 10
134.71138
 20
113.06115
 11
134.71138
 21
112.49107
  0
LINE
  8
1-0
  6
CONTINUOUS
 62
    7
 10
134.81137
 20
114.59107
 11
134.81137
 21
114.15109
  0
LINE
  8
1-0
  6
CONTINUOUS
 62
    7
 10
134.81137
 20
113.16114
 11
134.81137
 21
112.49107
  0
LINE
  8
1-0
  6
CONTINUOUS
 62
    7
 10
134.91136
 20
114.59107
 11
134.91136
 21
114.25108
  0
LINE
  8
1-0
  6
CONTINUOUS
 62
    7
 10
134.91136
 20
113.26113
 11
134.91136
 21
112.49107
  0
LINE
  8
1-0
  6
CONTINUOUS
 62
    7
 10
135.01138
 20
114.59107
 11
135.01138
 21
114.35109
  0
LINE
  8
1-0
  6
CONTINUOUS
 62
    7
 10
135.01138
 20
113.36113
 11
135.01138
 21
112.49107
  0
LINE
  8
1-0
  6
CONTINUOUS
 62
    7
 10
135.21137
 20
114.59107
 11
135.21137
 21
114.55107
  0
LINE
  8
1-0
  6
CONTINUOUS
 62
    7
 10
135.11137
 20
114.59107
 11
135.11137
 21
114.45108
  0
LINE
  8
1-0
  6
CONTINUOUS
 62
    7
 10
135.11137
 20
113.46114
 11
135.11137
 21
112.49107
  0
LINE
  8
1-0
  6
CONTINUOUS
 62
    7
 10
135.21137
 20
113.56113
 11
135.21137
 21
112.49107
  0
LINE
  8
1-0
  6
CONTINUOUS
 62
    7
 10
135.31137
 20
113.66113
 11
135.31137
 21
112.49107
  0
LINE
  8
1-0
  6
CONTINUOUS
 62
    7
 10
135.41138
 20
113.76112
 11
135.41138
 21
112.49107
  0
LINE
  8
1-0
  6
CONTINUOUS
 62
    7
 10
135.51138
 20
113.86114
 11
135.51138
 21
112.49107
  0
LINE
  8
1-0
  6
CONTINUOUS
 62
    7
 10
135.61138
 20
113.96113
 11
135.61138
 21
112.49107
  0
LINE
  8
1-0
  6
CONTINUOUS
 62
    7
 10
135.71137
 20
114.06112
 11
135.71137
 21
112.49107
  0
LINE
  8
1-0
  6
CONTINUOUS
 62
    7
 10
135.81136
 20
114.16114
 11
135.81136
 21
112.49107
  0
LINE
  8
1-0
  6
CONTINUOUS
 62
    7
 10
135.91138
 20
114.26113
 11
135.91138
 21
112.49107
  0
LINE
  8
1-0
  6
CONTINUOUS
 62
    7
 10
136.01137
 20
114.36113
 11
136.01137
 21
112.49107
  0
LINE
  8
1-0
  6
CONTINUOUS
 62
    7
 10
136.11136
 20
114.46114
 11
136.11136
 21
112.49107
  0
LINE
  8
1-0
  6
CONTINUOUS
 62
    7
 10
136.21137
 20
114.56113
 11
136.21137
 21
112.19107
  0
LINE
  8
1-0
  6
CONTINUOUS
 62
    7
 10
134.36138
 20
115.29107
 11
135.95135
 21
115.29107
  0
LINE
  8
1-0
  6
CONTINUOUS
 62
    7
 10
135.07023
 20
115.29107
 11
132.66864
 21
116.49109
  0
LINE
  8
1-0
  6
CONTINUOUS
 62
    7
 10
135.62952
 20
115.29107
 11
133.22793
 21
116.49109
  0
LINE
  8
1-0
  6
CONTINUOUS
 62
    7
 10
134.36138
 20
114.59107
 11
135.25136
 21
114.59107
  0
LINE
  8
1-0
  6
CONTINUOUS
 62
    7
 10
130.85136
 20
114.89109
 11
130.85136
 21
110.69109
  0
LINE
  8
1-0
  6
CONTINUOUS
 62
    7
 10
131.35135
 20
114.89109
 11
131.35135
 21
111.19106
  0
LINE
  8
1-0
  6
CONTINUOUS
 62
    7
 10
130.85136
 20
114.89109
 11
131.35135
 21
114.89109
  0
LINE
  8
1-0
  6
CONTINUOUS
 62
    7
 10
141.26135
 20
123.6464
 11
141.26135
 21
122.6464
  0
LINE
  8
1-0
  6
CONTINUOUS
 62
    7
 10
141.26135
 20
122.6464
 11
141.35134
 21
122.6464
  0
LINE
  8
1-0
  6
CONTINUOUS
 62
    7
 10
141.35134
 20
123.6464
 11
141.35134
 21
122.6464
  0
LINE
  8
1-0
  6
CONTINUOUS
 62
    7
 10
141.26135
 20
123.6464
 11
141.35134
 21
123.6464
  0
LINE
  8
1-0
  6
CONTINUOUS
 62
    7
 10
141.45632
 20
123.60508
 11
141.42132
 21
122.68507
  0
LINE
  8
1-0
  6
CONTINUOUS
 62
    7
 10
141.38638
 20
123.60774
 11
141.35138
 21
122.68775
  0
LINE
  8
1-0
  6
CONTINUOUS
 62
    7
 10
141.60632
 20
123.60508
 11
141.57132
 21
122.68507
  0
LINE
  8
1-0
  6
CONTINUOUS
 62
    7
 10
141.53638
 20
123.60774
 11
141.50138
 21
122.68775
  0
LINE
  8
1-0
  6
CONTINUOUS
 62
    7
 10
141.45607
 20
123.61073
 11
141.51772
 21
123.11749
  0
LINE
  8
1-0
  6
CONTINUOUS
 62
    7
 10
141.50161
 20
122.68204
 11
141.4435
 21
123.147
  0
LINE
  8
1-0
  6
CONTINUOUS
 62
    7
 10
141.75631
 20
123.60508
 11
141.72131
 21
122.68507
  0
LINE
  8
1-0
  6
CONTINUOUS
 62
    7
 10
141.68637
 20
123.60774
 11
141.65137
 21
122.68775
  0
LINE
  8
1-0
  6
CONTINUOUS
 62
    7
 10
141.60607
 20
123.61073
 11
141.66772
 21
123.11749
  0
LINE
  8
1-0
  6
CONTINUOUS
 62
    7
 10
141.65161
 20
122.68204
 11
141.5935
 21
123.147
  0
LINE
  8
1-0
  6
CONTINUOUS
 62
    7
 10
141.90631
 20
123.60508
 11
141.87131
 21
122.68507
  0
LINE
  8
1-0
  6
CONTINUOUS
 62
    7
 10
141.83637
 20
123.60774
 11
141.80137
 21
122.68775
  0
LINE
  8
1-0
  6
CONTINUOUS
 62
    7
 10
141.75607
 20
123.61073
 11
141.81772
 21
123.11749
  0
LINE
  8
1-0
  6
CONTINUOUS
 62
    7
 10
141.80161
 20
122.68204
 11
141.7435
 21
123.147
  0
LINE
  8
1-0
  6
CONTINUOUS
 62
    7
 10
141.98637
 20
123.60774
 11
141.95137
 21
122.68775
  0
LINE
  8
1-0
  6
CONTINUOUS
 62
    7
 10
141.90606
 20
123.61073
 11
141.96771
 21
123.11749
  0
LINE
  8
1-0
  6
CONTINUOUS
 62
    7
 10
141.95161
 20
122.68204
 11
141.89349
 21
123.147
  0
LINE
  8
1-0
  6
CONTINUOUS
 62
    7
 10
142.20632
 20
123.60508
 11
142.17132
 21
122.68507
  0
LINE
  8
1-0
  6
CONTINUOUS
 62
    7
 10
142.13638
 20
123.60774
 11
142.10138
 21
122.68775
  0
LINE
  8
1-0
  6
CONTINUOUS
 62
    7
 10
142.05607
 20
123.61073
 11
142.11772
 21
123.11749
  0
LINE
  8
1-0
  6
CONTINUOUS
 62
    7
 10
142.10162
 20
122.68204
 11
142.0435
 21
123.147
  0
LINE
  8
1-0
  6
CONTINUOUS
 62
    7
 10
142.35632
 20
123.60508
 11
142.32132
 21
122.68507
  0
LINE
  8
1-0
  6
CONTINUOUS
 62
    7
 10
142.28638
 20
123.60774
 11
142.25138
 21
122.68775
  0
LINE
  8
1-0
  6
CONTINUOUS
 62
    7
 10
142.20607
 20
123.61073
 11
142.26772
 21
123.11749
  0
LINE
  8
1-0
  6
CONTINUOUS
 62
    7
 10
142.25161
 20
122.68204
 11
142.1935
 21
123.147
  0
LINE
  8
1-0
  6
CONTINUOUS
 62
    7
 10
142.50632
 20
123.60508
 11
142.47132
 21
122.68507
  0
LINE
  8
1-0
  6
CONTINUOUS
 62
    7
 10
142.43638
 20
123.60774
 11
142.40138
 21
122.68775
  0
LINE
  8
1-0
  6
CONTINUOUS
 62
    7
 10
142.35607
 20
123.61073
 11
142.41772
 21
123.11749
  0
LINE
  8
1-0
  6
CONTINUOUS
 62
    7
 10
142.40161
 20
122.68204
 11
142.3435
 21
123.147
  0
LINE
  8
1-0
  6
CONTINUOUS
 62
    7
 10
142.65631
 20
123.60508
 11
142.62131
 21
122.68507
  0
LINE
  8
1-0
  6
CONTINUOUS
 62
    7
 10
142.58638
 20
123.60774
 11
142.55137
 21
122.68775
  0
LINE
  8
1-0
  6
CONTINUOUS
 62
    7
 10
142.50607
 20
123.61073
 11
142.56772
 21
123.11749
  0
LINE
  8
1-0
  6
CONTINUOUS
 62
    7
 10
142.55161
 20
122.68204
 11
142.4935
 21
123.147
  0
LINE
  8
1-0
  6
CONTINUOUS
 62
    7
 10
142.80631
 20
123.60508
 11
142.77131
 21
122.68507
  0
LINE
  8
1-0
  6
CONTINUOUS
 62
    7
 10
142.73637
 20
123.60774
 11
142.70137
 21
122.68775
  0
LINE
  8
1-0
  6
CONTINUOUS
 62
    7
 10
142.65607
 20
123.61073
 11
142.71772
 21
123.11749
  0
LINE
  8
1-0
  6
CONTINUOUS
 62
    7
 10
142.70161
 20
122.68204
 11
142.6435
 21
123.147
  0
LINE
  8
1-0
  6
CONTINUOUS
 62
    7
 10
142.95631
 20
123.60508
 11
142.92131
 21
122.68507
  0
LINE
  8
1-0
  6
CONTINUOUS
 62
    7
 10
142.80606
 20
123.61073
 11
142.86771
 21
123.11749
  0
LINE
  8
1-0
  6
CONTINUOUS
 62
    7
 10
142.85161
 20
122.68204
 11
142.79349
 21
123.147
  0
LINE
  8
1-0
  6
CONTINUOUS
 62
    7
 10
143.10632
 20
123.60508
 11
143.07132
 21
122.68507
  0
LINE
  8
1-0
  6
CONTINUOUS
 62
    7
 10
143.03638
 20
123.60774
 11
143.00138
 21
122.68775
  0
LINE
  8
1-0
  6
CONTINUOUS
 62
    7
 10
142.95607
 20
123.61073
 11
143.01772
 21
123.11749
  0
LINE
  8
1-0
  6
CONTINUOUS
 62
    7
 10
143.00162
 20
122.68204
 11
142.94351
 21
123.147
  0
LINE
  8
1-0
  6
CONTINUOUS
 62
    7
 10
143.25632
 20
123.60508
 11
143.22132
 21
122.68507
  0
LINE
  8
1-0
  6
CONTINUOUS
 62
    7
 10
143.18638
 20
123.60774
 11
143.15138
 21
122.68775
  0
LINE
  8
1-0
  6
CONTINUOUS
 62
    7
 10
143.10607
 20
123.61073
 11
143.16772
 21
123.11749
  0
LINE
  8
1-0
  6
CONTINUOUS
 62
    7
 10
143.15161
 20
122.68204
 11
143.0935
 21
123.147
  0
LINE
  8
1-0
  6
CONTINUOUS
 62
    7
 10
143.33638
 20
123.60774
 11
143.30138
 21
122.68775
  0
LINE
  8
1-0
  6
CONTINUOUS
 62
    7
 10
143.25607
 20
123.61073
 11
143.31772
 21
123.11749
  0
LINE
  8
1-0
  6
CONTINUOUS
 62
    7
 10
143.30161
 20
122.68204
 11
143.2435
 21
123.147
  0
LINE
  8
1-0
  6
CONTINUOUS
 62
    7
 10
143.40607
 20
123.61073
 11
143.46772
 21
123.11749
  0
LINE
  8
1-0
  6
CONTINUOUS
 62
    7
 10
143.55607
 20
123.61073
 11
143.6177
 21
123.11749
  0
LINE
  8
1-0
  6
CONTINUOUS
 62
    7
 10
143.70607
 20
123.61073
 11
143.7677
 21
123.11749
  0
LINE
  8
1-0
  6
CONTINUOUS
 62
    7
 10
142.05631
 20
123.60508
 11
142.02131
 21
122.68507
  0
LINE
  8
1-0
  6
CONTINUOUS
 62
    7
 10
142.88637
 20
123.60774
 11
142.84959
 21
122.64096
  0
LINE
  8
1-0
  6
CONTINUOUS
 62
    7
 10
144.23638
 20
123.60774
 11
144.23514
 21
123.57484
  0
LINE
  8
1-0
  6
CONTINUOUS
 62
    7
 10
144.15606
 20
123.61073
 11
144.16883
 21
123.50857
  0
LINE
  8
1-0
  6
CONTINUOUS
 62
    7
 10
144.15631
 20
123.60508
 11
144.152
 21
123.49172
  0
LINE
  8
1-0
  6
CONTINUOUS
 62
    7
 10
144.08638
 20
123.60774
 11
144.0792
 21
123.41892
  0
LINE
  8
1-0
  6
CONTINUOUS
 62
    7
 10
144.00606
 20
123.61073
 11
144.03551
 21
123.37522
  0
LINE
  8
1-0
  6
CONTINUOUS
 62
    7
 10
144.00631
 20
123.60508
 11
143.99606
 21
123.33578
  0
LINE
  8
1-0
  6
CONTINUOUS
 62
    7
 10
143.93638
 20
123.60774
 11
143.92327
 21
123.263
  0
LINE
  8
1-0
  6
CONTINUOUS
 62
    7
 10
143.85606
 20
123.61073
 11
143.90216
 21
123.24189
  0
LINE
  8
1-0
  6
CONTINUOUS
 62
    7
 10
143.85631
 20
123.60508
 11
143.84013
 21
123.17986
  0
LINE
  8
1-0
  6
CONTINUOUS
 62
    7
 10
143.78636
 20
123.60774
 11
143.7677
 21
123.11749
  0
LINE
  8
1-0
  6
CONTINUOUS
 62
    7
 10
143.70614
 20
123.04584
 11
143.6935
 21
123.147
  0
LINE
  8
1-0
  6
CONTINUOUS
 62
    7
 10
143.70631
 20
123.60508
 11
143.68508
 21
123.04666
  0
LINE
  8
1-0
  6
CONTINUOUS
 62
    7
 10
143.56864
 20
122.94577
 11
143.5435
 21
123.147
  0
LINE
  8
1-0
  6
CONTINUOUS
 62
    7
 10
143.63639
 20
123.60774
 11
143.61139
 21
122.95111
  0
LINE
  8
1-0
  6
CONTINUOUS
 62
    7
 10
143.55631
 20
123.60508
 11
143.52825
 21
122.86799
  0
LINE
  8
1-0
  6
CONTINUOUS
 62
    7
 10
143.43775
 20
122.79297
 11
143.3935
 21
123.147
  0
LINE
  8
1-0
  6
CONTINUOUS
 62
    7
 10
143.48638
 20
123.60774
 11
143.45546
 21
122.79517
  0
LINE
  8
1-0
  6
CONTINUOUS
 62
    7
 10
143.40632
 20
123.60508
 11
143.37234
 21
122.71206
  0
LINE
  8
1-0
  6
CONTINUOUS
 62
    7
 10
63.116132
 20
153.30114
 11
151.61711
 21
131.78422
  0
LINE
  8
1-0
  6
CONTINUOUS
 62
    7
 10
151.08222
 20
129.59873
 11
82.082543
 21
146.59908
  0
LINE
  8
1-0
  6
CONTINUOUS
 62
    7
 10
82.558048
 20
148.54359
 11
151.61667
 21
131.78435
  0
LINE
  8
1-0
  6
CONTINUOUS
 62
    7
 10
61.711367
 20
136.12161
 11
61.711367
 21
139.32163
  0
LINE
  8
1-0
  6
CONTINUOUS
 62
    7
 10
60.991317
 20
139.32163
 11
60.991317
 21
136.12161
  0
LINE
  8
1-0
  6
CONTINUOUS
 62
    7
 10
60.991317
 20
139.32163
 11
60.751356
 21
139.32163
  0
LINE
  8
1-0
  6
CONTINUOUS
 62
    7
 10
60.751356
 20
139.32163
 11
60.751356
 21
136.12161
  0
LINE
  8
1-0
  6
CONTINUOUS
 62
    7
 10
60.751356
 20
136.12161
 11
61.951371
 21
136.12161
  0
LINE
  8
1-0
  6
CONTINUOUS
 62
    7
 10
61.951371
 20
136.12161
 11
61.951371
 21
139.32163
  0
LINE
  8
1-0
  6
CONTINUOUS
 62
    7
 10
61.951371
 20
139.32163
 11
61.711367
 21
139.32163
  0
LINE
  8
1-0
  6
CONTINUOUS
 62
    7
 10
60.751356
 20
138.80914
 11
60.647289
 21
138.80914
  0
LINE
  8
1-0
  6
CONTINUOUS
 62
    7
 10
60.647289
 20
138.80914
 11
60.647289
 21
139.02341
  0
LINE
  8
1-0
  6
CONTINUOUS
 62
    7
 10
60.647289
 20
139.02341
 11
60.751356
 21
139.02341
  0
LINE
  8
1-0
  6
CONTINUOUS
 62
    7
 10
60.991317
 20
139.02341
 11
61.711367
 21
139.02341
  0
LINE
  8
1-0
  6
CONTINUOUS
 62
    7
 10
61.951371
 20
139.02341
 11
62.05542
 21
139.02341
  0
LINE
  8
1-0
  6
CONTINUOUS
 62
    7
 10
62.05542
 20
139.02341
 11
62.05542
 21
138.80914
  0
LINE
  8
1-0
  6
CONTINUOUS
 62
    7
 10
62.05542
 20
138.80914
 11
61.951371
 21
138.80914
  0
LINE
  8
1-0
  6
CONTINUOUS
 62
    7
 10
61.711367
 20
138.80914
 11
60.991317
 21
138.80914
  0
LINE
  8
1-0
  6
CONTINUOUS
 62
    7
 10
60.751356
 20
136.92879
 11
60.647289
 21
136.92879
  0
LINE
  8
1-0
  6
CONTINUOUS
 62
    7
 10
60.647289
 20
136.92879
 11
60.647289
 21
136.7145
  0
LINE
  8
1-0
  6
CONTINUOUS
 62
    7
 10
60.647289
 20
136.7145
 11
60.751356
 21
136.7145
  0
LINE
  8
1-0
  6
CONTINUOUS
 62
    7
 10
61.711367
 20
136.92879
 11
60.991317
 21
136.92879
  0
LINE
  8
1-0
  6
CONTINUOUS
 62
    7
 10
60.991317
 20
136.7145
 11
61.711367
 21
136.7145
  0
LINE
  8
1-0
  6
CONTINUOUS
 62
    7
 10
61.951371
 20
136.7145
 11
62.05542
 21
136.7145
  0
LINE
  8
1-0
  6
CONTINUOUS
 62
    7
 10
62.05542
 20
136.7145
 11
62.05542
 21
136.92879
  0
LINE
  8
1-0
  6
CONTINUOUS
 62
    7
 10
62.05542
 20
136.92879
 11
61.951371
 21
136.92879
  0
LINE
  8
1-0
  6
CONTINUOUS
 62
    7
 10
61.171503
 20
135.21737
 11
61.531181
 21
135.21737
  0
LINE
  8
1-0
  6
CONTINUOUS
 62
    7
 10
61.222896
 20
134.75357
 11
61.171503
 21
135.21737
  0
LINE
  8
1-0
  6
CONTINUOUS
 62
    7
 10
61.531181
 20
135.21737
 11
61.479819
 21
134.75357
  0
LINE
  8
1-0
  6
CONTINUOUS
 62
    7
 10
61.531181
 20
135.21737
 11
61.531181
 21
136.55357
  0
LINE
  8
1-0
  6
CONTINUOUS
 62
    7
 10
61.531181
 20
136.55357
 11
61.171503
 21
136.55357
  0
LINE
  8
1-0
  6
CONTINUOUS
 62
    7
 10
61.171503
 20
136.55357
 11
61.171503
 21
135.21737
  0
LINE
  8
1-0
  6
CONTINUOUS
 62
    7
 10
61.222896
 20
134.75357
 11
61.479819
 21
134.75357
  0
LINE
  8
1-0
  6
CONTINUOUS
 62
    7
 10
60.851347
 20
142.29464
 11
61.851369
 21
142.29464
  0
LINE
  8
1-0
  6
CONTINUOUS
 62
    7
 10
60.851347
 20
142.29464
 11
60.851347
 21
141.29467
  0
LINE
  8
1-0
  6
CONTINUOUS
 62
    7
 10
60.851347
 20
141.29467
 11
61.851369
 21
141.29467
  0
LINE
  8
1-0
  6
CONTINUOUS
 62
    7
 10
61.851369
 20
142.29464
 11
61.851369
 21
141.29467
  0
LINE
  8
1-0
  6
CONTINUOUS
 62
    7
 10
61.851369
 20
142.29464
 11
66.203612
 21
149.14276
  0
LINE
  8
1-0
  6
CONTINUOUS
 62
    7
 10
61.351342
 20
142.29464
 11
61.351342
 21
151.9936
  0
LINE
  8
1-0
  6
CONTINUOUS
 62
    7
 10
61.351342
 20
136.92879
 11
61.351342
 21
141.29467
  0
LINE
  8
1-0
  6
CONTINUOUS
 62
    7
 10
85.882922
 20
141.98995
 11
85.882922
 21
140.13363
  0
LINE
  8
1-0
  6
CONTINUOUS
 62
    7
 10
131.35135
 20
113.33108
 11
131.46134
 21
113.33108
  0
LINE
  8
1-0
  6
CONTINUOUS
 62
    7
 10
131.76137
 20
113.33108
 11
131.86136
 21
113.33108
  0
LINE
  8
1-0
  6
CONTINUOUS
 62
    7
 10
132.16135
 20
113.83107
 11
133.67634
 21
113.83107
  0
LINE
  8
1-0
  6
CONTINUOUS
 62
    7
 10
131.76137
 20
113.83107
 11
131.86136
 21
113.83107
  0
LINE
  8
1-0
  6
CONTINUOUS
 62
    7
 10
129.02635
 20
113.83107
 11
130.85136
 21
113.83107
  0
LINE
  8
1-0
  6
CONTINUOUS
 62
    7
 10
131.35135
 20
113.83107
 11
131.46134
 21
113.83107
  0
LINE
  8
1-0
  6
CONTINUOUS
 62
    7
 10
133.13134
 20
111.48111
 11
133.13134
 21
111.1963
  0
LINE
  8
1-0
  6
CONTINUOUS
 62
    7
 10
133.13134
 20
98.421069
 11
133.13134
 21
98.296074
  0
LINE
  8
1-0
  6
CONTINUOUS
 62
    7
 10
132.86135
 20
98.421069
 11
132.86135
 21
98.296074
  0
LINE
  8
1-0
  6
CONTINUOUS
 62
    7
 10
132.26134
 20
98.421069
 11
132.26134
 21
98.296074
  0
LINE
  8
1-0
  6
CONTINUOUS
 62
    7
 10
130.44135
 20
98.421069
 11
130.44135
 21
98.296074
  0
LINE
  8
1-0
  6
CONTINUOUS
 62
    7
 10
129.84134
 20
98.421069
 11
129.84134
 21
98.296074
  0
LINE
  8
1-0
  6
CONTINUOUS
 62
    7
 10
129.57135
 20
98.421069
 11
129.57135
 21
98.296074
  0
LINE
  8
1-0
  6
CONTINUOUS
 62
    7
 10
132.16135
 20
120.59105
 11
132.16135
 21
111.89108
  0
LINE
  8
1-0
  6
CENTER1
 62
    2
 10
131.35135
 20
50.513512
 11
131.35135
 21
132.90203
  0
LINE
  8
1-0
  6
CONTINUOUS
 62
    7
 10
129.57135
 20
84.431081
 11
129.57135
 21
93.421089
  0
LINE
  8
1-0
  6
CONTINUOUS
 62
    7
 10
129.57135
 20
93.92106
 11
129.57135
 21
97.946083
  0
LINE
  8
1-0
  6
CONTINUOUS
 62
    7
 10
129.57135
 20
98.296074
 11
129.57135
 21
98.421069
  0
LINE
  8
1-0
  6
CONTINUOUS
 62
    7
 10
129.84134
 20
83.831077
 11
129.84134
 21
93.421089
  0
LINE
  8
1-0
  6
CONTINUOUS
 62
    7
 10
129.84134
 20
93.92106
 11
129.84134
 21
97.946083
  0
LINE
  8
1-0
  6
CONTINUOUS
 62
    7
 10
129.84134
 20
98.296074
 11
129.84134
 21
98.421069
  0
LINE
  8
1-0
  6
CONTINUOUS
 62
    7
 10
130.44135
 20
84.431081
 11
130.44135
 21
93.421089
  0
LINE
  8
1-0
  6
CONTINUOUS
 62
    7
 10
130.44135
 20
93.92106
 11
130.44135
 21
97.946083
  0
LINE
  8
1-0
  6
CONTINUOUS
 62
    7
 10
130.44135
 20
98.296074
 11
130.44135
 21
98.421069
  0
LINE
  8
1-0
  6
CONTINUOUS
 62
    7
 10
132.26134
 20
84.431081
 11
132.26134
 21
93.421089
  0
LINE
  8
1-0
  6
CONTINUOUS
 62
    7
 10
132.26134
 20
93.92106
 11
132.26134
 21
97.946083
  0
LINE
  8
1-0
  6
CONTINUOUS
 62
    7
 10
132.26134
 20
98.296074
 11
132.26134
 21
98.421069
  0
LINE
  8
1-0
  6
CONTINUOUS
 62
    7
 10
132.86135
 20
83.831077
 11
132.86135
 21
93.421089
  0
LINE
  8
1-0
  6
CONTINUOUS
 62
    7
 10
132.86135
 20
93.92106
 11
132.86135
 21
97.946083
  0
LINE
  8
1-0
  6
CONTINUOUS
 62
    7
 10
132.86135
 20
98.296074
 11
132.86135
 21
98.421069
  0
LINE
  8
1-0
  6
CONTINUOUS
 62
    7
 10
133.13134
 20
84.431081
 11
133.13134
 21
93.421089
  0
LINE
  8
1-0
  6
CONTINUOUS
 62
    7
 10
133.13134
 20
93.92106
 11
133.13134
 21
97.946083
  0
LINE
  8
1-0
  6
CONTINUOUS
 62
    7
 10
133.13134
 20
98.296074
 11
133.13134
 21
98.421069
  0
LINE
  8
1-0
  6
CONTINUOUS
 62
    7
 10
129.57135
 20
110.69107
 11
129.57135
 21
113.23108
  0
LINE
  8
1-0
  6
CONTINUOUS
 62
    7
 10
129.84134
 20
110.69107
 11
129.84134
 21
113.83107
  0
LINE
  8
1-0
  6
CONTINUOUS
 62
    7
 10
130.44135
 20
110.69107
 11
130.44135
 21
113.23108
  0
LINE
  8
1-0
  6
CONTINUOUS
 62
    7
 10
132.26134
 20
111.60106
 11
132.26134
 21
113.23108
  0
LINE
  8
1-0
  6
CONTINUOUS
 62
    7
 10
133.13134
 20
112.47106
 11
133.13134
 21
113.23108
  0
LINE
  8
1-0
  6
CONTINUOUS
 62
    7
 10
132.26134
 20
113.23108
 11
132.26134
 21
111.60106
  0
LINE
  8
1-0
  6
CONTINUOUS
 62
    7
 10
132.16135
 20
113.23108
 11
132.54109
 21
113.23108
  0
LINE
  8
1-0
  6
CONTINUOUS
 62
    7
 10
132.16135
 20
113.83107
 11
133.67634
 21
113.83107
  0
LINE
  8
1-0
  6
CONTINUOUS
 62
    7
 10
131.76137
 20
113.83107
 11
131.86136
 21
113.83107
  0
LINE
  8
1-0
  6
CONTINUOUS
 62
    7
 10
129.02635
 20
113.83107
 11
130.85136
 21
113.83107
  0
LINE
  8
1-0
  6
CONTINUOUS
 62
    7
 10
131.35135
 20
113.83107
 11
131.46134
 21
113.83107
  0
LINE
  8
1-0
  6
CONTINUOUS
 62
    7
 10
130.16161
 20
113.23108
 11
130.85136
 21
113.23108
  0
LINE
  8
1-0
  6
CONTINUOUS
 62
    7
 10
131.35135
 20
113.23108
 11
131.46134
 21
113.23108
  0
LINE
  8
1-0
  6
CONTINUOUS
 62
    7
 10
132.86135
 20
112.20106
 11
132.86135
 21
113.83107
  0
LINE
  8
1-0
  6
CONTINUOUS
 62
    7
 10
129.02635
 20
113.83107
 11
130.85136
 21
113.83107
  0
LINE
  8
1-0
  6
CONTINUOUS
 62
    7
 10
131.35135
 20
113.83107
 11
131.46134
 21
113.83107
  0
LINE
  8
1-0
  6
CONTINUOUS
 62
    7
 10
131.76137
 20
113.83107
 11
131.86136
 21
113.83107
  0
LINE
  8
1-0
  6
CONTINUOUS
 62
    7
 10
132.16135
 20
113.83107
 11
133.67634
 21
113.83107
  0
LINE
  8
1-0
  6
CONTINUOUS
 62
    7
 10
129.63134
 20
53.93108
 11
129.97135
 21
53.93108
  0
LINE
  8
1-0
  6
CONTINUOUS
 62
    7
 10
129.63134
 20
83.731074
 11
129.63134
 21
53.93108
  0
LINE
  8
1-0
  6
CONTINUOUS
 62
    7
 10
129.63134
 20
83.731074
 11
129.97135
 21
83.731074
  0
LINE
  8
1-0
  6
CONTINUOUS
 62
    7
 10
129.97135
 20
83.731074
 11
129.97135
 21
53.93108
  0
LINE
  8
1-0
  6
CONTINUOUS
 62
    7
 10
129.84134
 20
83.731074
 11
129.84134
 21
83.831089
  0
LINE
  8
1-0
  6
CONTINUOUS
 62
    7
 10
129.52134
 20
54.581079
 11
129.63134
 21
54.581079
  0
LINE
  8
1-0
  6
CONTINUOUS
 62
    7
 10
129.97135
 20
54.581079
 11
133.18135
 21
54.581079
  0
LINE
  8
1-0
  6
CONTINUOUS
 62
    7
 10
129.02635
 20
54.431081
 11
129.63134
 21
54.431081
  0
LINE
  8
1-0
  6
CONTINUOUS
 62
    7
 10
129.02635
 20
83.231085
 11
129.63134
 21
83.231085
  0
LINE
  8
1-0
  6
CONTINUOUS
 62
    7
 10
133.07135
 20
53.93108
 11
132.73134
 21
53.93108
  0
LINE
  8
1-0
  6
CONTINUOUS
 62
    7
 10
133.07135
 20
83.731074
 11
133.07135
 21
53.93108
  0
LINE
  8
1-0
  6
CONTINUOUS
 62
    7
 10
133.07135
 20
83.731074
 11
132.73134
 21
83.731074
  0
LINE
  8
1-0
  6
CONTINUOUS
 62
    7
 10
132.73134
 20
83.731074
 11
132.73134
 21
53.93108
  0
LINE
  8
1-0
  6
CONTINUOUS
 62
    7
 10
129.97135
 20
82.201079
 11
132.73134
 21
82.201079
  0
LINE
  8
1-0
  6
CONTINUOUS
 62
    7
 10
129.97135
 20
81.861084
 11
132.73134
 21
81.861084
  0
LINE
  8
1-0
  6
CONTINUOUS
 62
    7
 10
132.86135
 20
83.731074
 11
132.86135
 21
83.831089
  0
LINE
  8
1-0
  6
CONTINUOUS
 62
    7
 10
133.07135
 20
83.231085
 11
133.67634
 21
83.231085
  0
LINE
  8
1-0
  6
CONTINUOUS
 62
    7
 10
133.67634
 20
83.231085
 11
133.07135
 21
83.231085
  0
LINE
  8
1-0
  6
CONTINUOUS
 62
    7
 10
130.44135
 20
82.201079
 11
130.44135
 21
83.231085
  0
LINE
  8
1-0
  6
CONTINUOUS
 62
    7
 10
132.26134
 20
82.201079
 11
132.26134
 21
83.231085
  0
LINE
  8
1-0
  6
CONTINUOUS
 62
    7
 10
129.97135
 20
78.901073
 11
132.73134
 21
78.901073
  0
LINE
  8
1-0
  6
CONTINUOUS
 62
    7
 10
129.97135
 20
78.561079
 11
132.73134
 21
78.561079
  0
LINE
  8
1-0
  6
CONTINUOUS
 62
    7
 10
129.97135
 20
75.601074
 11
132.73134
 21
75.601074
  0
LINE
  8
1-0
  6
CONTINUOUS
 62
    7
 10
129.97135
 20
75.261079
 11
132.73134
 21
75.261079
  0
LINE
  8
1-0
  6
CONTINUOUS
 62
    7
 10
129.97135
 20
72.301074
 11
132.73134
 21
72.301074
  0
LINE
  8
1-0
  6
CONTINUOUS
 62
    7
 10
129.97135
 20
71.961079
 11
132.73134
 21
71.961079
  0
LINE
  8
1-0
  6
CONTINUOUS
 62
    7
 10
129.97135
 20
69.00108
 11
132.73134
 21
69.00108
  0
LINE
  8
1-0
  6
CONTINUOUS
 62
    7
 10
129.97135
 20
68.661079
 11
132.73134
 21
68.661079
  0
LINE
  8
1-0
  6
CONTINUOUS
 62
    7
 10
129.97135
 20
65.701074
 11
132.73134
 21
65.701074
  0
LINE
  8
1-0
  6
CONTINUOUS
 62
    7
 10
129.97135
 20
65.36108
 11
132.73134
 21
65.36108
  0
LINE
  8
1-0
  6
CONTINUOUS
 62
    7
 10
129.97135
 20
62.401081
 11
132.73134
 21
62.401081
  0
LINE
  8
1-0
  6
CONTINUOUS
 62
    7
 10
129.97135
 20
62.061086
 11
132.73134
 21
62.061086
  0
LINE
  8
1-0
  6
CONTINUOUS
 62
    7
 10
129.97135
 20
59.101075
 11
132.73134
 21
59.101075
  0
LINE
  8
1-0
  6
CONTINUOUS
 62
    7
 10
129.97135
 20
58.76108
 11
132.73134
 21
58.76108
  0
LINE
  8
1-0
  6
CONTINUOUS
 62
    7
 10
129.97135
 20
55.801075
 11
132.73134
 21
55.801075
  0
LINE
  8
1-0
  6
CONTINUOUS
 62
    7
 10
129.97135
 20
55.461087
 11
132.73134
 21
55.461087
  0
LINE
  8
1-0
  6
CONTINUOUS
 62
    7
 10
130.44135
 20
54.431081
 11
130.44135
 21
55.461087
  0
LINE
  8
1-0
  6
CONTINUOUS
 62
    7
 10
132.26134
 20
54.431081
 11
132.26134
 21
55.461087
  0
LINE
  8
1-0
  6
CONTINUOUS
 62
    7
 10
132.26134
 20
55.801075
 11
132.26134
 21
58.76108
  0
LINE
  8
1-0
  6
CONTINUOUS
 62
    7
 10
130.44135
 20
55.801075
 11
130.44135
 21
58.76108
  0
LINE
  8
1-0
  6
CONTINUOUS
 62
    7
 10
130.44135
 20
59.101075
 11
130.44135
 21
62.061086
  0
LINE
  8
1-0
  6
CONTINUOUS
 62
    7
 10
130.44135
 20
62.401081
 11
130.44135
 21
65.36108
  0
LINE
  8
1-0
  6
CONTINUOUS
 62
    7
 10
130.44135
 20
65.701074
 11
130.44135
 21
68.661079
  0
LINE
  8
1-0
  6
CONTINUOUS
 62
    7
 10
130.44135
 20
69.00108
 11
130.44135
 21
71.961079
  0
LINE
  8
1-0
  6
CONTINUOUS
 62
    7
 10
130.44135
 20
72.301074
 11
130.44135
 21
74.762024
  0
LINE
  8
1-0
  6
CONTINUOUS
 62
    7
 10
130.44135
 20
74.241076
 11
130.44135
 21
75.261079
  0
LINE
  8
1-0
  6
CONTINUOUS
 62
    7
 10
132.26134
 20
72.301074
 11
132.26134
 21
74.45797
  0
LINE
  8
1-0
  6
CONTINUOUS
 62
    7
 10
132.26134
 20
69.00108
 11
132.26134
 21
71.961079
  0
LINE
  8
1-0
  6
CONTINUOUS
 62
    7
 10
132.26134
 20
65.701074
 11
132.26134
 21
68.661079
  0
LINE
  8
1-0
  6
CONTINUOUS
 62
    7
 10
132.26134
 20
59.101075
 11
132.26134
 21
62.061086
  0
LINE
  8
1-0
  6
CONTINUOUS
 62
    7
 10
132.26134
 20
62.401081
 11
132.26134
 21
65.36108
  0
LINE
  8
1-0
  6
CONTINUOUS
 62
    7
 10
132.26134
 20
74.241076
 11
132.26134
 21
75.261079
  0
LINE
  8
1-0
  6
CONTINUOUS
 62
    7
 10
130.44135
 20
75.601074
 11
130.44135
 21
78.561079
  0
LINE
  8
1-0
  6
CONTINUOUS
 62
    7
 10
130.44135
 20
78.901073
 11
130.44135
 21
81.861084
  0
LINE
  8
1-0
  6
CONTINUOUS
 62
    7
 10
132.26134
 20
75.601074
 11
132.26134
 21
78.561079
  0
LINE
  8
1-0
  6
CONTINUOUS
 62
    7
 10
132.26134
 20
78.901073
 11
132.26134
 21
81.861084
  0
LINE
  8
1-0
  6
CONTINUOUS
 62
    7
 10
130.85134
 20
75.831087
 11
130.85134
 21
75.601074
  0
LINE
  8
1-0
  6
CONTINUOUS
 62
    7
 10
130.85134
 20
75.261079
 11
130.85134
 21
75.13108
  0
LINE
  8
1-0
  6
CONTINUOUS
 62
    7
 10
130.97135
 20
75.831087
 11
130.97135
 21
75.601074
  0
LINE
  8
1-0
  6
CONTINUOUS
 62
    7
 10
130.97135
 20
75.261079
 11
130.97135
 21
75.13108
  0
LINE
  8
1-0
  6
CONTINUOUS
 62
    7
 10
131.73134
 20
75.831087
 11
131.73134
 21
75.601074
  0
LINE
  8
1-0
  6
CONTINUOUS
 62
    7
 10
131.73134
 20
75.261079
 11
131.73134
 21
75.13108
  0
LINE
  8
1-0
  6
CONTINUOUS
 62
    7
 10
131.85135
 20
75.831087
 11
131.85135
 21
75.601074
  0
LINE
  8
1-0
  6
CONTINUOUS
 62
    7
 10
131.85135
 20
75.261079
 11
131.85135
 21
75.13108
  0
LINE
  8
1-0
  6
CONTINUOUS
 62
    7
 10
85.435749
 20
141.76883
 11
63.464423
 21
152.74731
  0
LINE
  8
1-0
  6
CENTER2
 62
    2
 10
131.35135
 20
201.89189
 11
131.35135
 21
48.816075
  0
LINE
  8
1-0
  6
CONTINUOUS
 62
    7
 10
131.35135
 20
207.19189
 11
150.35135
 21
207.19189
  0
LINE
  8
1-0
  6
CONTINUOUS
 62
    7
 10
150.35135
 20
196.5919
 11
150.35135
 21
207.19189
  0
LINE
  8
1-0
  6
CONTINUOUS
 62
    7
 10
131.35135
 20
196.5919
 11
150.35135
 21
196.5919
  0
LINE
  8
1-0
  6
CONTINUOUS
 62
    7
 10
151.05134
 20
191.39189
 11
156.05134
 21
191.39189
  0
LINE
  8
1-0
  6
CONTINUOUS
 62
    7
 10
151.05134
 20
207.19189
 11
156.05134
 21
207.19189
  0
LINE
  8
1-0
  6
CONTINUOUS
 62
    7
 10
156.05134
 20
191.39189
 11
156.05134
 21
207.19189
  0
LINE
  8
1-0
  6
CONTINUOUS
 62
    7
 10
151.05134
 20
191.39189
 11
131.35135
 21
191.39189
  0
LINE
  8
1-0
  6
CONTINUOUS
 62
    7
 10
134.44974
 20
197.59188
 11
150.35135
 21
197.59188
  0
LINE
  8
1-0
  6
CONTINUOUS
 62
    7
 10
129.69878
 20
205.76397
 11
130.20013
 21
204.55361
  0
LINE
  8
1-0
  6
CONTINUOUS
 62
    7
 10
129.78192
 20
205.79842
 11
130.28327
 21
204.58803
  0
LINE
  8
1-0
  6
CONTINUOUS
 62
    7
 10
128.34279
 20
204.83682
 11
129.26918
 21
203.91043
  0
LINE
  8
1-0
  6
CONTINUOUS
 62
    7
 10
128.40642
 20
204.90044
 11
129.33281
 21
203.97408
  0
LINE
  8
1-0
  6
CONTINUOUS
 62
    7
 10
128.40642
 20
198.88331
 11
129.33281
 21
199.8097
  0
LINE
  8
1-0
  6
CONTINUOUS
 62
    7
 10
128.34279
 20
198.94696
 11
129.26918
 21
199.87336
  0
LINE
  8
1-0
  6
CONTINUOUS
 62
    7
 10
129.78192
 20
197.98537
 11
130.28327
 21
199.19573
  0
LINE
  8
1-0
  6
CONTINUOUS
 62
    7
 10
129.69878
 20
198.01981
 11
130.20013
 21
199.23018
  0
LINE
  8
1-0
  6
CONTINUOUS
 62
    7
 10
133.00393
 20
198.01981
 11
132.50257
 21
199.23018
  0
LINE
  8
1-0
  6
CONTINUOUS
 62
    7
 10
132.92079
 20
197.98537
 11
132.41943
 21
199.19573
  0
LINE
  8
1-0
  6
CONTINUOUS
 62
    7
 10
134.29629
 20
204.90044
 11
133.3699
 21
203.97408
  0
LINE
  8
1-0
  6
CONTINUOUS
 62
    7
 10
134.35992
 20
204.83682
 11
133.43353
 21
203.91043
  0
LINE
  8
1-0
  6
CONTINUOUS
 62
    7
 10
132.92079
 20
205.79842
 11
132.41943
 21
204.58803
  0
LINE
  8
1-0
  6
CONTINUOUS
 62
    7
 10
133.00393
 20
205.76397
 11
132.50257
 21
204.55361
  0
LINE
  8
1-0
  6
CENTER2
 62
    2
 10
130.85136
 20
205.3919
 11
131.35135
 21
205.3919
  0
LINE
  8
1-0
  6
CONTINUOUS
 62
    7
 10
130.65135
 20
205.0919
 11
130.65135
 21
205.8919
  0
LINE
  8
1-0
  6
CONTINUOUS
 62
    7
 10
130.65135
 20
205.8919
 11
131.55135
 21
205.8919
  0
LINE
  8
1-0
  6
CONTINUOUS
 62
    7
 10
131.55135
 20
205.0919
 11
131.55135
 21
205.8919
  0
LINE
  8
1-0
  6
CONTINUOUS
 62
    7
 10
130.65135
 20
205.0919
 11
130.85136
 21
205.0919
  0
LINE
  8
1-0
  6
CONTINUOUS
 62
    7
 10
131.35135
 20
205.0919
 11
131.55135
 21
205.0919
  0
LINE
  8
1-0
  6
CONTINUOUS
 62
    7
 10
130.50135
 20
205.18688
 11
130.50135
 21
205.59689
  0
LINE
  8
1-0
  6
CONTINUOUS
 62
    7
 10
130.50135
 20
205.3919
 11
130.65281
 21
205.3919
  0
LINE
  8
1-0
  6
CONTINUOUS
 62
    7
 10
131.55135
 20
205.3919
 11
131.75136
 21
205.3919
  0
LINE
  8
1-0
  6
CONTINUOUS
 62
    7
 10
131.75136
 20
205.18688
 11
131.75136
 21
205.59689
  0
LINE
  8
1-0
  6
CONTINUOUS
 62
    7
 10
131.75689
 20
205.51189
 11
131.95134
 21
205.51189
  0
LINE
  8
1-0
  6
CONTINUOUS
 62
    7
 10
131.95134
 20
205.27189
 11
131.95134
 21
205.51189
  0
LINE
  8
1-0
  6
CONTINUOUS
 62
    7
 10
131.75689
 20
205.27189
 11
131.95134
 21
205.27189
  0
LINE
  8
1-0
  6
CONTINUOUS
 62
    7
 10
130.50135
 20
205.18688
 11
130.65135
 21
205.18688
  0
LINE
  8
1-0
  6
CONTINUOUS
 62
    7
 10
131.55135
 20
205.18688
 11
131.75136
 21
205.18688
  0
LINE
  8
1-0
  6
CONTINUOUS
 62
    7
 10
130.50135
 20
205.59689
 11
130.65135
 21
205.59689
  0
LINE
  8
1-0
  6
CONTINUOUS
 62
    7
 10
131.55135
 20
205.59689
 11
131.75136
 21
205.59689
  0
LINE
  8
1-0
  6
CENTER2
 62
    2
 10
130.85136
 20
198.39189
 11
131.35135
 21
198.39189
  0
LINE
  8
1-0
  6
CONTINUOUS
 62
    7
 10
130.65135
 20
198.69188
 11
130.65135
 21
197.8919
  0
LINE
  8
1-0
  6
CONTINUOUS
 62
    7
 10
130.65135
 20
197.8919
 11
131.55135
 21
197.8919
  0
LINE
  8
1-0
  6
CONTINUOUS
 62
    7
 10
131.55135
 20
198.69188
 11
131.55135
 21
197.8919
  0
LINE
  8
1-0
  6
CONTINUOUS
 62
    7
 10
130.65135
 20
198.69188
 11
130.85136
 21
198.69188
  0
LINE
  8
1-0
  6
CONTINUOUS
 62
    7
 10
131.35135
 20
198.69188
 11
131.55135
 21
198.69188
  0
LINE
  8
1-0
  6
CONTINUOUS
 62
    7
 10
130.50135
 20
198.59689
 11
130.50135
 21
198.18689
  0
LINE
  8
1-0
  6
CONTINUOUS
 62
    7
 10
130.50135
 20
198.39189
 11
130.65281
 21
198.39189
  0
LINE
  8
1-0
  6
CONTINUOUS
 62
    7
 10
131.55135
 20
198.39189
 11
131.75136
 21
198.39189
  0
LINE
  8
1-0
  6
CONTINUOUS
 62
    7
 10
131.75136
 20
198.59689
 11
131.75136
 21
198.18689
  0
LINE
  8
1-0
  6
CONTINUOUS
 62
    7
 10
131.75689
 20
198.27189
 11
131.95134
 21
198.27189
  0
LINE
  8
1-0
  6
CONTINUOUS
 62
    7
 10
131.95134
 20
198.51189
 11
131.95134
 21
198.27189
  0
LINE
  8
1-0
  6
CONTINUOUS
 62
    7
 10
131.75689
 20
198.51189
 11
131.95134
 21
198.51189
  0
LINE
  8
1-0
  6
CONTINUOUS
 62
    7
 10
130.50135
 20
198.59689
 11
130.65135
 21
198.59689
  0
LINE
  8
1-0
  6
CONTINUOUS
 62
    7
 10
131.55135
 20
198.59689
 11
131.75136
 21
198.59689
  0
LINE
  8
1-0
  6
CONTINUOUS
 62
    7
 10
130.50135
 20
198.18689
 11
130.65135
 21
198.18689
  0
LINE
  8
1-0
  6
CONTINUOUS
 62
    7
 10
131.55135
 20
198.18689
 11
131.75136
 21
198.18689
  0
LINE
  8
1-0
  6
CONTINUOUS
 62
    7
 10
63.504081
 20
203.34688
 11
63.474079
 21
203.37688
  0
LINE
  8
1-0
  6
CONTINUOUS
 62
    7
 10
63.504081
 20
203.20689
 11
63.474079
 21
203.17688
  0
LINE
  8
1-0
  6
CONTINUOUS
 62
    7
 10
63.504081
 20
203.34688
 11
63.371391
 21
203.32629
  0
LINE
  8
1-0
  6
CONTINUOUS
 62
    7
 10
63.504081
 20
203.20689
 11
63.37141
 21
203.22748
  0
LINE
  8
1-0
  6
CONTINUOUS
 62
    7
 10
62.379083
 20
203.40189
 11
62.829084
 21
203.40189
  0
LINE
  8
1-0
  6
CONTINUOUS
 62
    7
 10
62.379083
 20
203.1519
 11
62.829084
 21
203.1519
  0
LINE
  8
1-0
  6
CONTINUOUS
 62
    7
 10
63.474079
 20
203.37688
 11
62.854069
 21
203.37688
  0
LINE
  8
1-0
  6
CONTINUOUS
 62
    7
 10
62.829084
 20
203.40189
 11
62.854069
 21
203.37688
  0
LINE
  8
1-0
  6
CONTINUOUS
 62
    7
 10
63.474079
 20
203.17688
 11
62.854069
 21
203.17688
  0
LINE
  8
1-0
  6
CONTINUOUS
 62
    7
 10
62.829084
 20
203.1519
 11
62.854069
 21
203.17688
  0
LINE
  8
1-0
  6
CONTINUOUS
 62
    7
 10
62.204082
 20
203.73688
 11
62.204082
 21
203.40457
  0
LINE
  8
1-0
  6
CONTINUOUS
 62
    7
 10
62.204082
 20
203.73688
 11
62.554091
 21
203.73688
  0
LINE
  8
1-0
  6
CONTINUOUS
 62
    7
 10
62.554091
 20
203.73688
 11
62.554091
 21
203.40457
  0
LINE
  8
1-0
  6
CONTINUOUS
 62
    7
 10
62.754091
 20
203.1519
 11
62.754091
 21
202.8919
  0
LINE
  8
1-0
  6
CONTINUOUS
 62
    7
 10
61.164086
 20
203.49189
 11
61.164086
 21
202.64189
  0
LINE
  8
1-0
  6
CONTINUOUS
 62
    7
 10
61.164086
 20
203.49189
 11
62.164083
 21
203.49189
  0
LINE
  8
1-0
  6
CONTINUOUS
 62
    7
 10
62.164083
 20
203.49189
 11
62.164083
 21
202.64189
  0
LINE
  8
1-0
  6
CONTINUOUS
 62
    7
 10
61.379086
 20
201.89189
 11
61.379086
 21
202.64189
  0
LINE
  8
1-0
  6
CONTINUOUS
 62
    7
 10
62.379083
 20
203.40189
 11
62.164083
 21
203.40189
  0
LINE
  8
1-0
  6
CONTINUOUS
 62
    7
 10
62.379083
 20
203.1519
 11
62.164083
 21
203.1519
  0
LINE
  8
1-0
  6
CONTINUOUS
 62
    7
 10
79.946766
 20
201.97439
 11
79.976768
 21
202.00438
  0
LINE
  8
1-0
  6
CONTINUOUS
 62
    7
 10
79.946766
 20
201.8094
 11
79.976768
 21
201.7794
  0
LINE
  8
1-0
  6
CONTINUOUS
 62
    7
 10
79.946766
 20
201.97439
 11
80.083811
 21
201.94042
  0
LINE
  8
1-0
  6
CONTINUOUS
 62
    7
 10
79.946766
 20
201.8094
 11
80.083798
 21
201.84336
  0
LINE
  8
1-0
  6
CONTINUOUS
 62
    7
 10
79.976768
 20
202.00438
 11
80.546758
 21
202.00438
  0
LINE
  8
1-0
  6
CONTINUOUS
 62
    7
 10
80.571762
 20
202.02939
 11
80.546758
 21
202.00438
  0
LINE
  8
1-0
  6
CONTINUOUS
 62
    7
 10
80.571762
 20
202.02939
 11
81.071764
 21
202.02939
  0
LINE
  8
1-0
  6
CONTINUOUS
 62
    7
 10
80.571762
 20
201.7544
 11
81.071764
 21
201.7544
  0
LINE
  8
1-0
  6
CONTINUOUS
 62
    7
 10
79.976768
 20
201.7794
 11
80.546758
 21
201.7794
  0
LINE
  8
1-0
  6
CONTINUOUS
 62
    7
 10
80.571762
 20
201.7544
 11
80.546758
 21
201.7794
  0
LINE
  8
1-0
  6
CONTINUOUS
 62
    7
 10
82.196755
 20
201.97439
 11
82.166759
 21
202.00438
  0
LINE
  8
1-0
  6
CONTINUOUS
 62
    7
 10
82.196755
 20
201.8094
 11
82.166759
 21
201.7794
  0
LINE
  8
1-0
  6
CONTINUOUS
 62
    7
 10
82.196755
 20
201.97439
 11
82.059717
 21
201.94042
  0
LINE
  8
1-0
  6
CONTINUOUS
 62
    7
 10
82.196755
 20
201.8094
 11
82.059729
 21
201.84336
  0
LINE
  8
1-0
  6
CONTINUOUS
 62
    7
 10
80.896762
 20
203.14189
 11
81.246766
 21
203.14189
  0
LINE
  8
1-0
  6
CONTINUOUS
 62
    7
 10
80.846761
 20
203.12191
 11
81.296755
 21
203.12191
  0
LINE
  8
1-0
  6
CONTINUOUS
 62
    7
 10
79.946766
 20
202.34438
 11
79.976768
 21
202.37438
  0
LINE
  8
1-0
  6
CONTINUOUS
 62
    7
 10
79.946766
 20
202.17939
 11
79.976768
 21
202.1494
  0
LINE
  8
1-0
  6
CONTINUOUS
 62
    7
 10
79.946766
 20
202.34438
 11
80.083811
 21
202.31042
  0
LINE
  8
1-0
  6
CONTINUOUS
 62
    7
 10
79.946766
 20
202.17939
 11
80.083798
 21
202.21335
  0
LINE
  8
1-0
  6
CONTINUOUS
 62
    7
 10
79.976768
 20
202.37438
 11
80.546758
 21
202.37438
  0
LINE
  8
1-0
  6
CONTINUOUS
 62
    7
 10
80.571762
 20
202.39938
 11
80.546758
 21
202.37438
  0
LINE
  8
1-0
  6
CONTINUOUS
 62
    7
 10
80.571762
 20
202.39938
 11
81.071764
 21
202.39938
  0
LINE
  8
1-0
  6
CONTINUOUS
 62
    7
 10
80.571762
 20
202.12439
 11
81.071764
 21
202.12439
  0
LINE
  8
1-0
  6
CONTINUOUS
 62
    7
 10
79.976768
 20
202.1494
 11
80.546758
 21
202.1494
  0
LINE
  8
1-0
  6
CONTINUOUS
 62
    7
 10
80.571762
 20
202.12439
 11
80.546758
 21
202.1494
  0
LINE
  8
1-0
  6
CONTINUOUS
 62
    7
 10
82.196755
 20
202.34438
 11
82.166759
 21
202.37438
  0
LINE
  8
1-0
  6
CONTINUOUS
 62
    7
 10
82.196755
 20
202.17939
 11
82.166759
 21
202.1494
  0
LINE
  8
1-0
  6
CONTINUOUS
 62
    7
 10
82.196755
 20
202.34438
 11
82.059717
 21
202.31042
  0
LINE
  8
1-0
  6
CONTINUOUS
 62
    7
 10
82.196755
 20
202.17939
 11
82.059729
 21
202.21335
  0
LINE
  8
1-0
  6
CONTINUOUS
 62
    7
 10
79.946766
 20
202.7144
 11
79.976768
 21
202.74439
  0
LINE
  8
1-0
  6
CONTINUOUS
 62
    7
 10
79.946766
 20
202.54941
 11
79.976768
 21
202.51941
  0
LINE
  8
1-0
  6
CONTINUOUS
 62
    7
 10
79.946766
 20
202.7144
 11
80.083811
 21
202.68043
  0
LINE
  8
1-0
  6
CONTINUOUS
 62
    7
 10
79.946766
 20
202.54941
 11
80.083798
 21
202.58337
  0
LINE
  8
1-0
  6
CONTINUOUS
 62
    7
 10
79.976768
 20
202.74439
 11
80.546758
 21
202.74439
  0
LINE
  8
1-0
  6
CONTINUOUS
 62
    7
 10
80.571762
 20
202.76939
 11
80.546758
 21
202.74439
  0
LINE
  8
1-0
  6
CONTINUOUS
 62
    7
 10
80.571762
 20
202.76939
 11
81.071764
 21
202.76939
  0
LINE
  8
1-0
  6
CONTINUOUS
 62
    7
 10
80.571762
 20
202.4944
 11
81.071764
 21
202.4944
  0
LINE
  8
1-0
  6
CONTINUOUS
 62
    7
 10
79.976768
 20
202.51941
 11
80.546758
 21
202.51941
  0
LINE
  8
1-0
  6
CONTINUOUS
 62
    7
 10
80.571762
 20
202.4944
 11
80.546758
 21
202.51941
  0
LINE
  8
1-0
  6
CONTINUOUS
 62
    7
 10
82.196755
 20
202.7144
 11
82.166759
 21
202.74439
  0
LINE
  8
1-0
  6
CONTINUOUS
 62
    7
 10
82.196755
 20
202.54941
 11
82.166759
 21
202.51941
  0
LINE
  8
1-0
  6
CONTINUOUS
 62
    7
 10
82.196755
 20
202.7144
 11
82.059717
 21
202.68043
  0
LINE
  8
1-0
  6
CONTINUOUS
 62
    7
 10
82.196755
 20
202.54941
 11
82.059729
 21
202.58337
  0
LINE
  8
1-0
  6
CONTINUOUS
 62
    7
 10
80.120754
 20
202.64189
 11
61.164086
 21
202.64189
  0
LINE
  8
1-0
  6
CONTINUOUS
 62
    7
 10
80.896762
 20
203.14189
 11
80.896762
 21
203.12191
  0
LINE
  8
1-0
  6
CONTINUOUS
 62
    7
 10
81.246766
 20
203.14189
 11
81.246766
 21
203.12191
  0
LINE
  8
1-0
  6
CONTINUOUS
 62
    7
 10
80.846761
 20
203.12191
 11
80.846761
 21
202.86941
  0
LINE
  8
1-0
  6
CONTINUOUS
 62
    7
 10
81.246766
 20
202.4944
 11
81.246766
 21
202.39938
  0
LINE
  8
1-0
  6
CONTINUOUS
 62
    7
 10
81.246766
 20
202.12439
 11
81.246766
 21
202.02939
  0
LINE
  8
1-0
  6
CONTINUOUS
 62
    7
 10
80.896762
 20
202.4944
 11
80.896762
 21
202.39938
  0
LINE
  8
1-0
  6
CONTINUOUS
 62
    7
 10
80.896762
 20
202.12439
 11
80.896762
 21
202.02939
  0
LINE
  8
1-0
  6
CONTINUOUS
 62
    7
 10
80.896762
 20
200.64189
 11
81.246766
 21
200.64189
  0
LINE
  8
1-0
  6
CONTINUOUS
 62
    7
 10
80.846761
 20
200.66189
 11
81.296755
 21
200.66189
  0
LINE
  8
1-0
  6
CONTINUOUS
 62
    7
 10
79.946766
 20
201.4394
 11
79.976768
 21
201.40939
  0
LINE
  8
1-0
  6
CONTINUOUS
 62
    7
 10
79.946766
 20
201.6044
 11
79.976768
 21
201.6344
  0
LINE
  8
1-0
  6
CONTINUOUS
 62
    7
 10
79.946766
 20
201.4394
 11
80.083811
 21
201.47338
  0
LINE
  8
1-0
  6
CONTINUOUS
 62
    7
 10
79.946766
 20
201.6044
 11
80.083798
 21
201.57044
  0
LINE
  8
1-0
  6
CONTINUOUS
 62
    7
 10
79.976768
 20
201.40939
 11
80.546758
 21
201.40939
  0
LINE
  8
1-0
  6
CONTINUOUS
 62
    7
 10
80.571762
 20
201.38439
 11
80.546758
 21
201.40939
  0
LINE
  8
1-0
  6
CONTINUOUS
 62
    7
 10
80.571762
 20
201.38439
 11
81.071764
 21
201.38439
  0
LINE
  8
1-0
  6
CONTINUOUS
 62
    7
 10
80.571762
 20
201.6594
 11
81.071764
 21
201.6594
  0
LINE
  8
1-0
  6
CONTINUOUS
 62
    7
 10
79.976768
 20
201.6344
 11
80.546758
 21
201.6344
  0
LINE
  8
1-0
  6
CONTINUOUS
 62
    7
 10
80.571762
 20
201.6594
 11
80.546758
 21
201.6344
  0
LINE
  8
1-0
  6
CONTINUOUS
 62
    7
 10
82.196755
 20
201.4394
 11
82.166759
 21
201.40939
  0
LINE
  8
1-0
  6
CONTINUOUS
 62
    7
 10
82.196755
 20
201.6044
 11
82.166759
 21
201.6344
  0
LINE
  8
1-0
  6
CONTINUOUS
 62
    7
 10
82.196755
 20
201.4394
 11
82.059717
 21
201.47338
  0
LINE
  8
1-0
  6
CONTINUOUS
 62
    7
 10
82.196755
 20
201.6044
 11
82.059729
 21
201.57044
  0
LINE
  8
1-0
  6
CONTINUOUS
 62
    7
 10
79.946766
 20
201.0694
 11
79.976768
 21
201.03939
  0
LINE
  8
1-0
  6
CONTINUOUS
 62
    7
 10
79.946766
 20
201.23439
 11
79.976768
 21
201.26438
  0
LINE
  8
1-0
  6
CONTINUOUS
 62
    7
 10
79.946766
 20
201.0694
 11
80.083811
 21
201.10336
  0
LINE
  8
1-0
  6
CONTINUOUS
 62
    7
 10
79.946766
 20
201.23439
 11
80.083798
 21
201.20041
  0
LINE
  8
1-0
  6
CONTINUOUS
 62
    7
 10
79.976768
 20
201.03939
 11
80.546758
 21
201.03939
  0
LINE
  8
1-0
  6
CONTINUOUS
 62
    7
 10
80.571762
 20
201.01439
 11
80.546758
 21
201.03939
  0
LINE
  8
1-0
  6
CONTINUOUS
 62
    7
 10
80.571762
 20
201.01439
 11
81.071764
 21
201.01439
  0
LINE
  8
1-0
  6
CONTINUOUS
 62
    7
 10
80.571762
 20
201.28938
 11
81.071764
 21
201.28938
  0
LINE
  8
1-0
  6
CONTINUOUS
 62
    7
 10
79.976768
 20
201.26438
 11
80.546758
 21
201.26438
  0
LINE
  8
1-0
  6
CONTINUOUS
 62
    7
 10
80.571762
 20
201.28938
 11
80.546758
 21
201.26438
  0
LINE
  8
1-0
  6
CONTINUOUS
 62
    7
 10
82.196755
 20
201.0694
 11
82.166759
 21
201.03939
  0
LINE
  8
1-0
  6
CONTINUOUS
 62
    7
 10
82.196755
 20
201.23439
 11
82.166759
 21
201.26438
  0
LINE
  8
1-0
  6
CONTINUOUS
 62
    7
 10
82.196755
 20
201.0694
 11
82.059717
 21
201.10336
  0
LINE
  8
1-0
  6
CONTINUOUS
 62
    7
 10
82.196755
 20
201.23439
 11
82.059729
 21
201.20041
  0
LINE
  8
1-0
  6
CONTINUOUS
 62
    7
 10
80.896762
 20
200.64189
 11
80.896762
 21
200.66189
  0
LINE
  8
1-0
  6
CONTINUOUS
 62
    7
 10
81.246766
 20
200.64189
 11
81.246766
 21
200.66189
  0
LINE
  8
1-0
  6
CONTINUOUS
 62
    7
 10
80.846761
 20
200.66189
 11
80.846761
 21
200.91437
  0
LINE
  8
1-0
  6
CONTINUOUS
 62
    7
 10
80.846761
 20
200.91437
 11
81.296755
 21
200.91437
  0
LINE
  8
1-0
  6
CONTINUOUS
 62
    7
 10
81.296755
 20
200.66189
 11
81.296755
 21
200.91437
  0
LINE
  8
1-0
  6
CONTINUOUS
 62
    7
 10
81.246766
 20
201.28938
 11
81.246766
 21
201.38439
  0
LINE
  8
1-0
  6
CONTINUOUS
 62
    7
 10
81.246766
 20
201.6594
 11
81.246766
 21
201.7544
  0
LINE
  8
1-0
  6
CONTINUOUS
 62
    7
 10
80.896762
 20
201.28938
 11
80.896762
 21
201.38439
  0
LINE
  8
1-0
  6
CONTINUOUS
 62
    7
 10
80.896762
 20
201.6594
 11
80.896762
 21
201.7544
  0
LINE
  8
1-0
  6
CONTINUOUS
 62
    7
 10
62.164083
 20
203.09188
 11
74.320647
 21
203.09188
  0
LINE
  8
1-0
  6
CONTINUOUS
 62
    7
 10
74.320647
 20
203.09188
 11
75.251367
 21
202.86941
  0
LINE
  8
1-0
  6
CONTINUOUS
 62
    7
 10
80.846761
 20
202.86941
 11
75.251367
 21
202.86941
  0
LINE
  8
1-0
  6
CONTINUOUS
 62
    7
 10
62.164083
 20
203.0019
 11
74.320647
 21
203.0019
  0
LINE
  8
1-0
  6
CONTINUOUS
 62
    7
 10
74.299726
 20
203.00435
 11
75.240739
 21
202.7794
  0
LINE
  8
1-0
  6
CONTINUOUS
 62
    7
 10
80.896762
 20
202.7794
 11
80.896762
 21
202.76939
  0
LINE
  8
1-0
  6
CONTINUOUS
 62
    7
 10
81.246766
 20
202.7794
 11
81.246766
 21
202.76939
  0
LINE
  8
1-0
  6
CONTINUOUS
 62
    7
 10
63.504081
 20
200.4369
 11
63.474079
 21
200.40689
  0
LINE
  8
1-0
  6
CONTINUOUS
 62
    7
 10
63.504081
 20
200.57689
 11
63.474079
 21
200.60689
  0
LINE
  8
1-0
  6
CONTINUOUS
 62
    7
 10
63.504081
 20
200.4369
 11
63.371391
 21
200.45749
  0
LINE
  8
1-0
  6
CONTINUOUS
 62
    7
 10
63.504081
 20
200.57689
 11
63.37141
 21
200.5563
  0
LINE
  8
1-0
  6
CONTINUOUS
 62
    7
 10
62.379083
 20
200.38191
 11
62.829084
 21
200.38191
  0
LINE
  8
1-0
  6
CONTINUOUS
 62
    7
 10
62.379083
 20
200.63188
 11
62.829084
 21
200.63188
  0
LINE
  8
1-0
  6
CONTINUOUS
 62
    7
 10
63.474079
 20
200.40689
 11
62.854069
 21
200.40689
  0
LINE
  8
1-0
  6
CONTINUOUS
 62
    7
 10
62.829084
 20
200.38191
 11
62.854069
 21
200.40689
  0
LINE
  8
1-0
  6
CONTINUOUS
 62
    7
 10
63.474079
 20
200.60689
 11
62.854069
 21
200.60689
  0
LINE
  8
1-0
  6
CONTINUOUS
 62
    7
 10
62.829084
 20
200.63188
 11
62.854069
 21
200.60689
  0
LINE
  8
1-0
  6
CONTINUOUS
 62
    7
 10
62.204082
 20
200.0469
 11
62.204082
 21
200.37921
  0
LINE
  8
1-0
  6
CONTINUOUS
 62
    7
 10
62.204082
 20
200.0469
 11
62.554091
 21
200.0469
  0
LINE
  8
1-0
  6
CONTINUOUS
 62
    7
 10
62.554091
 20
200.0469
 11
62.554091
 21
200.37921
  0
LINE
  8
1-0
  6
CONTINUOUS
 62
    7
 10
62.754091
 20
200.63188
 11
62.754091
 21
200.89188
  0
LINE
  8
1-0
  6
CONTINUOUS
 62
    7
 10
61.164086
 20
200.29189
 11
62.164083
 21
200.29189
  0
LINE
  8
1-0
  6
CONTINUOUS
 62
    7
 10
62.164083
 20
200.29189
 11
62.164083
 21
201.1419
  0
LINE
  8
1-0
  6
CONTINUOUS
 62
    7
 10
61.379086
 20
201.89189
 11
61.379086
 21
201.1419
  0
LINE
  8
1-0
  6
CONTINUOUS
 62
    7
 10
62.379083
 20
200.38191
 11
62.164083
 21
200.38191
  0
LINE
  8
1-0
  6
CONTINUOUS
 62
    7
 10
62.379083
 20
200.63188
 11
62.164083
 21
200.63188
  0
LINE
  8
1-0
  6
CONTINUOUS
 62
    7
 10
62.164083
 20
200.6919
 11
74.320647
 21
200.6919
  0
LINE
  8
1-0
  6
CONTINUOUS
 62
    7
 10
74.320647
 20
200.6919
 11
75.251367
 21
200.91437
  0
LINE
  8
1-0
  6
CONTINUOUS
 62
    7
 10
62.164083
 20
200.78188
 11
74.320647
 21
200.78188
  0
LINE
  8
1-0
  6
CONTINUOUS
 62
    7
 10
74.299726
 20
200.77943
 11
75.240739
 21
201.00438
  0
LINE
  8
1-0
  6
CONTINUOUS
 62
    7
 10
80.846761
 20
202.86941
 11
81.631918
 21
202.86941
  0
LINE
  8
1-0
  6
CONTINUOUS
 62
    7
 10
81.352719
 20
202.7794
 11
75.240739
 21
202.7794
  0
LINE
  8
1-0
  6
CONTINUOUS
 62
    7
 10
81.631918
 20
200.91437
 11
81.631918
 21
202.86941
  0
LINE
  8
1-0
  6
CONTINUOUS
 62
    7
 10
81.631918
 20
200.91437
 11
75.251367
 21
200.91437
  0
LINE
  8
1-0
  6
CONTINUOUS
 62
    7
 10
81.352719
 20
201.00438
 11
75.240739
 21
201.00438
  0
LINE
  8
1-0
  6
CONTINUOUS
 62
    7
 10
81.352719
 20
201.00438
 11
81.352719
 21
202.7794
  0
LINE
  8
1-0
  6
CONTINUOUS
 62
    7
 10
81.352719
 20
202.76939
 11
81.071764
 21
202.76939
  0
LINE
  8
1-0
  6
CONTINUOUS
 62
    7
 10
81.352719
 20
202.4944
 11
81.071764
 21
202.4944
  0
LINE
  8
1-0
  6
CONTINUOUS
 62
    7
 10
81.352719
 20
202.39938
 11
81.071764
 21
202.39938
  0
LINE
  8
1-0
  6
CONTINUOUS
 62
    7
 10
81.352719
 20
202.12439
 11
81.071764
 21
202.12439
  0
LINE
  8
1-0
  6
CONTINUOUS
 62
    7
 10
81.352719
 20
202.02939
 11
81.071764
 21
202.02939
  0
LINE
  8
1-0
  6
CONTINUOUS
 62
    7
 10
81.352719
 20
201.7544
 11
81.071764
 21
201.7544
  0
LINE
  8
1-0
  6
CONTINUOUS
 62
    7
 10
81.352719
 20
201.6594
 11
81.071764
 21
201.6594
  0
LINE
  8
1-0
  6
CONTINUOUS
 62
    7
 10
81.352719
 20
201.38439
 11
81.071764
 21
201.38439
  0
LINE
  8
1-0
  6
CONTINUOUS
 62
    7
 10
81.352719
 20
201.28938
 11
81.071764
 21
201.28938
  0
LINE
  8
1-0
  6
CONTINUOUS
 62
    7
 10
81.352719
 20
201.01439
 11
81.071764
 21
201.01439
  0
LINE
  8
1-0
  6
CONTINUOUS
 62
    7
 10
82.166759
 20
202.74439
 11
81.631918
 21
202.74439
  0
LINE
  8
1-0
  6
CONTINUOUS
 62
    7
 10
82.166759
 20
202.51941
 11
81.631918
 21
202.51941
  0
LINE
  8
1-0
  6
CONTINUOUS
 62
    7
 10
82.166759
 20
202.37438
 11
81.631918
 21
202.37438
  0
LINE
  8
1-0
  6
CONTINUOUS
 62
    7
 10
82.166759
 20
202.1494
 11
81.631918
 21
202.1494
  0
LINE
  8
1-0
  6
CONTINUOUS
 62
    7
 10
82.166759
 20
202.00438
 11
81.631918
 21
202.00438
  0
LINE
  8
1-0
  6
CONTINUOUS
 62
    7
 10
82.166759
 20
201.7794
 11
81.631918
 21
201.7794
  0
LINE
  8
1-0
  6
CONTINUOUS
 62
    7
 10
82.166759
 20
201.6344
 11
81.631918
 21
201.6344
  0
LINE
  8
1-0
  6
CONTINUOUS
 62
    7
 10
82.166759
 20
201.40939
 11
81.631918
 21
201.40939
  0
LINE
  8
1-0
  6
CONTINUOUS
 62
    7
 10
82.166759
 20
201.26438
 11
81.631918
 21
201.26438
  0
LINE
  8
1-0
  6
CONTINUOUS
 62
    7
 10
82.166759
 20
201.03939
 11
81.631918
 21
201.03939
  0
LINE
  8
1-0
  6
CONTINUOUS
 62
    7
 10
81.296755
 20
203.12191
 11
81.296755
 21
202.86941
  0
LINE
  8
1-0
  6
CONTINUOUS
 62
    7
 10
80.896762
 20
201.00438
 11
80.896762
 21
201.01439
  0
LINE
  8
1-0
  6
CONTINUOUS
 62
    7
 10
81.246766
 20
201.00438
 11
81.246766
 21
201.01439
  0
LINE
  8
1-0
  6
CENTER2
 62
    2
 10
122.96453
 20
201.89189
 11
142.85138
 21
201.89189
  0
LINE
  8
1-0
  6
CONTINUOUS
 62
    7
 10
142.14994
 20
203.27191
 11
142.85138
 21
203.27191
  0
LINE
  8
1-0
  6
CONTINUOUS
 62
    7
 10
142.00135
 20
203.51189
 11
142.00135
 21
203.81189
  0
LINE
  8
1-0
  6
CONTINUOUS
 62
    7
 10
142.00135
 20
203.81189
 11
142.70136
 21
203.81189
  0
LINE
  8
1-0
  6
CONTINUOUS
 62
    7
 10
142.70136
 20
203.51189
 11
142.70136
 21
203.81189
  0
LINE
  8
1-0
  6
CONTINUOUS
 62
    7
 10
142.17634
 20
203.81189
 11
142.17634
 21
203.91189
  0
LINE
  8
1-0
  6
CONTINUOUS
 62
    7
 10
142.17634
 20
203.91189
 11
142.52635
 21
203.91189
  0
LINE
  8
1-0
  6
CONTINUOUS
 62
    7
 10
142.52635
 20
203.81189
 11
142.52635
 21
203.91189
  0
LINE
  8
1-0
  6
CONTINUOUS
 62
    7
 10
141.85134
 20
203.3919
 11
141.85134
 21
203.51189
  0
LINE
  8
1-0
  6
CONTINUOUS
 62
    7
 10
141.85134
 20
203.51189
 11
143.35136
 21
203.51189
  0
LINE
  8
1-0
  6
CONTINUOUS
 62
    7
 10
143.35136
 20
203.3919
 11
143.35136
 21
203.51189
  0
LINE
  8
1-0
  6
CONTINUOUS
 62
    7
 10
120.13077
 20
203.3919
 11
143.35136
 21
203.3919
  0
LINE
  8
1-0
  6
CONTINUOUS
 62
    7
 10
119.59403
 20
202.64189
 11
120.13077
 21
203.3919
  0
LINE
  8
1-0
  6
CONTINUOUS
 62
    7
 10
142.14994
 20
200.51189
 11
142.85138
 21
200.51189
  0
LINE
  8
1-0
  6
CONTINUOUS
 62
    7
 10
142.00135
 20
200.27188
 11
142.00135
 21
199.97189
  0
LINE
  8
1-0
  6
CONTINUOUS
 62
    7
 10
142.00135
 20
199.97189
 11
142.70136
 21
199.97189
  0
LINE
  8
1-0
  6
CONTINUOUS
 62
    7
 10
142.70136
 20
200.27188
 11
142.70136
 21
199.97189
  0
LINE
  8
1-0
  6
CONTINUOUS
 62
    7
 10
142.17634
 20
199.97189
 11
142.17634
 21
199.8719
  0
LINE
  8
1-0
  6
CONTINUOUS
 62
    7
 10
142.17634
 20
199.8719
 11
142.52635
 21
199.8719
  0
LINE
  8
1-0
  6
CONTINUOUS
 62
    7
 10
142.52635
 20
199.97189
 11
142.52635
 21
199.8719
  0
LINE
  8
1-0
  6
CONTINUOUS
 62
    7
 10
141.85134
 20
200.39188
 11
141.85134
 21
200.27188
  0
LINE
  8
1-0
  6
CONTINUOUS
 62
    7
 10
141.85134
 20
200.27188
 11
143.35136
 21
200.27188
  0
LINE
  8
1-0
  6
CONTINUOUS
 62
    7
 10
143.35136
 20
200.39188
 11
143.35136
 21
200.27188
  0
LINE
  8
1-0
  6
CONTINUOUS
 62
    7
 10
142.85138
 20
201.89189
 11
142.85138
 21
200.39188
  0
LINE
  8
1-0
  6
CONTINUOUS
 62
    7
 10
120.13077
 20
200.39188
 11
143.35136
 21
200.39188
  0
LINE
  8
1-0
  6
CONTINUOUS
 62
    7
 10
119.59403
 20
201.1419
 11
120.13077
 21
200.39188
  0
LINE
  8
1-0
  6
CONTINUOUS
 62
    7
 10
131.35135
 20
203.3919
 11
131.35135
 21
205.8919
  0
LINE
  8
1-0
  6
CONTINUOUS
 62
    7
 10
130.85136
 20
203.3919
 11
130.85136
 21
205.8919
  0
LINE
  8
1-0
  6
CONTINUOUS
 62
    7
 10
131.35135
 20
200.39188
 11
131.35135
 21
197.8919
  0
LINE
  8
1-0
  6
CONTINUOUS
 62
    7
 10
130.85136
 20
200.39188
 11
130.85136
 21
197.8919
  0
LINE
  8
1-0
  6
CONTINUOUS
 62
    7
 10
135.25789
 20
203.46133
 11
135.09027
 21
203.3919
  0
LINE
  8
1-0
  6
CONTINUOUS
 62
    7
 10
135.22344
 20
203.54447
 11
134.85511
 21
203.3919
  0
LINE
  8
1-0
  6
CONTINUOUS
 62
    7
 10
127.44481
 20
203.46133
 11
127.61243
 21
203.3919
  0
LINE
  8
1-0
  6
CONTINUOUS
 62
    7
 10
127.47926
 20
203.54447
 11
127.8476
 21
203.3919
  0
LINE
  8
1-0
  6
CONTINUOUS
 62
    7
 10
80.120754
 20
201.1419
 11
61.164086
 21
201.1419
  0
LINE
  8
1-0
  6
CONTINUOUS
 62
    7
 10
61.164086
 20
200.29189
 11
61.164086
 21
201.1419
  0
LINE
  8
1-0
  6
CONTINUOUS
 62
    7
 10
127.61243
 20
200.39188
 11
127.44481
 21
200.32246
  0
LINE
  8
1-0
  6
CONTINUOUS
 62
    7
 10
127.47926
 20
200.23932
 11
127.8476
 21
200.39188
  0
LINE
  8
1-0
  6
CONTINUOUS
 62
    7
 10
84.675886
 20
202.94188
 11
87.895535
 21
202.94188
  0
LINE
  8
1-0
  6
CONTINUOUS
 62
    7
 10
84.675886
 20
200.8419
 11
87.895535
 21
200.8419
  0
LINE
  8
1-0
  6
CONTINUOUS
 62
    7
 10
84.675886
 20
202.88189
 11
87.895535
 21
202.88189
  0
LINE
  8
1-0
  6
CONTINUOUS
 62
    7
 10
84.675886
 20
200.90189
 11
87.895535
 21
200.90189
  0
LINE
  8
1-0
  6
CONTINUOUS
 62
    7
 10
84.675886
 20
200.8419
 11
84.675886
 21
200.90189
  0
LINE
  8
1-0
  6
CONTINUOUS
 62
    7
 10
84.675886
 20
202.88189
 11
84.675886
 21
202.94188
  0
LINE
  8
1-0
  6
CONTINUOUS
 62
    7
 10
85.748649
 20
200.8419
 11
85.748649
 21
200.90189
  0
LINE
  8
1-0
  6
CONTINUOUS
 62
    7
 10
85.748649
 20
202.88189
 11
85.748649
 21
202.94188
  0
LINE
  8
1-0
  6
CONTINUOUS
 62
    7
 10
87.895535
 20
200.8419
 11
87.895535
 21
200.90189
  0
LINE
  8
1-0
  6
CONTINUOUS
 62
    7
 10
87.895535
 20
202.88189
 11
87.895535
 21
202.94188
  0
LINE
  8
1-0
  6
CONTINUOUS
 62
    7
 10
85.056572
 20
202.94188
 11
85.056572
 21
203.06189
  0
LINE
  8
1-0
  6
CONTINUOUS
 62
    7
 10
85.056572
 20
203.06189
 11
85.266586
 21
203.06189
  0
LINE
  8
1-0
  6
CONTINUOUS
 62
    7
 10
85.266586
 20
202.94188
 11
85.266586
 21
203.06189
  0
LINE
  8
1-0
  6
CONTINUOUS
 62
    7
 10
85.101575
 20
203.10189
 11
85.111584
 21
203.11187
  0
LINE
  8
1-0
  6
CONTINUOUS
 62
    7
 10
85.211574
 20
203.11187
 11
85.111584
 21
203.11187
  0
LINE
  8
1-0
  6
CONTINUOUS
 62
    7
 10
85.211574
 20
203.11187
 11
85.221577
 21
203.10189
  0
LINE
  8
1-0
  6
CONTINUOUS
 62
    7
 10
85.161573
 20
202.94188
 11
85.161573
 21
203.06189
  0
LINE
  8
1-0
  6
CONTINUOUS
 62
    7
 10
85.101575
 20
203.10189
 11
85.101575
 21
203.06189
  0
LINE
  8
1-0
  6
CONTINUOUS
 62
    7
 10
85.101575
 20
202.88189
 11
85.101575
 21
202.64189
  0
LINE
  8
1-0
  6
CONTINUOUS
 62
    7
 10
85.221577
 20
203.10189
 11
85.221577
 21
203.06189
  0
LINE
  8
1-0
  6
CONTINUOUS
 62
    7
 10
85.221577
 20
202.88189
 11
85.221577
 21
202.64189
  0
LINE
  8
1-0
  6
CONTINUOUS
 62
    7
 10
85.056572
 20
200.8419
 11
85.056572
 21
200.7219
  0
LINE
  8
1-0
  6
CONTINUOUS
 62
    7
 10
85.056572
 20
200.7219
 11
85.266586
 21
200.7219
  0
LINE
  8
1-0
  6
CONTINUOUS
 62
    7
 10
85.266586
 20
200.8419
 11
85.266586
 21
200.7219
  0
LINE
  8
1-0
  6
CONTINUOUS
 62
    7
 10
85.101575
 20
200.6819
 11
85.111584
 21
200.6719
  0
LINE
  8
1-0
  6
CONTINUOUS
 62
    7
 10
85.211574
 20
200.6719
 11
85.111584
 21
200.6719
  0
LINE
  8
1-0
  6
CONTINUOUS
 62
    7
 10
85.211574
 20
200.6719
 11
85.221577
 21
200.6819
  0
LINE
  8
1-0
  6
CONTINUOUS
 62
    7
 10
85.161573
 20
200.8419
 11
85.161573
 21
200.7219
  0
LINE
  8
1-0
  6
CONTINUOUS
 62
    7
 10
85.101575
 20
200.6819
 11
85.101575
 21
200.7219
  0
LINE
  8
1-0
  6
CONTINUOUS
 62
    7
 10
85.101575
 20
200.90189
 11
85.101575
 21
201.1419
  0
LINE
  8
1-0
  6
CONTINUOUS
 62
    7
 10
85.221577
 20
200.6819
 11
85.221577
 21
200.7219
  0
LINE
  8
1-0
  6
CONTINUOUS
 62
    7
 10
85.221577
 20
200.90189
 11
85.221577
 21
201.1419
  0
LINE
  8
1-0
  6
CONTINUOUS
 62
    7
 10
85.776158
 20
202.94188
 11
85.776158
 21
203.06189
  0
LINE
  8
1-0
  6
CONTINUOUS
 62
    7
 10
85.776158
 20
203.06189
 11
85.986166
 21
203.06189
  0
LINE
  8
1-0
  6
CONTINUOUS
 62
    7
 10
85.986166
 20
202.94188
 11
85.986166
 21
203.06189
  0
LINE
  8
1-0
  6
CONTINUOUS
 62
    7
 10
85.821161
 20
203.10189
 11
85.83117
 21
203.11187
  0
LINE
  8
1-0
  6
CONTINUOUS
 62
    7
 10
85.93116
 20
203.11187
 11
85.83117
 21
203.11187
  0
LINE
  8
1-0
  6
CONTINUOUS
 62
    7
 10
85.93116
 20
203.11187
 11
85.941157
 21
203.10189
  0
LINE
  8
1-0
  6
CONTINUOUS
 62
    7
 10
85.881159
 20
202.94188
 11
85.881159
 21
203.06189
  0
LINE
  8
1-0
  6
CONTINUOUS
 62
    7
 10
85.821161
 20
203.10189
 11
85.821161
 21
203.06189
  0
LINE
  8
1-0
  6
CONTINUOUS
 62
    7
 10
85.821161
 20
202.88189
 11
85.821161
 21
202.64189
  0
LINE
  8
1-0
  6
CONTINUOUS
 62
    7
 10
85.941157
 20
203.10189
 11
85.941157
 21
203.06189
  0
LINE
  8
1-0
  6
CONTINUOUS
 62
    7
 10
85.941157
 20
202.88189
 11
85.941157
 21
202.64189
  0
LINE
  8
1-0
  6
CONTINUOUS
 62
    7
 10
85.776158
 20
200.8419
 11
85.776158
 21
200.7219
  0
LINE
  8
1-0
  6
CONTINUOUS
 62
    7
 10
85.776158
 20
200.7219
 11
85.986166
 21
200.7219
  0
LINE
  8
1-0
  6
CONTINUOUS
 62
    7
 10
85.986166
 20
200.8419
 11
85.986166
 21
200.7219
  0
LINE
  8
1-0
  6
CONTINUOUS
 62
    7
 10
85.821161
 20
200.6819
 11
85.83117
 21
200.6719
  0
LINE
  8
1-0
  6
CONTINUOUS
 62
    7
 10
85.93116
 20
200.6719
 11
85.83117
 21
200.6719
  0
LINE
  8
1-0
  6
CONTINUOUS
 62
    7
 10
85.93116
 20
200.6719
 11
85.941157
 21
200.6819
  0
LINE
  8
1-0
  6
CONTINUOUS
 62
    7
 10
85.881159
 20
200.8419
 11
85.881159
 21
200.7219
  0
LINE
  8
1-0
  6
CONTINUOUS
 62
    7
 10
85.821161
 20
200.6819
 11
85.821161
 21
200.7219
  0
LINE
  8
1-0
  6
CONTINUOUS
 62
    7
 10
85.821161
 20
200.90189
 11
85.821161
 21
201.1419
  0
LINE
  8
1-0
  6
CONTINUOUS
 62
    7
 10
85.941157
 20
200.6819
 11
85.941157
 21
200.7219
  0
LINE
  8
1-0
  6
CONTINUOUS
 62
    7
 10
85.941157
 20
200.90189
 11
85.941157
 21
201.1419
  0
LINE
  8
1-0
  6
CONTINUOUS
 62
    7
 10
91.585822
 20
201.05189
 11
91.585822
 21
201.1419
  0
LINE
  8
1-0
  6
CONTINUOUS
 62
    7
 10
91.585822
 20
202.64189
 11
91.585822
 21
202.73189
  0
LINE
  8
1-0
  6
CONTINUOUS
 62
    7
 10
142.0694
 20
202.64189
 11
92.225046
 21
202.64189
  0
LINE
  8
1-0
  6
CONTINUOUS
 62
    7
 10
142.0694
 20
201.1419
 11
92.225046
 21
201.1419
  0
LINE
  8
1-0
  6
CONTINUOUS
 62
    7
 10
92.175038
 20
202.73189
 11
91.585822
 21
202.73189
  0
LINE
  8
1-0
  6
CONTINUOUS
 62
    7
 10
92.175038
 20
201.05189
 11
91.585822
 21
201.05189
  0
LINE
  8
1-0
  6
CONTINUOUS
 62
    7
 10
92.225046
 20
201.1019
 11
92.225046
 21
202.6819
  0
LINE
  8
1-0
  6
CONTINUOUS
 62
    7
 10
92.114551
 20
202.64189
 11
82.022762
 21
202.64189
  0
LINE
  8
1-0
  6
CONTINUOUS
 62
    7
 10
92.114551
 20
201.1419
 11
82.022762
 21
201.1419
  0
LINE
  8
1-0
  6
CONTINUOUS
 62
    7
 10
92.14456
 20
201.17188
 11
92.14456
 21
202.6119
  0
LINE
  8
1-0
  6
CONTINUOUS
 62
    7
 10
94.715818
 20
201.05189
 11
94.715818
 21
201.1419
  0
LINE
  8
1-0
  6
CONTINUOUS
 62
    7
 10
94.715818
 20
202.64189
 11
94.715818
 21
202.73189
  0
LINE
  8
1-0
  6
CONTINUOUS
 62
    7
 10
95.305047
 20
202.73189
 11
94.715818
 21
202.73189
  0
LINE
  8
1-0
  6
CONTINUOUS
 62
    7
 10
95.305047
 20
201.05189
 11
94.715818
 21
201.05189
  0
LINE
  8
1-0
  6
CONTINUOUS
 62
    7
 10
95.355054
 20
201.1019
 11
95.355054
 21
202.6819
  0
LINE
  8
1-0
  6
CONTINUOUS
 62
    7
 10
95.27455
 20
201.17188
 11
95.27455
 21
202.6119
  0
LINE
  8
1-0
  6
CONTINUOUS
 62
    7
 10
97.845821
 20
201.05189
 11
97.845821
 21
201.1419
  0
LINE
  8
1-0
  6
CONTINUOUS
 62
    7
 10
97.845821
 20
202.64189
 11
97.845821
 21
202.73189
  0
LINE
  8
1-0
  6
CONTINUOUS
 62
    7
 10
98.435049
 20
202.73189
 11
97.845821
 21
202.73189
  0
LINE
  8
1-0
  6
CONTINUOUS
 62
    7
 10
98.435049
 20
201.05189
 11
97.845821
 21
201.05189
  0
LINE
  8
1-0
  6
CONTINUOUS
 62
    7
 10
98.485057
 20
201.1019
 11
98.485057
 21
202.6819
  0
LINE
  8
1-0
  6
CONTINUOUS
 62
    7
 10
98.404552
 20
201.17188
 11
98.404552
 21
202.6119
  0
LINE
  8
1-0
  6
CONTINUOUS
 62
    7
 10
100.97582
 20
201.05189
 11
100.97582
 21
201.1419
  0
LINE
  8
1-0
  6
CONTINUOUS
 62
    7
 10
100.97582
 20
202.64189
 11
100.97582
 21
202.73189
  0
LINE
  8
1-0
  6
CONTINUOUS
 62
    7
 10
101.56502
 20
202.73189
 11
100.97582
 21
202.73189
  0
LINE
  8
1-0
  6
CONTINUOUS
 62
    7
 10
101.56502
 20
201.05189
 11
100.97582
 21
201.05189
  0
LINE
  8
1-0
  6
CONTINUOUS
 62
    7
 10
101.61503
 20
201.1019
 11
101.61503
 21
202.6819
  0
LINE
  8
1-0
  6
CONTINUOUS
 62
    7
 10
101.53454
 20
201.17188
 11
101.53454
 21
202.6119
  0
LINE
  8
1-0
  6
CONTINUOUS
 62
    7
 10
104.10581
 20
201.05189
 11
104.10581
 21
201.1419
  0
LINE
  8
1-0
  6
CONTINUOUS
 62
    7
 10
104.10581
 20
202.64189
 11
104.10581
 21
202.73189
  0
LINE
  8
1-0
  6
CONTINUOUS
 62
    7
 10
104.69502
 20
202.73189
 11
104.10581
 21
202.73189
  0
LINE
  8
1-0
  6
CONTINUOUS
 62
    7
 10
104.69502
 20
201.05189
 11
104.10581
 21
201.05189
  0
LINE
  8
1-0
  6
CONTINUOUS
 62
    7
 10
104.74503
 20
201.1019
 11
104.74503
 21
202.6819
  0
LINE
  8
1-0
  6
CONTINUOUS
 62
    7
 10
104.66454
 20
201.17188
 11
104.66454
 21
202.6119
  0
LINE
  8
1-0
  6
CONTINUOUS
 62
    7
 10
107.23581
 20
201.05189
 11
107.23581
 21
201.1419
  0
LINE
  8
1-0
  6
CONTINUOUS
 62
    7
 10
107.23581
 20
202.64189
 11
107.23581
 21
202.73189
  0
LINE
  8
1-0
  6
CONTINUOUS
 62
    7
 10
107.82503
 20
202.73189
 11
107.23581
 21
202.73189
  0
LINE
  8
1-0
  6
CONTINUOUS
 62
    7
 10
107.82503
 20
201.05189
 11
107.23581
 21
201.05189
  0
LINE
  8
1-0
  6
CONTINUOUS
 62
    7
 10
107.87503
 20
201.1019
 11
107.87503
 21
202.6819
  0
LINE
  8
1-0
  6
CONTINUOUS
 62
    7
 10
107.79454
 20
201.17188
 11
107.79454
 21
202.6119
  0
LINE
  8
1-0
  6
CONTINUOUS
 62
    7
 10
110.36581
 20
201.05189
 11
110.36581
 21
201.1419
  0
LINE
  8
1-0
  6
CONTINUOUS
 62
    7
 10
110.36581
 20
202.64189
 11
110.36581
 21
202.73189
  0
LINE
  8
1-0
  6
CONTINUOUS
 62
    7
 10
110.95504
 20
202.73189
 11
110.36581
 21
202.73189
  0
LINE
  8
1-0
  6
CONTINUOUS
 62
    7
 10
110.95504
 20
201.05189
 11
110.36581
 21
201.05189
  0
LINE
  8
1-0
  6
CONTINUOUS
 62
    7
 10
111.00504
 20
201.1019
 11
111.00504
 21
202.6819
  0
LINE
  8
1-0
  6
CONTINUOUS
 62
    7
 10
110.92454
 20
201.17188
 11
110.92454
 21
202.6119
  0
LINE
  8
1-0
  6
CONTINUOUS
 62
    7
 10
113.49582
 20
201.05189
 11
113.49582
 21
201.1419
  0
LINE
  8
1-0
  6
CONTINUOUS
 62
    7
 10
113.49582
 20
202.64189
 11
113.49582
 21
202.73189
  0
LINE
  8
1-0
  6
CONTINUOUS
 62
    7
 10
114.08502
 20
202.73189
 11
113.49582
 21
202.73189
  0
LINE
  8
1-0
  6
CONTINUOUS
 62
    7
 10
114.08502
 20
201.05189
 11
113.49582
 21
201.05189
  0
LINE
  8
1-0
  6
CONTINUOUS
 62
    7
 10
114.13503
 20
201.1019
 11
114.13503
 21
202.6819
  0
LINE
  8
1-0
  6
CONTINUOUS
 62
    7
 10
114.05455
 20
201.17188
 11
114.05455
 21
202.6119
  0
LINE
  8
1-0
  6
CONTINUOUS
 62
    7
 10
116.62582
 20
201.05189
 11
116.62582
 21
201.1419
  0
LINE
  8
1-0
  6
CONTINUOUS
 62
    7
 10
116.62582
 20
202.64189
 11
116.62582
 21
202.73189
  0
LINE
  8
1-0
  6
CONTINUOUS
 62
    7
 10
117.21502
 20
202.73189
 11
116.62582
 21
202.73189
  0
LINE
  8
1-0
  6
CONTINUOUS
 62
    7
 10
117.21502
 20
201.05189
 11
116.62582
 21
201.05189
  0
LINE
  8
1-0
  6
CONTINUOUS
 62
    7
 10
117.26503
 20
201.1019
 11
117.26503
 21
202.6819
  0
LINE
  8
1-0
  6
CONTINUOUS
 62
    7
 10
117.18455
 20
201.17188
 11
117.18455
 21
202.6119
  0
LINE
  8
1-0
  6
CONTINUOUS
 62
    7
 10
119.75582
 20
201.05189
 11
119.75582
 21
201.1419
  0
LINE
  8
1-0
  6
CONTINUOUS
 62
    7
 10
119.75582
 20
202.64189
 11
119.75582
 21
202.73189
  0
LINE
  8
1-0
  6
CONTINUOUS
 62
    7
 10
120.34502
 20
202.73189
 11
119.75582
 21
202.73189
  0
LINE
  8
1-0
  6
CONTINUOUS
 62
    7
 10
120.34502
 20
201.05189
 11
119.75582
 21
201.05189
  0
LINE
  8
1-0
  6
CONTINUOUS
 62
    7
 10
120.39503
 20
201.1019
 11
120.39503
 21
202.6819
  0
LINE
  8
1-0
  6
CONTINUOUS
 62
    7
 10
120.31455
 20
201.17188
 11
120.31455
 21
202.6119
  0
LINE
  8
1-0
  6
CONTINUOUS
 62
    7
 10
122.88582
 20
201.05189
 11
122.88582
 21
201.1419
  0
LINE
  8
1-0
  6
CONTINUOUS
 62
    7
 10
122.88582
 20
202.64189
 11
122.88582
 21
202.73189
  0
LINE
  8
1-0
  6
CONTINUOUS
 62
    7
 10
123.47503
 20
202.73189
 11
122.88582
 21
202.73189
  0
LINE
  8
1-0
  6
CONTINUOUS
 62
    7
 10
123.47503
 20
201.05189
 11
122.88582
 21
201.05189
  0
LINE
  8
1-0
  6
CONTINUOUS
 62
    7
 10
123.52503
 20
201.1019
 11
123.52503
 21
202.6819
  0
LINE
  8
1-0
  6
CONTINUOUS
 62
    7
 10
123.44455
 20
201.17188
 11
123.44455
 21
202.6119
  0
LINE
  8
1-0
  6
CONTINUOUS
 62
    7
 10
126.0158
 20
201.05189
 11
126.0158
 21
201.1419
  0
LINE
  8
1-0
  6
CONTINUOUS
 62
    7
 10
126.0158
 20
202.64189
 11
126.0158
 21
202.73189
  0
LINE
  8
1-0
  6
CONTINUOUS
 62
    7
 10
126.60503
 20
202.73189
 11
126.0158
 21
202.73189
  0
LINE
  8
1-0
  6
CONTINUOUS
 62
    7
 10
126.60503
 20
201.05189
 11
126.0158
 21
201.05189
  0
LINE
  8
1-0
  6
CONTINUOUS
 62
    7
 10
126.65504
 20
201.1019
 11
126.65504
 21
202.6819
  0
LINE
  8
1-0
  6
CONTINUOUS
 62
    7
 10
126.57456
 20
201.17188
 11
126.57456
 21
202.6119
  0
LINE
  8
1-0
  6
CONTINUOUS
 62
    7
 10
129.14582
 20
201.05189
 11
129.14582
 21
201.1419
  0
LINE
  8
1-0
  6
CONTINUOUS
 62
    7
 10
129.14582
 20
202.64189
 11
129.14582
 21
202.73189
  0
LINE
  8
1-0
  6
CONTINUOUS
 62
    7
 10
129.73503
 20
202.73189
 11
129.14582
 21
202.73189
  0
LINE
  8
1-0
  6
CONTINUOUS
 62
    7
 10
129.73503
 20
201.05189
 11
129.14582
 21
201.05189
  0
LINE
  8
1-0
  6
CONTINUOUS
 62
    7
 10
129.78504
 20
201.1019
 11
129.78504
 21
202.6819
  0
LINE
  8
1-0
  6
CONTINUOUS
 62
    7
 10
129.70455
 20
201.17188
 11
129.70455
 21
202.6119
  0
LINE
  8
1-0
  6
CONTINUOUS
 62
    7
 10
151.16135
 20
207.08189
 11
155.94136
 21
207.08189
  0
LINE
  8
1-0
  6
CONTINUOUS
 62
    7
 10
151.16135
 20
191.50189
 11
151.16135
 21
207.08189
  0
LINE
  8
1-0
  6
CONTINUOUS
 62
    7
 10
155.94136
 20
191.50189
 11
155.94136
 21
207.08189
  0
LINE
  8
1-0
  6
CONTINUOUS
 62
    7
 10
151.46135
 20
206.78189
 11
155.64136
 21
206.78189
  0
LINE
  8
1-0
  6
CONTINUOUS
 62
    7
 10
151.16135
 20
191.50189
 11
151.84072
 21
191.50189
  0
LINE
  8
1-0
  6
CONTINUOUS
 62
    7
 10
151.84072
 20
191.50189
 11
155.94136
 21
191.50189
  0
LINE
  8
1-0
  6
CONTINUOUS
 62
    7
 10
151.46135
 20
191.80188
 11
151.46135
 21
206.78189
  0
LINE
  8
1-0
  6
CONTINUOUS
 62
    7
 10
151.46135
 20
191.80188
 11
155.64136
 21
191.80188
  0
LINE
  8
1-0
  6
CONTINUOUS
 62
    7
 10
155.64136
 20
191.80188
 11
155.64136
 21
206.78189
  0
LINE
  8
1-0
  6
CONTINUOUS
 62
    7
 10
151.46135
 20
191.80188
 11
151.16135
 21
191.50189
  0
LINE
  8
1-0
  6
CONTINUOUS
 62
    7
 10
155.64136
 20
191.80188
 11
155.94136
 21
191.50189
  0
LINE
  8
1-0
  6
CONTINUOUS
 62
    7
 10
151.46135
 20
206.78189
 11
151.16135
 21
207.08189
  0
LINE
  8
1-0
  6
CONTINUOUS
 62
    7
 10
155.64136
 20
206.78189
 11
155.94136
 21
207.08189
  0
LINE
  8
1-0
  6
CONTINUOUS
 62
    7
 10
151.06136
 20
191.50189
 11
131.46137
 21
191.50189
  0
LINE
  8
1-0
  6
CONTINUOUS
 62
    7
 10
151.16135
 20
196.39189
 11
131.35135
 21
196.39189
  0
LINE
  8
1-0
  6
CONTINUOUS
 62
    7
 10
151.06136
 20
196.28189
 11
132.22682
 21
196.28189
  0
LINE
  8
1-0
  6
CONTINUOUS
 62
    7
 10
132.22682
 20
196.28189
 11
131.46137
 21
196.28189
  0
LINE
  8
1-0
  6
CONTINUOUS
 62
    7
 10
131.76137
 20
191.80188
 11
131.76137
 21
195.9819
  0
LINE
  8
1-0
  6
CONTINUOUS
 62
    7
 10
151.06136
 20
191.50189
 11
151.06136
 21
194.40728
  0
LINE
  8
1-0
  6
CONTINUOUS
 62
    7
 10
151.06136
 20
194.40728
 11
151.06136
 21
196.28189
  0
LINE
  8
1-0
  6
CONTINUOUS
 62
    7
 10
150.76137
 20
195.9819
 11
131.76137
 21
195.9819
  0
LINE
  8
1-0
  6
CONTINUOUS
 62
    7
 10
150.76137
 20
191.80188
 11
131.76137
 21
191.80188
  0
LINE
  8
1-0
  6
CONTINUOUS
 62
    7
 10
150.76137
 20
191.80188
 11
150.76137
 21
195.9819
  0
LINE
  8
1-0
  6
CONTINUOUS
 62
    7
 10
150.76137
 20
195.9819
 11
151.06136
 21
196.28189
  0
LINE
  8
1-0
  6
CONTINUOUS
 62
    7
 10
150.76137
 20
191.80188
 11
151.06136
 21
191.50189
  0
LINE
  8
1-0
  6
CONTINUOUS
 62
    7
 10
131.46137
 20
191.50189
 11
131.76137
 21
191.80188
  0
LINE
  8
1-0
  6
CONTINUOUS
 62
    7
 10
131.46137
 20
196.28189
 11
131.76137
 21
195.9819
  0
LINE
  8
1-0
  6
CONTINUOUS
 62
    7
 10
146.95136
 20
206.79189
 11
148.75136
 21
206.79189
  0
LINE
  8
1-0
  6
CONTINUOUS
 62
    7
 10
146.90137
 20
206.29188
 11
146.95136
 21
206.79189
  0
LINE
  8
1-0
  6
CONTINUOUS
 62
    7
 10
148.80136
 20
206.29188
 11
148.75136
 21
206.79189
  0
LINE
  8
1-0
  6
CONTINUOUS
 62
    7
 10
146.55136
 20
206.29188
 11
149.15136
 21
206.29188
  0
LINE
  8
1-0
  6
CONTINUOUS
 62
    7
 10
149.15136
 20
206.29188
 11
149.15136
 21
206.09188
  0
LINE
  8
1-0
  6
CONTINUOUS
 62
    7
 10
146.55136
 20
206.09188
 11
149.15136
 21
206.09188
  0
LINE
  8
1-0
  6
CONTINUOUS
 62
    7
 10
146.55136
 20
206.29188
 11
146.55136
 21
206.09188
  0
LINE
  8
1-0
  6
CONTINUOUS
 62
    7
 10
134.44975
 20
206.19189
 11
146.55136
 21
206.19189
  0
LINE
  8
1-0
  6
CONTINUOUS
 62
    7
 10
149.15136
 20
206.19189
 11
150.35135
 21
206.19189
  0
LINE
  8
1-0
  6
CONTINUOUS
 62
    7
 10
146.55136
 20
197.79188
 11
149.15136
 21
197.79188
  0
LINE
  8
1-0
  6
CONTINUOUS
 62
    7
 10
146.55136
 20
197.79188
 11
146.55136
 21
199.29189
  0
LINE
  8
1-0
  6
CONTINUOUS
 62
    7
 10
149.15136
 20
197.79188
 11
149.15136
 21
199.29189
  0
LINE
  8
1-0
  6
CONTINUOUS
 62
    7
 10
146.05136
 20
199.29189
 11
149.65136
 21
199.29189
  0
LINE
  8
1-0
  6
CONTINUOUS
 62
    7
 10
146.05136
 20
200.04189
 11
146.05136
 21
199.29189
  0
LINE
  8
1-0
  6
CONTINUOUS
 62
    7
 10
146.05136
 20
200.04189
 11
149.65136
 21
200.04189
  0
LINE
  8
1-0
  6
CONTINUOUS
 62
    7
 10
149.65136
 20
200.04189
 11
149.65136
 21
199.29189
  0
LINE
  8
1-0
  6
CONTINUOUS
 62
    7
 10
149.60137
 20
200.09188
 11
146.10136
 21
200.09188
  0
LINE
  8
1-0
  6
CONTINUOUS
 62
    7
 10
146.05136
 20
202.29188
 11
146.05136
 21
202.44189
  0
LINE
  8
1-0
  6
CONTINUOUS
 62
    7
 10
146.05136
 20
202.44189
 11
149.65136
 21
202.44189
  0
LINE
  8
1-0
  6
CONTINUOUS
 62
    7
 10
149.60136
 20
202.24189
 11
146.10136
 21
202.24189
  0
LINE
  8
1-0
  6
CONTINUOUS
 62
    7
 10
149.65135
 20
202.29188
 11
149.65135
 21
206.19189
  0
LINE
  8
1-0
  6
CONTINUOUS
 62
    7
 10
149.65135
 20
197.59188
 11
149.65135
 21
202.31414
  0
LINE
  8
1-0
  6
CONTINUOUS
 62
    7
 10
146.05136
 20
202.29188
 11
149.65135
 21
202.29188
  0
LINE
  8
1-0
  6
CONTINUOUS
 62
    7
 10
148.75136
 20
202.24189
 11
148.75136
 21
200.09188
  0
LINE
  8
1-0
  6
CONTINUOUS
 62
    7
 10
146.95136
 20
202.24189
 11
146.95136
 21
200.09188
  0
LINE
  8
1-0
  6
CONTINUOUS
 62
    7
 10
146.35136
 20
202.74189
 11
146.35136
 21
202.44189
  0
LINE
  8
1-0
  6
CONTINUOUS
 62
    7
 10
146.35136
 20
202.74189
 11
149.35137
 21
202.74189
  0
LINE
  8
1-0
  6
CONTINUOUS
 62
    7
 10
149.35137
 20
202.74189
 11
149.35137
 21
202.44189
  0
LINE
  8
1-0
  6
CONTINUOUS
 62
    7
 10
146.70136
 20
202.9419
 11
146.70136
 21
202.74189
  0
LINE
  8
1-0
  6
CONTINUOUS
 62
    7
 10
149.00136
 20
202.9419
 11
149.00136
 21
202.74189
  0
LINE
  8
1-0
  6
CONTINUOUS
 62
    7
 10
146.55136
 20
202.9419
 11
149.15136
 21
202.9419
  0
LINE
  8
1-0
  6
CONTINUOUS
 62
    7
 10
146.55136
 20
202.9419
 11
146.55136
 21
205.59188
  0
LINE
  8
1-0
  6
CONTINUOUS
 62
    7
 10
146.55136
 20
205.59188
 11
149.15136
 21
205.59188
  0
LINE
  8
1-0
  6
CONTINUOUS
 62
    7
 10
149.15136
 20
202.9419
 11
149.15136
 21
205.59188
  0
LINE
  8
1-0
  6
CONTINUOUS
 62
    7
 10
148.85137
 20
206.09188
 11
148.85137
 21
205.59188
  0
LINE
  8
1-0
  6
CONTINUOUS
 62
    7
 10
146.85136
 20
206.09188
 11
146.85136
 21
205.59188
  0
LINE
  8
1-0
  6
CONTINUOUS
 62
    7
 10
146.55136
 20
205.39187
 11
147.55137
 21
205.39187
  0
LINE
  8
1-0
  6
CONTINUOUS
 62
    7
 10
146.55136
 20
205.19187
 11
147.55137
 21
205.19187
  0
LINE
  8
1-0
  6
CONTINUOUS
 62
    7
 10
146.55136
 20
205.09188
 11
147.55137
 21
205.09188
  0
LINE
  8
1-0
  6
CONTINUOUS
 62
    7
 10
146.55136
 20
204.89187
 11
147.55137
 21
204.89187
  0
LINE
  8
1-0
  6
CONTINUOUS
 62
    7
 10
146.55136
 20
204.79187
 11
147.55137
 21
204.79187
  0
LINE
  8
1-0
  6
CONTINUOUS
 62
    7
 10
146.55136
 20
204.59186
 11
147.55137
 21
204.59186
  0
LINE
  8
1-0
  6
CONTINUOUS
 62
    7
 10
146.55136
 20
204.49187
 11
147.55137
 21
204.49187
  0
LINE
  8
1-0
  6
CONTINUOUS
 62
    7
 10
146.55136
 20
204.29187
 11
147.55137
 21
204.29187
  0
LINE
  8
1-0
  6
CONTINUOUS
 62
    7
 10
146.55136
 20
204.19188
 11
147.55137
 21
204.19188
  0
LINE
  8
1-0
  6
CONTINUOUS
 62
    7
 10
146.55136
 20
203.99187
 11
147.55137
 21
203.99187
  0
LINE
  8
1-0
  6
CONTINUOUS
 62
    7
 10
146.55136
 20
203.89187
 11
147.55137
 21
203.89187
  0
LINE
  8
1-0
  6
CONTINUOUS
 62
    7
 10
146.55136
 20
203.69186
 11
147.55137
 21
203.69186
  0
LINE
  8
1-0
  6
CONTINUOUS
 62
    7
 10
146.55136
 20
203.59187
 11
147.55137
 21
203.59187
  0
LINE
  8
1-0
  6
CONTINUOUS
 62
    7
 10
146.55136
 20
203.39187
 11
147.55137
 21
203.39187
  0
LINE
  8
1-0
  6
CONTINUOUS
 62
    7
 10
146.55136
 20
203.29188
 11
147.55137
 21
203.29188
  0
LINE
  8
1-0
  6
CONTINUOUS
 62
    7
 10
146.55136
 20
203.09187
 11
147.55137
 21
203.09187
  0
LINE
  8
1-0
  6
CONTINUOUS
 62
    7
 10
149.15136
 20
205.39187
 11
148.15136
 21
205.39187
  0
LINE
  8
1-0
  6
CONTINUOUS
 62
    7
 10
149.15136
 20
205.19187
 11
148.15136
 21
205.19187
  0
LINE
  8
1-0
  6
CONTINUOUS
 62
    7
 10
149.15136
 20
205.09188
 11
148.15136
 21
205.09188
  0
LINE
  8
1-0
  6
CONTINUOUS
 62
    7
 10
149.15136
 20
204.89187
 11
148.15136
 21
204.89187
  0
LINE
  8
1-0
  6
CONTINUOUS
 62
    7
 10
149.15136
 20
204.79187
 11
148.15136
 21
204.79187
  0
LINE
  8
1-0
  6
CONTINUOUS
 62
    7
 10
149.15136
 20
204.59186
 11
148.15136
 21
204.59186
  0
LINE
  8
1-0
  6
CONTINUOUS
 62
    7
 10
149.15136
 20
204.49187
 11
148.15136
 21
204.49187
  0
LINE
  8
1-0
  6
CONTINUOUS
 62
    7
 10
149.15136
 20
204.29187
 11
148.15136
 21
204.29187
  0
LINE
  8
1-0
  6
CONTINUOUS
 62
    7
 10
149.15136
 20
204.19188
 11
148.15136
 21
204.19188
  0
LINE
  8
1-0
  6
CONTINUOUS
 62
    7
 10
149.15136
 20
203.99187
 11
148.15136
 21
203.99187
  0
LINE
  8
1-0
  6
CONTINUOUS
 62
    7
 10
149.15136
 20
203.89187
 11
148.15136
 21
203.89187
  0
LINE
  8
1-0
  6
CONTINUOUS
 62
    7
 10
149.15136
 20
203.69186
 11
148.15136
 21
203.69186
  0
LINE
  8
1-0
  6
CONTINUOUS
 62
    7
 10
149.15136
 20
203.59187
 11
148.15136
 21
203.59187
  0
LINE
  8
1-0
  6
CONTINUOUS
 62
    7
 10
149.15136
 20
203.39187
 11
148.15136
 21
203.39187
  0
LINE
  8
1-0
  6
CONTINUOUS
 62
    7
 10
149.15136
 20
203.29188
 11
148.15136
 21
203.29188
  0
LINE
  8
1-0
  6
CONTINUOUS
 62
    7
 10
149.15136
 20
203.09187
 11
148.15136
 21
203.09187
  0
LINE
  8
1-0
  6
CONTINUOUS
 62
    7
 10
145.35134
 20
206.19189
 11
145.35134
 21
197.59188
  0
LINE
  8
1-0
  6
CONTINUOUS
 62
    7
 10
144.35134
 20
206.19189
 11
144.35134
 21
197.59188
  0
LINE
  8
1-0
  6
CONTINUOUS
 62
    7
 10
141.26135
 20
202.39189
 11
141.26135
 21
201.39188
  0
LINE
  8
1-0
  6
CONTINUOUS
 62
    7
 10
141.26135
 20
201.39188
 11
141.35134
 21
201.39188
  0
LINE
  8
1-0
  6
CONTINUOUS
 62
    7
 10
141.35134
 20
202.39189
 11
141.35134
 21
201.39188
  0
LINE
  8
1-0
  6
CONTINUOUS
 62
    7
 10
141.26135
 20
202.39189
 11
141.35134
 21
202.39189
  0
LINE
  8
1-0
  6
CONTINUOUS
 62
    7
 10
144.36631
 20
202.35189
 11
144.35134
 21
202.35189
  0
LINE
  8
1-0
  6
CONTINUOUS
 62
    7
 10
141.45632
 20
202.35055
 11
141.42132
 21
201.43055
  0
LINE
  8
1-0
  6
CONTINUOUS
 62
    7
 10
141.38638
 20
202.35322
 11
141.35138
 21
201.43322
  0
LINE
  8
1-0
  6
CONTINUOUS
 62
    7
 10
141.60632
 20
202.35055
 11
141.57132
 21
201.43055
  0
LINE
  8
1-0
  6
CONTINUOUS
 62
    7
 10
141.53638
 20
202.35322
 11
141.50138
 21
201.43322
  0
LINE
  8
1-0
  6
CONTINUOUS
 62
    7
 10
141.45607
 20
202.35623
 11
141.51772
 21
201.86297
  0
LINE
  8
1-0
  6
CONTINUOUS
 62
    7
 10
141.50161
 20
201.42754
 11
141.4435
 21
201.89247
  0
LINE
  8
1-0
  6
CONTINUOUS
 62
    7
 10
141.75631
 20
202.35055
 11
141.72131
 21
201.43055
  0
LINE
  8
1-0
  6
CONTINUOUS
 62
    7
 10
141.68637
 20
202.35322
 11
141.65137
 21
201.43322
  0
LINE
  8
1-0
  6
CONTINUOUS
 62
    7
 10
141.60607
 20
202.35623
 11
141.66772
 21
201.86297
  0
LINE
  8
1-0
  6
CONTINUOUS
 62
    7
 10
141.65161
 20
201.42754
 11
141.5935
 21
201.89247
  0
LINE
  8
1-0
  6
CONTINUOUS
 62
    7
 10
141.90631
 20
202.35055
 11
141.87131
 21
201.43055
  0
LINE
  8
1-0
  6
CONTINUOUS
 62
    7
 10
141.83637
 20
202.35322
 11
141.80137
 21
201.43322
  0
LINE
  8
1-0
  6
CONTINUOUS
 62
    7
 10
141.75607
 20
202.35623
 11
141.81772
 21
201.86297
  0
LINE
  8
1-0
  6
CONTINUOUS
 62
    7
 10
141.80161
 20
201.42754
 11
141.7435
 21
201.89247
  0
LINE
  8
1-0
  6
CONTINUOUS
 62
    7
 10
141.98637
 20
202.35322
 11
141.95137
 21
201.43322
  0
LINE
  8
1-0
  6
CONTINUOUS
 62
    7
 10
141.90606
 20
202.35623
 11
141.96771
 21
201.86297
  0
LINE
  8
1-0
  6
CONTINUOUS
 62
    7
 10
141.95161
 20
201.42754
 11
141.89349
 21
201.89247
  0
LINE
  8
1-0
  6
CONTINUOUS
 62
    7
 10
142.20632
 20
202.35055
 11
142.17132
 21
201.43055
  0
LINE
  8
1-0
  6
CONTINUOUS
 62
    7
 10
142.13638
 20
202.35322
 11
142.10138
 21
201.43322
  0
LINE
  8
1-0
  6
CONTINUOUS
 62
    7
 10
142.05607
 20
202.35623
 11
142.11772
 21
201.86297
  0
LINE
  8
1-0
  6
CONTINUOUS
 62
    7
 10
142.10162
 20
201.42754
 11
142.0435
 21
201.89247
  0
LINE
  8
1-0
  6
CONTINUOUS
 62
    7
 10
142.35632
 20
202.35055
 11
142.32132
 21
201.43055
  0
LINE
  8
1-0
  6
CONTINUOUS
 62
    7
 10
142.28638
 20
202.35322
 11
142.25138
 21
201.43322
  0
LINE
  8
1-0
  6
CONTINUOUS
 62
    7
 10
142.20607
 20
202.35623
 11
142.26772
 21
201.86297
  0
LINE
  8
1-0
  6
CONTINUOUS
 62
    7
 10
142.25161
 20
201.42754
 11
142.1935
 21
201.89247
  0
LINE
  8
1-0
  6
CONTINUOUS
 62
    7
 10
142.50632
 20
202.35055
 11
142.47132
 21
201.43055
  0
LINE
  8
1-0
  6
CONTINUOUS
 62
    7
 10
142.43638
 20
202.35322
 11
142.40138
 21
201.43322
  0
LINE
  8
1-0
  6
CONTINUOUS
 62
    7
 10
142.35607
 20
202.35623
 11
142.41772
 21
201.86297
  0
LINE
  8
1-0
  6
CONTINUOUS
 62
    7
 10
142.40161
 20
201.42754
 11
142.3435
 21
201.89247
  0
LINE
  8
1-0
  6
CONTINUOUS
 62
    7
 10
142.65631
 20
202.35055
 11
142.62131
 21
201.43055
  0
LINE
  8
1-0
  6
CONTINUOUS
 62
    7
 10
142.58638
 20
202.35322
 11
142.55137
 21
201.43322
  0
LINE
  8
1-0
  6
CONTINUOUS
 62
    7
 10
142.50607
 20
202.35623
 11
142.56772
 21
201.86297
  0
LINE
  8
1-0
  6
CONTINUOUS
 62
    7
 10
142.55161
 20
201.42754
 11
142.4935
 21
201.89247
  0
LINE
  8
1-0
  6
CONTINUOUS
 62
    7
 10
142.80631
 20
202.35055
 11
142.77131
 21
201.43055
  0
LINE
  8
1-0
  6
CONTINUOUS
 62
    7
 10
142.73637
 20
202.35322
 11
142.70137
 21
201.43322
  0
LINE
  8
1-0
  6
CONTINUOUS
 62
    7
 10
142.65607
 20
202.35623
 11
142.71772
 21
201.86297
  0
LINE
  8
1-0
  6
CONTINUOUS
 62
    7
 10
142.70161
 20
201.42754
 11
142.6435
 21
201.89247
  0
LINE
  8
1-0
  6
CONTINUOUS
 62
    7
 10
142.95631
 20
202.35055
 11
142.92131
 21
201.43055
  0
LINE
  8
1-0
  6
CONTINUOUS
 62
    7
 10
142.80606
 20
202.35623
 11
142.86771
 21
201.86297
  0
LINE
  8
1-0
  6
CONTINUOUS
 62
    7
 10
142.85161
 20
201.42754
 11
142.79349
 21
201.89247
  0
LINE
  8
1-0
  6
CONTINUOUS
 62
    7
 10
143.10632
 20
202.35055
 11
143.07132
 21
201.43055
  0
LINE
  8
1-0
  6
CONTINUOUS
 62
    7
 10
143.03638
 20
202.35322
 11
143.00138
 21
201.43322
  0
LINE
  8
1-0
  6
CONTINUOUS
 62
    7
 10
142.95607
 20
202.35623
 11
143.01772
 21
201.86297
  0
LINE
  8
1-0
  6
CONTINUOUS
 62
    7
 10
143.00162
 20
201.42754
 11
142.94351
 21
201.89247
  0
LINE
  8
1-0
  6
CONTINUOUS
 62
    7
 10
143.25632
 20
202.35055
 11
143.22132
 21
201.43055
  0
LINE
  8
1-0
  6
CONTINUOUS
 62
    7
 10
143.18638
 20
202.35322
 11
143.15138
 21
201.43322
  0
LINE
  8
1-0
  6
CONTINUOUS
 62
    7
 10
143.10607
 20
202.35623
 11
143.16772
 21
201.86297
  0
LINE
  8
1-0
  6
CONTINUOUS
 62
    7
 10
143.15161
 20
201.42754
 11
143.0935
 21
201.89247
  0
LINE
  8
1-0
  6
CONTINUOUS
 62
    7
 10
143.40632
 20
202.35055
 11
143.37132
 21
201.43055
  0
LINE
  8
1-0
  6
CONTINUOUS
 62
    7
 10
143.33638
 20
202.35322
 11
143.30138
 21
201.43322
  0
LINE
  8
1-0
  6
CONTINUOUS
 62
    7
 10
143.25607
 20
202.35623
 11
143.31772
 21
201.86297
  0
LINE
  8
1-0
  6
CONTINUOUS
 62
    7
 10
143.30161
 20
201.42754
 11
143.2435
 21
201.89247
  0
LINE
  8
1-0
  6
CONTINUOUS
 62
    7
 10
143.55631
 20
202.35055
 11
143.52131
 21
201.43055
  0
LINE
  8
1-0
  6
CONTINUOUS
 62
    7
 10
143.48638
 20
202.35322
 11
143.45138
 21
201.43322
  0
LINE
  8
1-0
  6
CONTINUOUS
 62
    7
 10
143.40607
 20
202.35623
 11
143.46772
 21
201.86297
  0
LINE
  8
1-0
  6
CONTINUOUS
 62
    7
 10
143.45161
 20
201.42754
 11
143.3935
 21
201.89247
  0
LINE
  8
1-0
  6
CONTINUOUS
 62
    7
 10
143.70631
 20
202.35055
 11
143.67131
 21
201.43055
  0
LINE
  8
1-0
  6
CONTINUOUS
 62
    7
 10
143.63637
 20
202.35322
 11
143.60137
 21
201.43322
  0
LINE
  8
1-0
  6
CONTINUOUS
 62
    7
 10
143.55607
 20
202.35623
 11
143.61772
 21
201.86297
  0
LINE
  8
1-0
  6
CONTINUOUS
 62
    7
 10
143.60161
 20
201.42754
 11
143.5435
 21
201.89247
  0
LINE
  8
1-0
  6
CONTINUOUS
 62
    7
 10
143.85631
 20
202.35055
 11
143.82131
 21
201.43055
  0
LINE
  8
1-0
  6
CONTINUOUS
 62
    7
 10
143.78637
 20
202.35322
 11
143.75137
 21
201.43322
  0
LINE
  8
1-0
  6
CONTINUOUS
 62
    7
 10
143.70607
 20
202.35623
 11
143.76771
 21
201.86297
  0
LINE
  8
1-0
  6
CONTINUOUS
 62
    7
 10
143.75161
 20
201.42754
 11
143.6935
 21
201.89247
  0
LINE
  8
1-0
  6
CONTINUOUS
 62
    7
 10
144.00632
 20
202.35055
 11
143.97132
 21
201.43055
  0
LINE
  8
1-0
  6
CONTINUOUS
 62
    7
 10
143.93638
 20
202.35322
 11
143.90138
 21
201.43322
  0
LINE
  8
1-0
  6
CONTINUOUS
 62
    7
 10
143.85608
 20
202.35623
 11
143.91773
 21
201.86297
  0
LINE
  8
1-0
  6
CONTINUOUS
 62
    7
 10
143.90162
 20
201.42754
 11
143.84351
 21
201.89247
  0
LINE
  8
1-0
  6
CONTINUOUS
 62
    7
 10
144.15632
 20
202.35055
 11
144.12132
 21
201.43055
  0
LINE
  8
1-0
  6
CONTINUOUS
 62
    7
 10
144.08638
 20
202.35322
 11
144.05138
 21
201.43322
  0
LINE
  8
1-0
  6
CONTINUOUS
 62
    7
 10
144.00607
 20
202.35623
 11
144.06772
 21
201.86297
  0
LINE
  8
1-0
  6
CONTINUOUS
 62
    7
 10
144.05161
 20
201.42754
 11
143.9935
 21
201.89247
  0
LINE
  8
1-0
  6
CONTINUOUS
 62
    7
 10
144.30632
 20
202.35055
 11
144.27132
 21
201.43055
  0
LINE
  8
1-0
  6
CONTINUOUS
 62
    7
 10
144.23638
 20
202.35322
 11
144.20138
 21
201.43322
  0
LINE
  8
1-0
  6
CONTINUOUS
 62
    7
 10
144.15607
 20
202.35623
 11
144.21772
 21
201.86297
  0
LINE
  8
1-0
  6
CONTINUOUS
 62
    7
 10
144.20161
 20
201.42754
 11
144.1435
 21
201.89247
  0
LINE
  8
1-0
  6
CONTINUOUS
 62
    7
 10
142.05631
 20
202.35055
 11
142.02131
 21
201.43055
  0
LINE
  8
1-0
  6
CONTINUOUS
 62
    7
 10
142.0694
 20
201.38679
 11
142.0694
 21
200.39188
  0
LINE
  8
1-0
  6
CONTINUOUS
 62
    7
 10
142.88637
 20
202.35322
 11
142.84959
 21
201.38644
  0
LINE
  8
1-0
  6
CONTINUOUS
 62
    7
 10
142.85138
 20
202.40078
 11
142.85138
 21
203.3919
  0
LINE
  8
1-0
  6
CONTINUOUS
 62
    7
 10
142.0694
 20
202.41826
 11
142.0694
 21
203.3919
  0
LINE
  8
1-0
  6
CONTINUOUS
 62
    7
 10
142.14994
 20
202.44448
 11
142.14994
 21
203.3919
  0
LINE
  8
1-0
  6
CONTINUOUS
 62
    7
 10
142.14994
 20
201.35182
 11
142.14994
 21
200.39188
  0
LINE
  8
1-0
  6
CONTINUOUS
 62
    7
 10
133.89535
 20
199.41152
 11
133.43353
 21
199.87336
  0
LINE
  8
1-0
  6
CONTINUOUS
 62
    7
 10
133.83172
 20
199.34788
 11
133.3699
 21
199.8097
  0
LINE
  8
1-0
  6
CONTINUOUS
 62
    7
 10
151.05134
 20
207.19189
 11
151.05134
 21
196.4468
  0
LINE
  8
1-0
  6
CONTINUOUS
 62
    7
 10
151.05134
 20
204.59189
 11
150.35135
 21
204.59189
  0
LINE
  8
1-0
  6
CONTINUOUS
 62
    7
 10
151.05134
 20
204.50189
 11
150.35135
 21
204.50189
  0
LINE
  8
1-0
  6
CONTINUOUS
 62
    7
 10
151.05134
 20
199.19188
 11
150.35135
 21
199.19188
  0
LINE
  8
1-0
  6
CONTINUOUS
 62
    7
 10
151.05134
 20
199.28188
 11
150.35135
 21
199.28188
  0
LINE
  8
1-0
  6
CONTINUOUS
 62
    7
 10
133.85134
 20
196.5919
 11
133.85134
 21
196.39189
  0
LINE
  8
1-0
  6
CONTINUOUS
 62
    7
 10
133.94134
 20
196.5919
 11
133.94134
 21
196.39189
  0
LINE
  8
1-0
  6
CONTINUOUS
 62
    7
 10
141.35134
 20
196.5919
 11
141.35134
 21
196.39189
  0
LINE
  8
1-0
  6
CONTINUOUS
 62
    7
 10
141.44133
 20
196.5919
 11
141.44133
 21
196.39189
  0
LINE
  8
1-0
  6
CONTINUOUS
 62
    7
 10
148.85134
 20
196.5919
 11
148.85134
 21
196.39189
  0
LINE
  8
1-0
  6
CONTINUOUS
 62
    7
 10
148.94133
 20
196.5919
 11
148.94133
 21
196.39189
  0
LINE
  8
1-0
  6
CONTINUOUS
 62
    7
 10
131.46137
 20
191.50189
 11
131.46137
 21
196.28189
  0
LINE
  8
1-0
  6
CENTER2
 62
    2
 10
131.35135
 20
203.14777
 11
131.35135
 21
199.94858
  0
LINE
  8
2-0
  6
CENTER2
 62
    2
 10
298.49217
 20
168.76244
 11
330.31196
 21
200.58224
  0
LINE
  8
2-0
  6
CENTER2
 62
    2
 10
301.07215
 20
200.00892
 11
331.45865
 21
169.62244
  0
LINE
  8
2-0
  6
CONTINUOUS
 62
    7
 10
316.53679
 20
205.89893
 11
318.58738
 21
207.94953
  0
LINE
  8
2-0
  6
CONTINUOUS
 62
    7
 10
316.53679
 20
205.89893
 11
318.65809
 21
203.7776
  0
LINE
  8
2-0
  6
CONTINUOUS
 62
    7
 10
318.65809
 20
203.7776
 11
320.7087
 21
205.82821
  0
LINE
  8
2-0
  6
CONTINUOUS
 62
    7
 10
314.27403
 20
205.89893
 11
312.22342
 21
207.94953
  0
LINE
  8
2-0
  6
CONTINUOUS
 62
    7
 10
314.27403
 20
205.89893
 11
312.1527
 21
203.7776
  0
LINE
  8
2-0
  6
CONTINUOUS
 62
    7
 10
312.1527
 20
203.7776
 11
310.10212
 21
205.82821
  0
LINE
  8
2-0
  6
CONTINUOUS
 62
    7
 10
316.53679
 20
165.45243
 11
318.58738
 21
163.40182
  0
LINE
  8
2-0
  6
CONTINUOUS
 62
    7
 10
316.53679
 20
165.45243
 11
318.65809
 21
167.57374
  0
LINE
  8
2-0
  6
CONTINUOUS
 62
    7
 10
318.65809
 20
167.57374
 11
320.70868
 21
165.52313
  0
LINE
  8
2-0
  6
CONTINUOUS
 62
    7
 10
314.27403
 20
165.45241
 11
312.1527
 21
167.57374
  0
LINE
  8
2-0
  6
CONTINUOUS
 62
    7
 10
312.1527
 20
167.57374
 11
310.10212
 21
165.52313
  0
LINE
  8
2-0
  6
CONTINUOUS
 62
    7
 10
295.18214
 20
184.5443
 11
293.13153
 21
182.49369
  0
LINE
  8
2-0
  6
CONTINUOUS
 62
    7
 10
295.18214
 20
184.5443
 11
297.30347
 21
182.42297
  0
LINE
  8
2-0
  6
CONTINUOUS
 62
    7
 10
297.30347
 20
182.42297
 11
295.25286
 21
180.37237
  0
LINE
  8
2-0
  6
CONTINUOUS
 62
    7
 10
295.18214
 20
186.80704
 11
293.13153
 21
188.85765
  0
LINE
  8
2-0
  6
CONTINUOUS
 62
    7
 10
295.18214
 20
186.80704
 11
297.30347
 21
188.92835
  0
LINE
  8
2-0
  6
CONTINUOUS
 62
    7
 10
297.30347
 20
188.92835
 11
295.25286
 21
190.97896
  0
LINE
  8
2-0
  6
CONTINUOUS
 62
    7
 10
335.62865
 20
184.54429
 11
337.67924
 21
182.49369
  0
LINE
  8
2-0
  6
CONTINUOUS
 62
    7
 10
335.62865
 20
184.54429
 11
333.50733
 21
182.42297
  0
LINE
  8
2-0
  6
CONTINUOUS
 62
    7
 10
333.50733
 20
182.42297
 11
335.55794
 21
180.37237
  0
LINE
  8
2-0
  6
CONTINUOUS
 62
    7
 10
335.62865
 20
186.80704
 11
337.67924
 21
188.85765
  0
LINE
  8
2-0
  6
CONTINUOUS
 62
    7
 10
335.62865
 20
186.80704
 11
333.50733
 21
188.92836
  0
LINE
  8
2-0
  6
CONTINUOUS
 62
    7
 10
333.50733
 20
188.92836
 11
335.55794
 21
190.97896
  0
LINE
  8
2-0
  6
CONTINUOUS
 62
    7
 10
272.42904
 20
178.17567
 11
272.42904
 21
193.17567
  0
LINE
  8
2-0
  6
CONTINUOUS
 62
    7
 10
272.42904
 20
193.17567
 11
281.42904
 21
193.17567
  0
LINE
  8
2-0
  6
CONTINUOUS
 62
    7
 10
272.42904
 20
178.17567
 11
281.42904
 21
178.17567
  0
LINE
  8
2-0
  6
CONTINUOUS
 62
    7
 10
281.42904
 20
193.67567
 11
282.62905
 21
193.67567
  0
LINE
  8
2-0
  6
CONTINUOUS
 62
    7
 10
282.62905
 20
177.67567
 11
282.62905
 21
193.67567
  0
LINE
  8
2-0
  6
CONTINUOUS
 62
    7
 10
281.42904
 20
177.67567
 11
282.62905
 21
177.67567
  0
LINE
  8
2-0
  6
CONTINUOUS
 62
    7
 10
281.42904
 20
177.67567
 11
281.42904
 21
193.67567
  0
LINE
  8
2-0
  6
CONTINUOUS
 62
    7
 10
282.62905
 20
192.4973
 11
292.33159
 21
202.19982
  0
LINE
  8
2-0
  6
CONTINUOUS
 62
    7
 10
352.62906
 20
182.17567
 11
352.62906
 21
189.17567
  0
LINE
  8
2-0
  6
CONTINUOUS
 62
    7
 10
352.62906
 20
189.17567
 11
353.82907
 21
189.17567
  0
LINE
  8
2-0
  6
CONTINUOUS
 62
    7
 10
353.82907
 20
182.17567
 11
353.82907
 21
189.17567
  0
LINE
  8
2-0
  6
CONTINUOUS
 62
    7
 10
352.62906
 20
182.17567
 11
353.82907
 21
182.17567
  0
LINE
  8
2-0
  6
CONTINUOUS
 62
    7
 10
305.29377
 20
154.77511
 11
304.44522
 21
155.62366
  0
LINE
  8
2-0
  6
CONTINUOUS
 62
    7
 10
313.77905
 20
163.26039
 11
305.29377
 21
154.77511
  0
LINE
  8
2-0
  6
CONTINUOUS
 62
    7
 10
313.77905
 20
163.26039
 11
312.93053
 21
164.10891
  0
LINE
  8
2-0
  6
CONTINUOUS
 62
    7
 10
305.15233
 20
156.33077
 11
282.62905
 21
178.85404
  0
LINE
  8
2-0
  6
CONTINUOUS
 62
    7
 10
311.37488
 20
162.55328
 11
288.25249
 21
185.67567
  0
LINE
  8
2-0
  6
CONTINUOUS
 62
    7
 10
312.22342
 20
163.4018
 11
289.94956
 21
185.67567
  0
LINE
  8
2-0
  6
CONTINUOUS
 62
    7
 10
306.00085
 20
157.17929
 11
282.62905
 21
180.5511
  0
LINE
  8
2-0
  6
CONTINUOUS
 62
    7
 10
316.53677
 20
165.45241
 11
326.36557
 21
155.62366
  0
LINE
  8
2-0
  6
CONTINUOUS
 62
    7
 10
325.51703
 20
154.77511
 11
326.36557
 21
155.62366
  0
LINE
  8
2-0
  6
CONTINUOUS
 62
    7
 10
317.03175
 20
163.26039
 11
325.51703
 21
154.77511
  0
LINE
  8
2-0
  6
CONTINUOUS
 62
    7
 10
317.03175
 20
163.26039
 11
317.88027
 21
164.10891
  0
LINE
  8
2-0
  6
CONTINUOUS
 62
    7
 10
340.86124
 20
185.67567
 11
318.58738
 21
163.4018
  0
LINE
  8
2-0
  6
CONTINUOUS
 62
    7
 10
342.55831
 20
185.67567
 11
319.43592
 21
162.55328
  0
LINE
  8
2-0
  6
CONTINUOUS
 62
    7
 10
352.62906
 20
184.99843
 11
324.80992
 21
157.17929
  0
LINE
  8
2-0
  6
CONTINUOUS
 62
    7
 10
352.62906
 20
183.30134
 11
325.65846
 21
156.33075
  0
LINE
  8
2-0
  6
CONTINUOUS
 62
    7
 10
317.3554
 20
224.27366
 11
317.3554
 21
208.27366
  0
LINE
  8
2-0
  6
CONTINUOUS
 62
    7
 10
316.15539
 20
208.27366
 11
317.3554
 21
208.27366
  0
LINE
  8
2-0
  6
CONTINUOUS
 62
    7
 10
316.15539
 20
224.27366
 11
317.3554
 21
224.27366
  0
LINE
  8
2-0
  6
CONTINUOUS
 62
    7
 10
316.15539
 20
224.27366
 11
316.15539
 21
208.27366
  0
LINE
  8
2-0
  6
CONTINUOUS
 62
    7
 10
317.3554
 20
223.32364
 11
352.62906
 21
188.05
  0
LINE
  8
2-0
  6
CONTINUOUS
 62
    7
 10
317.3554
 20
221.6266
 11
352.62906
 21
186.35291
  0
LINE
  8
2-0
  6
CONTINUOUS
 62
    7
 10
317.3554
 20
210.87858
 11
342.55831
 21
185.67567
  0
LINE
  8
2-0
  6
CONTINUOUS
 62
    7
 10
317.3554
 20
209.18151
 11
340.86124
 21
185.67567
  0
LINE
  8
2-0
  6
CONTINUOUS
 62
    7
 10
313.4554
 20
224.27366
 11
313.4554
 21
208.27366
  0
LINE
  8
2-0
  6
CONTINUOUS
 62
    7
 10
314.65541
 20
208.27366
 11
313.4554
 21
208.27366
  0
LINE
  8
2-0
  6
CONTINUOUS
 62
    7
 10
314.65541
 20
224.27366
 11
313.4554
 21
224.27366
  0
LINE
  8
2-0
  6
CONTINUOUS
 62
    7
 10
314.65541
 20
224.27366
 11
314.65541
 21
208.27366
  0
LINE
  8
2-0
  6
CONTINUOUS
 62
    7
 10
292.33159
 20
202.19982
 11
313.4554
 21
223.32364
  0
LINE
  8
2-0
  6
CONTINUOUS
 62
    7
 10
282.62905
 20
190.80023
 11
313.4554
 21
221.6266
  0
LINE
  8
2-0
  6
CONTINUOUS
 62
    7
 10
288.25249
 20
185.67567
 11
313.4554
 21
210.87858
  0
LINE
  8
2-0
  6
CONTINUOUS
 62
    7
 10
289.94956
 20
185.67567
 11
313.4554
 21
209.18151
  0
LINE
  8
2-0
  6
CONTINUOUS
 62
    7
 10
298.08127
 20
163.40183
 11
291.71732
 21
157.03786
  0
LINE
  8
2-0
  6
CONTINUOUS
 62
    7
 10
298.78835
 20
149.96682
 11
291.71732
 21
157.03786
  0
LINE
  8
2-0
  6
CONTINUOUS
 62
    7
 10
314.27403
 20
165.45241
 11
298.78835
 21
149.96682
  0
LINE
  8
2-0
  6
CENTER2
 62
    2
 10
301.61679
 20
152.79525
 11
294.54575
 21
159.86629
  0
LINE
  8
2-0
  6
CENTER2
 62
    2
 10
299.61587
 20
157.86534
 11
296.77266
 21
155.02213
  0
LINE
  8
2-0
  6
CENTER2
 62
    2
 10
311.35134
 20
155.67567
 11
321.08107
 21
155.67567
  0
LINE
  8
2-0
  6
CONTINUOUS
 62
    7
 10
313.27472
 20
162.75605
 11
317.88024
 21
158.15055
  0
LINE
  8
2-0
  6
CONTINUOUS
 62
    7
 10
305.7981
 20
155.27942
 11
314.26683
 21
152.36604
  0
LINE
  8
2-0
  6
CONTINUOUS
 62
    7
 10
325.01269
 20
155.27942
 11
316.54397
 21
152.36604
  0
LINE
  8
2-0
  6
CONTINUOUS
 62
    7
 10
317.53608
 20
162.75605
 11
315.4054
 21
160.62538
  0
LINE
  8
2-0
  6
CONTINUOUS
 62
    7
 10
319.1554
 20
211.37566
 11
318.95539
 21
211.17568
  0
LINE
  8
2-0
  6
CONTINUOUS
 62
    7
 10
319.1554
 20
213.97566
 11
319.1554
 21
211.37566
  0
LINE
  8
2-0
  6
CONTINUOUS
 62
    7
 10
318.95539
 20
214.17569
 11
319.1554
 21
213.97566
  0
LINE
  8
2-0
  6
CONTINUOUS
 62
    7
 10
318.95539
 20
214.17569
 11
318.95539
 21
211.17568
  0
LINE
  8
2-0
  6
CONTINUOUS
 62
    7
 10
317.95539
 20
212.67566
 11
318.95539
 21
212.67566
  0
LINE
  8
2-0
  6
CONTINUOUS
 62
    7
 10
318.95539
 20
211.17568
 11
318.1817
 21
211.17568
  0
LINE
  8
2-0
  6
CONTINUOUS
 62
    7
 10
318.1817
 20
211.17568
 11
317.95539
 21
211.17568
  0
LINE
  8
2-0
  6
CONTINUOUS
 62
    7
 10
317.65539
 20
211.07566
 11
317.95539
 21
211.07566
  0
LINE
  8
2-0
  6
CONTINUOUS
 62
    7
 10
317.3554
 20
214.47568
 11
317.65539
 21
214.47568
  0
LINE
  8
2-0
  6
CONTINUOUS
 62
    7
 10
318.95539
 20
214.17569
 11
317.95539
 21
214.17569
  0
LINE
  8
2-0
  6
CONTINUOUS
 62
    7
 10
317.95539
 20
214.27568
 11
317.95539
 21
211.07566
  0
LINE
  8
2-0
  6
CONTINUOUS
 62
    7
 10
317.65539
 20
214.27568
 11
317.95539
 21
214.27568
  0
LINE
  8
2-0
  6
CONTINUOUS
 62
    7
 10
317.65539
 20
214.47568
 11
317.65539
 21
210.87568
  0
LINE
  8
2-0
  6
CONTINUOUS
 62
    7
 10
317.3554
 20
210.87568
 11
317.65539
 21
210.87568
  0
LINE
  8
2-0
  6
CONTINUOUS
 62
    7
 10
313.4554
 20
214.47568
 11
313.1554
 21
214.47568
  0
LINE
  8
2-0
  6
CONTINUOUS
 62
    7
 10
313.1554
 20
214.47568
 11
313.1554
 21
210.87568
  0
LINE
  8
2-0
  6
CONTINUOUS
 62
    7
 10
313.4554
 20
210.87568
 11
313.1554
 21
210.87568
  0
LINE
  8
2-0
  6
CONTINUOUS
 62
    7
 10
321.9554
 20
213.42567
 11
322.15541
 21
213.22567
  0
LINE
  8
2-0
  6
CONTINUOUS
 62
    7
 10
322.15541
 20
212.12567
 11
322.15541
 21
213.22567
  0
LINE
  8
2-0
  6
CONTINUOUS
 62
    7
 10
322.15541
 20
212.12567
 11
321.9554
 21
211.92567
  0
LINE
  8
2-0
  6
CONTINUOUS
 62
    7
 10
322.15541
 20
213.22567
 11
319.18838
 21
213.22567
  0
LINE
  8
2-0
  6
CONTINUOUS
 62
    7
 10
322.15541
 20
212.12567
 11
319.16512
 21
212.12567
  0
LINE
  8
2-0
  6
CONTINUOUS
 62
    7
 10
321.9554
 20
211.92567
 11
319.1554
 21
211.92567
  0
LINE
  8
2-0
  6
CONTINUOUS
 62
    7
 10
316.15539
 20
211.92567
 11
314.65541
 21
211.92567
  0
LINE
  8
2-0
  6
CONTINUOUS
 62
    7
 10
321.9554
 20
213.42567
 11
319.1554
 21
213.42567
  0
LINE
  8
2-0
  6
CONTINUOUS
 62
    7
 10
316.15539
 20
213.42567
 11
314.65541
 21
213.42567
  0
LINE
  8
2-0
  6
CONTINUOUS
 62
    7
 10
312.35541
 20
214.17569
 11
313.1554
 21
214.17569
  0
LINE
  8
2-0
  6
CONTINUOUS
 62
    7
 10
312.1554
 20
213.97566
 11
312.35541
 21
214.17569
  0
LINE
  8
2-0
  6
CONTINUOUS
 62
    7
 10
312.1554
 20
211.37566
 11
312.1554
 21
213.97566
  0
LINE
  8
2-0
  6
CONTINUOUS
 62
    7
 10
312.35541
 20
211.17568
 11
313.1554
 21
211.17568
  0
LINE
  8
2-0
  6
CONTINUOUS
 62
    7
 10
312.1554
 20
211.37566
 11
312.35541
 21
211.17568
  0
LINE
  8
2-0
  6
CONTINUOUS
 62
    7
 10
312.35541
 20
214.17569
 11
312.35541
 21
211.17568
  0
LINE
  8
2-0
  6
CONTINUOUS
 62
    7
 10
312.35541
 20
212.67566
 11
313.1554
 21
212.67566
  0
LINE
  8
2-0
  6
CENTER2
 62
    2
 10
313.97106
 20
212.67566
 11
321.08107
 21
212.67566
  0
LINE
  8
2-0
  6
CONTINUOUS
 62
    7
 10
319.1554
 20
217.37568
 11
318.95539
 21
217.17565
  0
LINE
  8
2-0
  6
CONTINUOUS
 62
    7
 10
319.1554
 20
219.97568
 11
319.1554
 21
217.37568
  0
LINE
  8
2-0
  6
CONTINUOUS
 62
    7
 10
318.95539
 20
220.17566
 11
319.1554
 21
219.97568
  0
LINE
  8
2-0
  6
CONTINUOUS
 62
    7
 10
318.95539
 20
220.17566
 11
318.95539
 21
217.17565
  0
LINE
  8
2-0
  6
CONTINUOUS
 62
    7
 10
317.95539
 20
218.67568
 11
318.95539
 21
218.67568
  0
LINE
  8
2-0
  6
CONTINUOUS
 62
    7
 10
318.95539
 20
217.17565
 11
318.1817
 21
217.17565
  0
LINE
  8
2-0
  6
CONTINUOUS
 62
    7
 10
318.1817
 20
217.17565
 11
317.95539
 21
217.17565
  0
LINE
  8
2-0
  6
CONTINUOUS
 62
    7
 10
317.65539
 20
217.07566
 11
317.95539
 21
217.07566
  0
LINE
  8
2-0
  6
CONTINUOUS
 62
    7
 10
317.3554
 20
220.47566
 11
317.65539
 21
220.47566
  0
LINE
  8
2-0
  6
CONTINUOUS
 62
    7
 10
318.95539
 20
220.17566
 11
317.95539
 21
220.17566
  0
LINE
  8
2-0
  6
CONTINUOUS
 62
    7
 10
317.95539
 20
220.27567
 11
317.95539
 21
217.07566
  0
LINE
  8
2-0
  6
CONTINUOUS
 62
    7
 10
317.65539
 20
220.27567
 11
317.95539
 21
220.27567
  0
LINE
  8
2-0
  6
CONTINUOUS
 62
    7
 10
317.65539
 20
220.47566
 11
317.65539
 21
216.87565
  0
LINE
  8
2-0
  6
CONTINUOUS
 62
    7
 10
317.3554
 20
216.87565
 11
317.65539
 21
216.87565
  0
LINE
  8
2-0
  6
CONTINUOUS
 62
    7
 10
313.4554
 20
220.47566
 11
313.1554
 21
220.47566
  0
LINE
  8
2-0
  6
CONTINUOUS
 62
    7
 10
313.1554
 20
220.47566
 11
313.1554
 21
216.87565
  0
LINE
  8
2-0
  6
CONTINUOUS
 62
    7
 10
313.4554
 20
216.87565
 11
313.1554
 21
216.87565
  0
LINE
  8
2-0
  6
CONTINUOUS
 62
    7
 10
321.9554
 20
219.42567
 11
322.15541
 21
219.22566
  0
LINE
  8
2-0
  6
CONTINUOUS
 62
    7
 10
322.15541
 20
218.12567
 11
322.15541
 21
219.22566
  0
LINE
  8
2-0
  6
CONTINUOUS
 62
    7
 10
322.15541
 20
218.12567
 11
321.9554
 21
217.92566
  0
LINE
  8
2-0
  6
CONTINUOUS
 62
    7
 10
322.15541
 20
219.22566
 11
319.18838
 21
219.22566
  0
LINE
  8
2-0
  6
CONTINUOUS
 62
    7
 10
322.15541
 20
218.12567
 11
319.16512
 21
218.12567
  0
LINE
  8
2-0
  6
CONTINUOUS
 62
    7
 10
321.9554
 20
217.92566
 11
319.1554
 21
217.92566
  0
LINE
  8
2-0
  6
CONTINUOUS
 62
    7
 10
316.15539
 20
217.92566
 11
314.65541
 21
217.92566
  0
LINE
  8
2-0
  6
CONTINUOUS
 62
    7
 10
321.9554
 20
219.42567
 11
319.1554
 21
219.42567
  0
LINE
  8
2-0
  6
CONTINUOUS
 62
    7
 10
316.15539
 20
219.42567
 11
314.65541
 21
219.42567
  0
LINE
  8
2-0
  6
CONTINUOUS
 62
    7
 10
312.35541
 20
220.17566
 11
313.1554
 21
220.17566
  0
LINE
  8
2-0
  6
CONTINUOUS
 62
    7
 10
312.1554
 20
219.97568
 11
312.35541
 21
220.17566
  0
LINE
  8
2-0
  6
CONTINUOUS
 62
    7
 10
312.1554
 20
217.37568
 11
312.1554
 21
219.97568
  0
LINE
  8
2-0
  6
CONTINUOUS
 62
    7
 10
312.35541
 20
217.17565
 11
313.1554
 21
217.17565
  0
LINE
  8
2-0
  6
CONTINUOUS
 62
    7
 10
312.1554
 20
217.37568
 11
312.35541
 21
217.17565
  0
LINE
  8
2-0
  6
CONTINUOUS
 62
    7
 10
312.35541
 20
220.17566
 11
312.35541
 21
217.17565
  0
LINE
  8
2-0
  6
CONTINUOUS
 62
    7
 10
312.35541
 20
218.67568
 11
313.1554
 21
218.67568
  0
LINE
  8
2-0
  6
CENTER2
 62
    2
 10
313.97106
 20
218.67568
 11
321.08107
 21
218.67568
  0
LINE
  8
2-0
  6
CONTINUOUS
 62
    7
 10
281.42904
 20
126.25514
 11
281.42904
 21
114.25513
  0
LINE
  8
2-0
  6
CONTINUOUS
 62
    7
 10
353.82907
 20
126.25514
 11
353.82907
 21
114.25513
  0
LINE
  8
2-0
  6
CONTINUOUS
 62
    7
 10
352.62906
 20
126.25514
 11
352.62906
 21
114.25513
  0
LINE
  8
2-0
  6
CONTINUOUS
 62
    7
 10
282.62905
 20
126.25514
 11
282.62905
 21
114.25513
  0
LINE
  8
2-0
  6
CONTINUOUS
 62
    7
 10
352.62906
 20
126.25514
 11
353.82907
 21
126.25514
  0
LINE
  8
2-0
  6
CONTINUOUS
 62
    7
 10
281.42904
 20
114.25513
 11
282.62905
 21
114.25513
  0
LINE
  8
2-0
  6
CONTINUOUS
 62
    7
 10
352.62906
 20
114.25513
 11
353.82907
 21
114.25513
  0
LINE
  8
2-0
  6
CONTINUOUS
 62
    7
 10
281.42904
 20
126.25514
 11
282.62905
 21
126.25514
  0
LINE
  8
2-0
  6
CONTINUOUS
 62
    7
 10
304.44522
 20
126.25514
 11
313.77905
 21
126.25514
  0
LINE
  8
2-0
  6
CONTINUOUS
 62
    7
 10
304.44522
 20
114.25513
 11
313.77905
 21
114.25513
  0
LINE
  8
2-0
  6
CONTINUOUS
 62
    7
 10
304.44522
 20
126.25514
 11
304.44522
 21
114.25513
  0
LINE
  8
2-0
  6
CONTINUOUS
 62
    7
 10
305.29377
 20
126.25514
 11
305.29377
 21
114.25513
  0
LINE
  8
2-0
  6
CONTINUOUS
 62
    7
 10
282.62905
 20
125.25515
 11
304.44522
 21
125.25515
  0
LINE
  8
2-0
  6
CONTINUOUS
 62
    7
 10
282.62905
 20
115.25514
 11
304.44522
 21
115.25514
  0
LINE
  8
2-0
  6
CONTINUOUS
 62
    7
 10
326.36557
 20
126.25514
 11
317.03175
 21
126.25514
  0
LINE
  8
2-0
  6
CONTINUOUS
 62
    7
 10
326.36557
 20
114.25513
 11
317.03175
 21
114.25513
  0
LINE
  8
2-0
  6
CONTINUOUS
 62
    7
 10
326.36557
 20
126.25514
 11
326.36557
 21
114.25513
  0
LINE
  8
2-0
  6
CONTINUOUS
 62
    7
 10
325.51703
 20
126.25514
 11
325.51703
 21
114.25513
  0
LINE
  8
2-0
  6
CONTINUOUS
 62
    7
 10
326.36557
 20
125.25515
 11
352.62906
 21
125.25515
  0
LINE
  8
2-0
  6
CONTINUOUS
 62
    7
 10
326.36557
 20
115.25514
 11
352.62906
 21
115.25514
  0
LINE
  8
2-0
  6
CONTINUOUS
 62
    7
 10
291.71732
 20
121.35514
 11
304.44522
 21
121.35514
  0
LINE
  8
2-0
  6
CONTINUOUS
 62
    7
 10
291.71732
 20
121.35514
 11
291.71732
 21
119.15514
  0
LINE
  8
2-0
  6
CONTINUOUS
 62
    7
 10
291.71732
 20
119.15514
 11
304.44522
 21
119.15514
  0
LINE
  8
2-0
  6
CONTINUOUS
 62
    7
 10
298.78835
 20
121.35514
 11
298.78835
 21
119.15514
  0
LINE
  8
2-0
  6
CONTINUOUS
 62
    7
 10
281.42904
 20
121.35514
 11
272.42904
 21
121.35514
  0
LINE
  8
2-0
  6
CONTINUOUS
 62
    7
 10
272.42904
 20
121.35514
 11
272.42904
 21
119.15514
  0
LINE
  8
2-0
  6
CONTINUOUS
 62
    7
 10
281.42904
 20
119.15514
 11
272.42904
 21
119.15514
  0
LINE
  8
2-0
  6
CONTINUOUS
 62
    7
 10
311.90539
 20
121.55513
 11
325.51703
 21
121.55513
  0
LINE
  8
2-0
  6
CENTER2
 62
    2
 10
270.57064
 20
120.25513
 11
364.2325
 21
120.25513
  0
LINE
  8
2-0
  6
CONTINUOUS
 62
    7
 10
311.90539
 20
121.55513
 11
311.90539
 21
118.95513
  0
LINE
  8
2-0
  6
CONTINUOUS
 62
    7
 10
311.90539
 20
118.95513
 11
325.51703
 21
118.95513
  0
LINE
  8
2-0
  6
CONTINUOUS
 62
    7
 10
305.29377
 20
123.55514
 11
318.90541
 21
123.55514
  0
LINE
  8
2-0
  6
CONTINUOUS
 62
    7
 10
305.29377
 20
121.95514
 11
318.90541
 21
121.95514
  0
LINE
  8
2-0
  6
CONTINUOUS
 62
    7
 10
305.29377
 20
118.55514
 11
318.90541
 21
118.55514
  0
LINE
  8
2-0
  6
CONTINUOUS
 62
    7
 10
318.90541
 20
123.55514
 11
318.90541
 21
121.95514
  0
LINE
  8
2-0
  6
CONTINUOUS
 62
    7
 10
317.03175
 20
116.95514
 11
317.03175
 21
114.25513
  0
LINE
  8
2-0
  6
CONTINUOUS
 62
    7
 10
317.03175
 20
118.95513
 11
317.03175
 21
118.55514
  0
LINE
  8
2-0
  6
CONTINUOUS
 62
    7
 10
317.03175
 20
121.95514
 11
317.03175
 21
121.55513
  0
LINE
  8
2-0
  6
CONTINUOUS
 62
    7
 10
313.77905
 20
121.95514
 11
313.77905
 21
121.55513
  0
LINE
  8
2-0
  6
CONTINUOUS
 62
    7
 10
313.77905
 20
118.95513
 11
313.77905
 21
118.55514
  0
LINE
  8
2-0
  6
CONTINUOUS
 62
    7
 10
313.77905
 20
116.95514
 11
313.77905
 21
114.25513
  0
LINE
  8
2-0
  6
CONTINUOUS
 62
    7
 10
313.40539
 20
124.45514
 11
317.4054
 21
124.45514
  0
LINE
  8
2-0
  6
CONTINUOUS
 62
    7
 10
313.40539
 20
123.55514
 11
313.40539
 21
124.45514
  0
LINE
  8
2-0
  6
CONTINUOUS
 62
    7
 10
317.4054
 20
123.55514
 11
317.4054
 21
124.45514
  0
LINE
  8
2-0
  6
CONTINUOUS
 62
    7
 10
313.77905
 20
126.25514
 11
313.77905
 21
124.45514
  0
LINE
  8
2-0
  6
CONTINUOUS
 62
    7
 10
317.03175
 20
126.25514
 11
317.03175
 21
124.45514
  0
LINE
  8
2-0
  6
CONTINUOUS
 62
    7
 10
313.90539
 20
114.75514
 11
314.1054
 21
114.55513
  0
LINE
  8
2-0
  6
CONTINUOUS
 62
    7
 10
316.7054
 20
114.55513
 11
314.1054
 21
114.55513
  0
LINE
  8
2-0
  6
CONTINUOUS
 62
    7
 10
316.7054
 20
114.55513
 11
316.9054
 21
114.75514
  0
LINE
  8
2-0
  6
CONTINUOUS
 62
    7
 10
318.90541
 20
118.55514
 11
318.90541
 21
116.95514
  0
LINE
  8
2-0
  6
CONTINUOUS
 62
    7
 10
318.90541
 20
116.95514
 11
305.29377
 21
116.95514
  0
LINE
  8
2-0
  6
CONTINUOUS
 62
    7
 10
313.90539
 20
121.55513
 11
313.90539
 21
121.95514
  0
LINE
  8
2-0
  6
CONTINUOUS
 62
    7
 10
316.9054
 20
121.55513
 11
316.9054
 21
121.95514
  0
LINE
  8
2-0
  6
CONTINUOUS
 62
    7
 10
316.9054
 20
114.75514
 11
316.9054
 21
116.95514
  0
LINE
  8
2-0
  6
CONTINUOUS
 62
    7
 10
316.9054
 20
118.55514
 11
316.9054
 21
118.95513
  0
LINE
  8
2-0
  6
CONTINUOUS
 62
    7
 10
313.90539
 20
114.75514
 11
313.90539
 21
116.95514
  0
LINE
  8
2-0
  6
CONTINUOUS
 62
    7
 10
313.90539
 20
118.55514
 11
313.90539
 21
118.95513
  0
LINE
  8
2-0
  6
CONTINUOUS
 62
    7
 10
298.08127
 20
207.94951
 11
291.71732
 21
214.31346
  0
LINE
  8
2-0
  6
CONTINUOUS
 62
    7
 10
298.78835
 20
221.3845
 11
291.71732
 21
214.31346
  0
LINE
  8
2-0
  6
CENTER2
 62
    2
 10
301.61679
 20
218.55609
 11
294.54575
 21
211.48505
  0
LINE
  8
2-0
  6
CENTER2
 62
    2
 10
299.61587
 20
213.486
 11
296.77266
 21
216.32921
  0
LINE
  8
2-0
  6
CONTINUOUS
 62
    7
 10
298.78835
 20
221.3845
 11
305.15231
 21
215.02055
  0
LINE
  8
2-0
  6
CENTER2
 62
    2
 10
299.18918
 20
185.67567
 11
327.99281
 21
185.67567
  0
LINE
  8
2-0
  6
CENTER2
 62
    2
 10
315.4054
 20
227.99768
 11
315.4054
 21
172.16068
  0
LINE
  8
2-0
  6
CENTER2
 62
    2
 10
315.4054
 20
162.84077
 11
315.4054
 21
151.83909
  0
LINE
  8
2-0
  6
CONTINUOUS
 62
    7
 10
302.29188
 20
85.809259
 11
302.29188
 21
95.809292
  0
LINE
  8
2-0
  6
CONTINUOUS
 62
    7
 10
322.29182
 20
95.809292
 11
322.29182
 21
85.809259
  0
LINE
  8
2-0
  6
CONTINUOUS
 62
    7
 10
322.29182
 20
85.809259
 11
302.29188
 21
85.809259
  0
LINE
  8
2-0
  6
CONTINUOUS
 62
    7
 10
301.79185
 20
97.009313
 11
322.79182
 21
97.009313
  0
LINE
  8
2-0
  6
CONTINUOUS
 62
    7
 10
322.79182
 20
97.009313
 11
322.79182
 21
95.809292
  0
LINE
  8
2-0
  6
CONTINUOUS
 62
    7
 10
301.79185
 20
95.809292
 11
301.79185
 21
97.009313
  0
LINE
  8
2-0
  6
CONTINUOUS
 62
    7
 10
301.79185
 20
95.809292
 11
322.79182
 21
95.809292
  0
LINE
  8
2-0
  6
CENTER2
 62
    2
 10
311.44604
 20
90.809275
 11
313.50016
 21
90.809275
  0
LINE
  8
2-0
  6
CONTINUOUS
 62
    7
 10
302.29188
 20
94.809264
 11
322.29182
 21
94.809264
  0
LINE
  8
2-0
  6
CENTER2
 62
    2
 10
319.29186
 20
97.938264
 11
319.29186
 21
94.071708
  0
LINE
  8
2-0
  6
DASHED1
 62
    7
 10
306.39183
 20
97.009313
 11
306.39183
 21
94.809264
  0
LINE
  8
2-0
  6
DASHED1
 62
    7
 10
304.19185
 20
97.009313
 11
304.19185
 21
94.809264
  0
LINE
  8
2-0
  6
DASHED1
 62
    7
 10
320.39185
 20
97.009313
 11
320.39185
 21
94.809264
  0
LINE
  8
2-0
  6
DASHED1
 62
    7
 10
318.19187
 20
97.009313
 11
318.19187
 21
94.809264
  0
LINE
  8
2-0
  6
CONTINUOUS
 62
    7
 10
301.79185
 20
77.297298
 11
322.79182
 21
77.297298
  0
LINE
  8
2-0
  6
CONTINUOUS
 62
    7
 10
322.79182
 20
77.297298
 11
322.79182
 21
57.297294
  0
LINE
  8
2-0
  6
CONTINUOUS
 62
    7
 10
301.79185
 20
57.297294
 11
322.79182
 21
57.297294
  0
LINE
  8
2-0
  6
CONTINUOUS
 62
    7
 10
301.79185
 20
77.297298
 11
301.79185
 21
57.297294
  0
LINE
  8
2-0
  6
CENTER2
 62
    2
 10
305.29184
 20
97.938264
 11
305.29184
 21
94.071708
  0
LINE
  8
2-0
  6
CENTER2
 62
    2
 10
305.29184
 20
72.797296
 11
305.29184
 21
61.797297
  0
LINE
  8
2-0
  6
CENTER2
 62
    2
 10
312.29184
 20
69.742125
 11
312.29184
 21
64.498288
  0
LINE
  8
2-0
  6
DASHED1
 62
    7
 10
313.69185
 20
68.297293
 11
313.69185
 21
66.297299
  0
LINE
  8
2-0
  6
DASHED1
 62
    7
 10
310.89182
 20
68.297293
 11
310.89182
 21
66.297299
  0
LINE
  8
2-0
  6
CONTINUOUS
 62
    7
 10
302.29188
 20
77.297298
 11
302.29188
 21
57.297294
  0
LINE
  8
2-0
  6
CONTINUOUS
 62
    7
 10
322.29182
 20
77.297298
 11
322.29182
 21
57.297294
  0
LINE
  8
2-0
  6
CONTINUOUS
 62
    7
 10
302.29188
 20
66.297299
 11
322.29182
 21
66.297299
  0
LINE
  8
2-0
  6
CONTINUOUS
 62
    7
 10
302.29188
 20
68.297293
 11
322.29182
 21
68.297293
  0
LINE
  8
2-0
  6
CONTINUOUS
 62
    7
 10
302.29188
 20
67.297296
 11
322.29182
 21
67.297296
  0
LINE
  8
2-0
  6
CONTINUOUS
 62
    7
 10
343.36216
 20
77.297298
 11
343.36216
 21
57.297294
  0
LINE
  8
2-0
  6
CONTINUOUS
 62
    7
 10
342.16215
 20
77.297298
 11
342.16215
 21
57.297294
  0
LINE
  8
2-0
  6
CONTINUOUS
 62
    7
 10
341.16213
 20
77.297298
 11
343.36216
 21
77.297298
  0
LINE
  8
2-0
  6
CONTINUOUS
 62
    7
 10
341.16213
 20
57.297294
 11
343.36216
 21
57.297294
  0
LINE
  8
2-0
  6
CONTINUOUS
 62
    7
 10
332.1622
 20
67.297296
 11
342.16215
 21
67.297296
  0
LINE
  8
2-0
  6
CONTINUOUS
 62
    7
 10
332.1622
 20
68.297293
 11
341.16213
 21
68.297293
  0
LINE
  8
2-0
  6
CONTINUOUS
 62
    7
 10
332.1622
 20
68.297293
 11
332.1622
 21
66.297299
  0
LINE
  8
2-0
  6
CONTINUOUS
 62
    7
 10
332.1622
 20
66.297299
 11
341.16213
 21
66.297299
  0
LINE
  8
2-0
  6
CONTINUOUS
 62
    7
 10
341.16213
 20
77.297298
 11
341.16213
 21
68.297293
  0
LINE
  8
2-0
  6
CONTINUOUS
 62
    7
 10
341.16213
 20
66.297299
 11
341.16213
 21
57.297294
  0
LINE
  8
2-0
  6
CENTER2
 62
    2
 10
319.29186
 20
72.797296
 11
319.29186
 21
61.797297
  0
LINE
  8
2-0
  6
CENTER2
 62
    2
 10
339.77889
 20
61.797297
 11
345.65551
 21
61.797297
  0
LINE
  8
2-0
  6
CENTER2
 62
    2
 10
339.49223
 20
72.797296
 11
344.93885
 21
72.797296
  0
LINE
  8
2-0
  6
DASHED1
 62
    7
 10
341.16213
 20
73.89729
 11
343.36216
 21
73.89729
  0
LINE
  8
2-0
  6
DASHED1
 62
    7
 10
341.16213
 20
71.697302
 11
343.36216
 21
71.697302
  0
LINE
  8
2-0
  6
DASHED1
 62
    7
 10
341.16213
 20
62.89729
 11
343.36216
 21
62.89729
  0
LINE
  8
2-0
  6
DASHED1
 62
    7
 10
341.16213
 20
60.697303
 11
343.36216
 21
60.697303
  0
LINE
  8
2-0
  6
CENTER2
 62
    2
 10
337.16214
 20
68.693073
 11
337.16214
 21
65.900035
  0
LINE
  8
2-0
  6
DASHED1
 62
    7
 10
338.56215
 20
68.297293
 11
338.56215
 21
66.297299
  0
LINE
  8
2-0
  6
DASHED1
 62
    7
 10
335.76212
 20
68.297293
 11
335.76212
 21
66.297299
  0
LINE
  8
2-0
  6
CENTER2
 62
    2
 10
342.16215
 20
67.297296
 11
344.66172
 21
67.297296
  0
ARC
  8
0-0
  6
CONTINUOUS
 62
    7
 10
211.30455
 20
286.77228
 40
1
 50
173.45239
 51
174.23765
  0
ARC
  8
0-0
  6
CONTINUOUS
 62
    7
 10
211.30455
 20
286.77228
 40
0.2
 50
211.20764
 51
329.32518
  0
ARC
  8
0-0
  6
CONTINUOUS
 62
    7
 10
211.30455
 20
286.77228
 40
0.2
 50
31.315933
 51
150.50839
  0
ARC
  8
0-0
  6
CONTINUOUS
 62
    7
 10
211.30455
 20
286.77228
 40
0.3
 50
199.68225
 51
340.28662
  0
ARC
  8
0-0
  6
CONTINUOUS
 62
    7
 10
211.30455
 20
286.77228
 40
0.3
 50
19.77864
 51
161.34576
  0
ARC
  8
0-0
  6
CONTINUOUS
 62
    7
 10
211.30455
 20
286.77228
 40
0.4
 50
195.45452
 51
344.75959
  0
ARC
  8
0-0
  6
CONTINUOUS
 62
    7
 10
211.30455
 20
286.77228
 40
0.5
 50
192.26367
 51
347.03778
  0
ARC
  8
0-0
  6
CONTINUOUS
 62
    7
 10
211.30455
 20
286.77228
 40
0.6
 50
189.48106
 51
349.94032
  0
ARC
  8
0-0
  6
CONTINUOUS
 62
    7
 10
211.30455
 20
286.77228
 40
0.8
 50
187.16592
 51
352.93656
  0
ARC
  8
0-0
  6
CONTINUOUS
 62
    7
 10
211.30455
 20
286.77228
 40
1
 50
185.70593
 51
354.27436
  0
ARC
  8
0-0
  6
CONTINUOUS
 62
    7
 10
211.30455
 20
286.77228
 40
0.7
 50
188.17669
 51
351.8991
  0
ARC
  8
0-0
  6
CONTINUOUS
 62
    7
 10
211.30455
 20
286.77228
 40
0.9
 50
186.43528
 51
353.56739
  0
ARC
  8
0-0
  6
CONTINUOUS
 62
    7
 10
211.30455
 20
286.77228
 40
1
 50
149.7861
 51
149.92245
  0
ARC
  8
0-0
  6
CONTINUOUS
 62
    7
 10
211.30455
 20
286.77228
 40
1
 50
162.15756
 51
173.56423
  0
ARC
  8
0-0
  6
CONTINUOUS
 62
    7
 10
211.30455
 20
286.77228
 40
0.9
 50
161.0102
 51
173.56471
  0
ARC
  8
0-0
  6
CONTINUOUS
 62
    7
 10
211.30455
 20
286.77228
 40
0.8
 50
158.32231
 51
172.76014
  0
ARC
  8
0-0
  6
CONTINUOUS
 62
    7
 10
211.30455
 20
286.77228
 40
0.7
 50
93.86473
 51
133.89312
  0
ARC
  8
0-0
  6
CONTINUOUS
 62
    7
 10
211.30455
 20
286.77228
 40
0.7
 50
154.77958
 51
171.71357
  0
ARC
  8
0-0
  6
CONTINUOUS
 62
    7
 10
211.30455
 20
286.77228
 40
0.6
 50
121.79115
 51
123.08488
  0
ARC
  8
0-0
  6
CONTINUOUS
 62
    7
 10
211.30455
 20
286.77228
 40
0.6
 50
150.12666
 51
170.2801
  0
ARC
  8
0-0
  6
CONTINUOUS
 62
    7
 10
211.30455
 20
286.77228
 40
0.5
 50
11.730392
 51
37.211715
  0
ARC
  8
0-0
  6
CONTINUOUS
 62
    7
 10
211.30455
 20
286.77228
 40
0.5
 50
143.23814
 51
167.59942
  0
ARC
  8
0-0
  6
CONTINUOUS
 62
    7
 10
211.30455
 20
286.77228
 40
0.4
 50
16.425811
 51
48.920776
  0
ARC
  8
0-0
  6
CONTINUOUS
 62
    7
 10
211.30455
 20
286.77228
 40
0.4
 50
133.03225
 51
164.65682
  0
ARC
  8
0-0
  6
CONTINUOUS
 62
    7
 10
211.30455
 20
286.77228
 40
0.6
 50
9.7275085
 51
29.972
  0
ARC
  8
0-0
  6
CONTINUOUS
 62
    7
 10
211.30455
 20
286.77228
 40
0.6
 50
58.417556
 51
121.6706
  0
ARC
  8
0-0
  6
CONTINUOUS
 62
    7
 10
211.30455
 20
286.77228
 40
0.7
 50
8.3769073
 51
25.662551
  0
ARC
  8
0-0
  6
CONTINUOUS
 62
    7
 10
211.30455
 20
286.77228
 40
0.7
 50
46.853485
 51
93.854766
  0
ARC
  8
0-0
  6
CONTINUOUS
 62
    7
 10
211.30455
 20
286.77228
 40
0.8
 50
7.2978057
 51
22.256774
  0
ARC
  8
0-0
  6
CONTINUOUS
 62
    7
 10
211.30455
 20
286.77228
 40
0.9
 50
6.8476104
 51
19.125015
  0
ARC
  8
0-0
  6
CONTINUOUS
 62
    7
 10
211.30455
 20
286.77228
 40
1
 50
6.182724
 51
17.850708
  0
ARC
  8
0-0
  6
CONTINUOUS
 62
    7
 10
211.30455
 20
286.77228
 40
1
 50
135.93258
 51
151.00967
  0
ARC
  8
0-0
  6
CONTINUOUS
 62
    7
 10
211.30455
 20
286.77228
 40
0.9
 50
129.24958
 51
147.25019
  0
ARC
  8
0-0
  6
CONTINUOUS
 62
    7
 10
211.30455
 20
286.77228
 40
0.8
 50
38.910827
 51
61.171249
  0
ARC
  8
0-0
  6
CONTINUOUS
 62
    7
 10
211.30455
 20
286.77228
 40
0.9
 50
34.455505
 51
51.047042
  0
ARC
  8
0-0
  6
CONTINUOUS
 62
    7
 10
211.30455
 20
286.77228
 40
0.8
 50
118.96093
 51
140.77227
  0
ARC
  8
0-0
  6
CONTINUOUS
 62
    7
 10
211.30455
 20
286.77228
 40
1
 50
64.288726
 51
115.22802
  0
ARC
  8
0-0
  6
CONTINUOUS
 62
    7
 10
211.30455
 20
286.77228
 40
1
 50
30.736236
 51
44.432952
  0
ARC
  8
1-0
  6
CONTINUOUS
 62
    7
 10
131.55635
 20
53.28108
 40
0.1599999
 50
90
 51
180
  0
ARC
  8
1-0
  6
CONTINUOUS
 62
    7
 10
131.55635
 20
51.381079
 40
0.1599999
 50
180
 51
270
  0
ARC
  8
1-0
  6
CONTINUOUS
 62
    7
 10
131.14634
 20
51.381079
 40
0.1599999
 50
270
 51
0
  0
ARC
  8
1-0
  6
CONTINUOUS
 62
    7
 10
131.14634
 20
53.28108
 40
0.1599999
 50
0
 51
90
  0
ARC
  8
1-0
  6
CONTINUOUS
 62
    7
 10
122.05134
 20
53.781075
 40
0.1
 50
180
 51
270
  0
ARC
  8
1-0
  6
CONTINUOUS
 62
    7
 10
121.88134
 20
54.511079
 40
0.07
 50
360
 51
90
  0
ARC
  8
1-0
  6
CONTINUOUS
 62
    7
 10
122.78134
 20
53.611078
 40
0.07
 50
360
 51
90
  0
ARC
  8
1-0
  6
CONTINUOUS
 62
    7
 10
122.35134
 20
53.692634
 40
0.2484564
 50
61.551315
 51
118.44868
  0
LINE
  8
1-0
  6
CONTINUOUS
 62
    7
 10
122.23299
 20
53.911088
 11
122.22107
 21
53.928322
  0
LINE
  8
1-0
  6
CONTINUOUS
 62
    7
 10
122.22107
 20
53.928322
 11
122.20843
 21
53.938394
  0
LINE
  8
1-0
  6
CONTINUOUS
 62
    7
 10
122.20843
 20
53.938394
 11
122.19804
 21
53.941084
  0
LINE
  8
1-0
  6
CONTINUOUS
 62
    7
 10
122.50465
 20
53.941084
 11
122.49172
 21
53.936987
  0
LINE
  8
1-0
  6
CONTINUOUS
 62
    7
 10
122.49172
 20
53.936987
 11
122.4792
 21
53.925466
  0
LINE
  8
1-0
  6
CONTINUOUS
 62
    7
 10
122.4792
 20
53.925466
 11
122.4697
 21
53.911088
  0
ARC
  8
1-0
  6
CONTINUOUS
 62
    7
 10
122.35134
 20
53.852629
 40
0.2484564
 50
61.551315
 51
118.44868
  0
LINE
  8
1-0
  6
CONTINUOUS
 62
    7
 10
122.23299
 20
54.071083
 11
122.22107
 21
54.088317
  0
LINE
  8
1-0
  6
CONTINUOUS
 62
    7
 10
122.22107
 20
54.088317
 11
122.20843
 21
54.098389
  0
LINE
  8
1-0
  6
CONTINUOUS
 62
    7
 10
122.20843
 20
54.098389
 11
122.19804
 21
54.101078
  0
LINE
  8
1-0
  6
CONTINUOUS
 62
    7
 10
122.50465
 20
54.101078
 11
122.49172
 21
54.096982
  0
LINE
  8
1-0
  6
CONTINUOUS
 62
    7
 10
122.49172
 20
54.096982
 11
122.4792
 21
54.085461
  0
LINE
  8
1-0
  6
CONTINUOUS
 62
    7
 10
122.4792
 20
54.085461
 11
122.4697
 21
54.071083
  0
ARC
  8
1-0
  6
CONTINUOUS
 62
    7
 10
122.35134
 20
54.229418
 40
0.1816655
 50
56.599975
 51
123.40002
  0
ARC
  8
1-0
  6
CONTINUOUS
 62
    7
 10
122.35134
 20
38.201077
 40
0.12
 50
180
 51
0
  0
ARC
  8
1-0
  6
CONTINUOUS
 62
    7
 10
140.65135
 20
53.781075
 40
0.1
 50
270
 51
0
  0
ARC
  8
1-0
  6
CONTINUOUS
 62
    7
 10
140.82135
 20
54.511079
 40
0.07
 50
90
 51
180
  0
ARC
  8
1-0
  6
CONTINUOUS
 62
    7
 10
139.92135
 20
53.611078
 40
0.07
 50
90
 51
180
  0
ARC
  8
1-0
  6
CONTINUOUS
 62
    7
 10
140.35135
 20
53.692634
 40
0.2484564
 50
61.551315
 51
118.44868
  0
LINE
  8
1-0
  6
CONTINUOUS
 62
    7
 10
140.50465
 20
53.941084
 11
140.49172
 21
53.936987
  0
LINE
  8
1-0
  6
CONTINUOUS
 62
    7
 10
140.49172
 20
53.936987
 11
140.47919
 21
53.925466
  0
LINE
  8
1-0
  6
CONTINUOUS
 62
    7
 10
140.47919
 20
53.925466
 11
140.4697
 21
53.911088
  0
LINE
  8
1-0
  6
CONTINUOUS
 62
    7
 10
140.233
 20
53.911088
 11
140.22108
 21
53.928322
  0
LINE
  8
1-0
  6
CONTINUOUS
 62
    7
 10
140.22108
 20
53.928322
 11
140.20844
 21
53.938394
  0
LINE
  8
1-0
  6
CONTINUOUS
 62
    7
 10
140.20844
 20
53.938394
 11
140.19805
 21
53.941084
  0
ARC
  8
1-0
  6
CONTINUOUS
 62
    7
 10
140.35135
 20
53.852629
 40
0.2484564
 50
61.551315
 51
118.44868
  0
LINE
  8
1-0
  6
CONTINUOUS
 62
    7
 10
140.50465
 20
54.101078
 11
140.49172
 21
54.096982
  0
LINE
  8
1-0
  6
CONTINUOUS
 62
    7
 10
140.49172
 20
54.096982
 11
140.47919
 21
54.085461
  0
LINE
  8
1-0
  6
CONTINUOUS
 62
    7
 10
140.47919
 20
54.085461
 11
140.4697
 21
54.071083
  0
LINE
  8
1-0
  6
CONTINUOUS
 62
    7
 10
140.233
 20
54.071083
 11
140.22108
 21
54.088317
  0
LINE
  8
1-0
  6
CONTINUOUS
 62
    7
 10
140.22108
 20
54.088317
 11
140.20844
 21
54.098389
  0
LINE
  8
1-0
  6
CONTINUOUS
 62
    7
 10
140.20844
 20
54.098389
 11
140.19805
 21
54.101078
  0
ARC
  8
1-0
  6
CONTINUOUS
 62
    7
 10
140.35135
 20
54.229418
 40
0.1816655
 50
56.599975
 51
123.40002
  0
ARC
  8
1-0
  6
CONTINUOUS
 62
    7
 10
140.35135
 20
38.201077
 40
0.12
 50
180
 51
360
  0
ARC
  8
1-0
  6
CONTINUOUS
 62
    7
 10
129.92134
 20
53.692634
 40
0.2484564
 50
61.551315
 51
118.44868
  0
LINE
  8
1-0
  6
CONTINUOUS
 62
    7
 10
129.80299
 20
53.911088
 11
129.79107
 21
53.928322
  0
LINE
  8
1-0
  6
CONTINUOUS
 62
    7
 10
129.79107
 20
53.928322
 11
129.77843
 21
53.938394
  0
LINE
  8
1-0
  6
CONTINUOUS
 62
    7
 10
129.77843
 20
53.938394
 11
129.76804
 21
53.941084
  0
LINE
  8
1-0
  6
CONTINUOUS
 62
    7
 10
130.07464
 20
53.941084
 11
130.06171
 21
53.936987
  0
LINE
  8
1-0
  6
CONTINUOUS
 62
    7
 10
130.06171
 20
53.936987
 11
130.04918
 21
53.925466
  0
LINE
  8
1-0
  6
CONTINUOUS
 62
    7
 10
130.04918
 20
53.925466
 11
130.03969
 21
53.911088
  0
ARC
  8
1-0
  6
CONTINUOUS
 62
    7
 10
129.92134
 20
53.852629
 40
0.2484564
 50
61.551315
 51
118.44868
  0
LINE
  8
1-0
  6
CONTINUOUS
 62
    7
 10
129.80299
 20
54.071083
 11
129.79107
 21
54.088317
  0
LINE
  8
1-0
  6
CONTINUOUS
 62
    7
 10
129.79107
 20
54.088317
 11
129.77843
 21
54.098389
  0
LINE
  8
1-0
  6
CONTINUOUS
 62
    7
 10
129.77843
 20
54.098389
 11
129.76804
 21
54.101078
  0
LINE
  8
1-0
  6
CONTINUOUS
 62
    7
 10
130.07464
 20
54.101078
 11
130.06171
 21
54.096982
  0
LINE
  8
1-0
  6
CONTINUOUS
 62
    7
 10
130.06171
 20
54.096982
 11
130.04918
 21
54.085461
  0
LINE
  8
1-0
  6
CONTINUOUS
 62
    7
 10
130.04918
 20
54.085461
 11
130.03969
 21
54.071083
  0
ARC
  8
1-0
  6
CONTINUOUS
 62
    7
 10
129.92134
 20
54.229418
 40
0.1816655
 50
56.599975
 51
123.40002
  0
ARC
  8
1-0
  6
CONTINUOUS
 62
    7
 10
129.42134
 20
38.701075
 40
0.62
 50
180
 51
0
  0
ARC
  8
1-0
  6
CONTINUOUS
 62
    7
 10
129.42134
 20
38.701075
 40
0.38
 50
180
 51
0
  0
ARC
  8
1-0
  6
CONTINUOUS
 62
    7
 10
132.78135
 20
53.692634
 40
0.2484564
 50
61.551315
 51
118.44868
  0
LINE
  8
1-0
  6
CONTINUOUS
 62
    7
 10
132.93465
 20
53.941084
 11
132.92172
 21
53.936987
  0
LINE
  8
1-0
  6
CONTINUOUS
 62
    7
 10
132.92172
 20
53.936987
 11
132.90919
 21
53.925466
  0
LINE
  8
1-0
  6
CONTINUOUS
 62
    7
 10
132.90919
 20
53.925466
 11
132.8997
 21
53.911088
  0
LINE
  8
1-0
  6
CONTINUOUS
 62
    7
 10
132.663
 20
53.911088
 11
132.65108
 21
53.928322
  0
LINE
  8
1-0
  6
CONTINUOUS
 62
    7
 10
132.65108
 20
53.928322
 11
132.63844
 21
53.938394
  0
LINE
  8
1-0
  6
CONTINUOUS
 62
    7
 10
132.63844
 20
53.938394
 11
132.62805
 21
53.941084
  0
ARC
  8
1-0
  6
CONTINUOUS
 62
    7
 10
132.78135
 20
53.852629
 40
0.2484564
 50
61.551315
 51
118.44868
  0
LINE
  8
1-0
  6
CONTINUOUS
 62
    7
 10
132.93465
 20
54.101078
 11
132.92172
 21
54.096982
  0
LINE
  8
1-0
  6
CONTINUOUS
 62
    7
 10
132.92172
 20
54.096982
 11
132.90919
 21
54.085461
  0
LINE
  8
1-0
  6
CONTINUOUS
 62
    7
 10
132.90919
 20
54.085461
 11
132.8997
 21
54.071083
  0
LINE
  8
1-0
  6
CONTINUOUS
 62
    7
 10
132.663
 20
54.071083
 11
132.65108
 21
54.088317
  0
LINE
  8
1-0
  6
CONTINUOUS
 62
    7
 10
132.65108
 20
54.088317
 11
132.63844
 21
54.098389
  0
LINE
  8
1-0
  6
CONTINUOUS
 62
    7
 10
132.63844
 20
54.098389
 11
132.62805
 21
54.101078
  0
ARC
  8
1-0
  6
CONTINUOUS
 62
    7
 10
132.78135
 20
54.229418
 40
0.1816655
 50
56.599975
 51
123.40002
  0
ARC
  8
1-0
  6
CONTINUOUS
 62
    7
 10
133.28135
 20
38.701075
 40
0.62
 50
180
 51
360
  0
ARC
  8
1-0
  6
CONTINUOUS
 62
    7
 10
133.28135
 20
38.701075
 40
0.38
 50
180
 51
360
  0
ARC
  8
1-0
  6
CONTINUOUS
 62
    7
 10
133.48134
 20
74.081088
 40
0.2
 50
270
 51
0
  0
ARC
  8
1-0
  6
CONTINUOUS
 62
    7
 10
129.22135
 20
74.081088
 40
0.2
 50
180
 51
270
  0
ARC
  8
1-0
  6
CONTINUOUS
 62
    7
 10
131.35135
 20
84.811112
 40
0.1499732
 50
53.125381
 51
126.87461
  0
ARC
  8
1-0
  6
CONTINUOUS
 62
    7
 10
131.35135
 20
84.39107
 40
0.2800175
 50
68.214096
 51
111.7859
  0
LINE
  8
1-0
  6
CONTINUOUS
 62
    7
 10
131.24742
 20
84.651088
 11
131.2334
 21
84.665184
  0
LINE
  8
1-0
  6
CONTINUOUS
 62
    7
 10
131.2334
 20
84.665184
 11
131.21886
 21
84.670952
  0
LINE
  8
1-0
  6
CONTINUOUS
 62
    7
 10
131.21886
 20
84.670952
 11
131.21559
 21
84.671079
  0
LINE
  8
1-0
  6
CONTINUOUS
 62
    7
 10
131.4871
 20
84.671079
 11
131.47251
 21
84.667206
  0
LINE
  8
1-0
  6
CONTINUOUS
 62
    7
 10
131.47251
 20
84.667206
 11
131.45833
 21
84.654942
  0
LINE
  8
1-0
  6
CONTINUOUS
 62
    7
 10
131.45833
 20
84.654942
 11
131.45527
 21
84.651088
  0
ARC
  8
1-0
  6
CONTINUOUS
 62
    7
 10
131.35135
 20
83.371098
 40
0.2800175
 50
248.21409
 51
291.7859
  0
LINE
  8
1-0
  6
CONTINUOUS
 62
    7
 10
131.21559
 20
83.091089
 11
131.23018
 21
83.094963
  0
LINE
  8
1-0
  6
CONTINUOUS
 62
    7
 10
131.23018
 20
83.094963
 11
131.24436
 21
83.107227
  0
LINE
  8
1-0
  6
CONTINUOUS
 62
    7
 10
131.24436
 20
83.107227
 11
131.24742
 21
83.111081
  0
LINE
  8
1-0
  6
CONTINUOUS
 62
    7
 10
131.45527
 20
83.111081
 11
131.46929
 21
83.096984
  0
LINE
  8
1-0
  6
CONTINUOUS
 62
    7
 10
131.46929
 20
83.096984
 11
131.48383
 21
83.091217
  0
LINE
  8
1-0
  6
CONTINUOUS
 62
    7
 10
131.48383
 20
83.091217
 11
131.4871
 21
83.091089
  0
ARC
  8
1-0
  6
CONTINUOUS
 62
    7
 10
130.53813
 20
84.811112
 40
0.1499732
 50
53.125381
 51
126.87461
  0
ARC
  8
1-0
  6
CONTINUOUS
 62
    7
 10
130.53813
 20
84.39107
 40
0.2800175
 50
68.214096
 51
111.7859
  0
LINE
  8
1-0
  6
CONTINUOUS
 62
    7
 10
130.43421
 20
84.651088
 11
130.42019
 21
84.665184
  0
LINE
  8
1-0
  6
CONTINUOUS
 62
    7
 10
130.42019
 20
84.665184
 11
130.40565
 21
84.670952
  0
LINE
  8
1-0
  6
CONTINUOUS
 62
    7
 10
130.40565
 20
84.670952
 11
130.40237
 21
84.671079
  0
LINE
  8
1-0
  6
CONTINUOUS
 62
    7
 10
130.67389
 20
84.671079
 11
130.6593
 21
84.667206
  0
LINE
  8
1-0
  6
CONTINUOUS
 62
    7
 10
130.6593
 20
84.667206
 11
130.64512
 21
84.654942
  0
LINE
  8
1-0
  6
CONTINUOUS
 62
    7
 10
130.64512
 20
84.654942
 11
130.64206
 21
84.651088
  0
ARC
  8
1-0
  6
CONTINUOUS
 62
    7
 10
130.53813
 20
83.371098
 40
0.2800175
 50
248.21409
 51
291.7859
  0
LINE
  8
1-0
  6
CONTINUOUS
 62
    7
 10
130.40237
 20
83.091089
 11
130.41697
 21
83.094963
  0
LINE
  8
1-0
  6
CONTINUOUS
 62
    7
 10
130.41697
 20
83.094963
 11
130.43115
 21
83.107227
  0
LINE
  8
1-0
  6
CONTINUOUS
 62
    7
 10
130.43115
 20
83.107227
 11
130.43421
 21
83.111081
  0
LINE
  8
1-0
  6
CONTINUOUS
 62
    7
 10
130.64206
 20
83.111081
 11
130.65608
 21
83.096984
  0
LINE
  8
1-0
  6
CONTINUOUS
 62
    7
 10
130.65608
 20
83.096984
 11
130.67062
 21
83.091217
  0
LINE
  8
1-0
  6
CONTINUOUS
 62
    7
 10
130.67062
 20
83.091217
 11
130.67389
 21
83.091089
  0
ARC
  8
1-0
  6
CONTINUOUS
 62
    7
 10
129.3881
 20
84.811112
 40
0.1499732
 50
53.125381
 51
126.87461
  0
ARC
  8
1-0
  6
CONTINUOUS
 62
    7
 10
129.3881
 20
84.39107
 40
0.2800175
 50
68.214096
 51
111.7859
  0
LINE
  8
1-0
  6
CONTINUOUS
 62
    7
 10
129.28417
 20
84.651088
 11
129.27015
 21
84.665184
  0
LINE
  8
1-0
  6
CONTINUOUS
 62
    7
 10
129.27015
 20
84.665184
 11
129.25561
 21
84.670952
  0
LINE
  8
1-0
  6
CONTINUOUS
 62
    7
 10
129.25561
 20
84.670952
 11
129.25234
 21
84.671079
  0
LINE
  8
1-0
  6
CONTINUOUS
 62
    7
 10
129.52386
 20
84.671079
 11
129.50926
 21
84.667206
  0
LINE
  8
1-0
  6
CONTINUOUS
 62
    7
 10
129.50926
 20
84.667206
 11
129.49509
 21
84.654942
  0
LINE
  8
1-0
  6
CONTINUOUS
 62
    7
 10
129.49509
 20
84.654942
 11
129.49202
 21
84.651088
  0
ARC
  8
1-0
  6
CONTINUOUS
 62
    7
 10
129.3881
 20
83.371098
 40
0.2800175
 50
248.21409
 51
291.7859
  0
LINE
  8
1-0
  6
CONTINUOUS
 62
    7
 10
129.25234
 20
83.091089
 11
129.26693
 21
83.094963
  0
LINE
  8
1-0
  6
CONTINUOUS
 62
    7
 10
129.26693
 20
83.094963
 11
129.28111
 21
83.107227
  0
LINE
  8
1-0
  6
CONTINUOUS
 62
    7
 10
129.28111
 20
83.107227
 11
129.28417
 21
83.111081
  0
LINE
  8
1-0
  6
CONTINUOUS
 62
    7
 10
129.49202
 20
83.111081
 11
129.50604
 21
83.096984
  0
LINE
  8
1-0
  6
CONTINUOUS
 62
    7
 10
129.50604
 20
83.096984
 11
129.52058
 21
83.091217
  0
LINE
  8
1-0
  6
CONTINUOUS
 62
    7
 10
129.52058
 20
83.091217
 11
129.52386
 21
83.091089
  0
LINE
  8
1-0
  6
CONTINUOUS
 62
    7
 10
129.12242
 20
84.651088
 11
129.1084
 21
84.665184
  0
LINE
  8
1-0
  6
CONTINUOUS
 62
    7
 10
129.1084
 20
84.665184
 11
129.09386
 21
84.670952
  0
LINE
  8
1-0
  6
CONTINUOUS
 62
    7
 10
129.09386
 20
84.670952
 11
129.09058
 21
84.671079
  0
LINE
  8
1-0
  6
CONTINUOUS
 62
    7
 10
129.09058
 20
83.091089
 11
129.10518
 21
83.094963
  0
LINE
  8
1-0
  6
CONTINUOUS
 62
    7
 10
129.10518
 20
83.094963
 11
129.11936
 21
83.107227
  0
LINE
  8
1-0
  6
CONTINUOUS
 62
    7
 10
129.11936
 20
83.107227
 11
129.12242
 21
83.111081
  0
ARC
  8
1-0
  6
CONTINUOUS
 62
    7
 10
129.22634
 20
84.811112
 40
0.1499732
 50
57.366577
 51
126.87461
  0
ARC
  8
1-0
  6
CONTINUOUS
 62
    7
 10
129.22634
 20
84.39107
 40
0.2800175
 50
95.323593
 51
111.7859
  0
ARC
  8
1-0
  6
CONTINUOUS
 62
    7
 10
129.22634
 20
83.371098
 40
0.2800175
 50
248.21409
 51
264.6764
  0
ARC
  8
1-0
  6
CONTINUOUS
 62
    7
 10
132.16456
 20
84.811112
 40
0.1499732
 50
53.125381
 51
126.87461
  0
ARC
  8
1-0
  6
CONTINUOUS
 62
    7
 10
132.16456
 20
84.39107
 40
0.2800175
 50
68.214096
 51
111.7859
  0
LINE
  8
1-0
  6
CONTINUOUS
 62
    7
 10
132.30032
 20
84.671079
 11
132.28572
 21
84.667206
  0
LINE
  8
1-0
  6
CONTINUOUS
 62
    7
 10
132.28572
 20
84.667206
 11
132.27155
 21
84.654942
  0
LINE
  8
1-0
  6
CONTINUOUS
 62
    7
 10
132.27155
 20
84.654942
 11
132.26848
 21
84.651088
  0
LINE
  8
1-0
  6
CONTINUOUS
 62
    7
 10
132.06063
 20
84.651088
 11
132.04661
 21
84.665184
  0
LINE
  8
1-0
  6
CONTINUOUS
 62
    7
 10
132.04661
 20
84.665184
 11
132.03207
 21
84.670952
  0
LINE
  8
1-0
  6
CONTINUOUS
 62
    7
 10
132.03207
 20
84.670952
 11
132.0288
 21
84.671079
  0
ARC
  8
1-0
  6
CONTINUOUS
 62
    7
 10
132.16456
 20
83.371098
 40
0.2800175
 50
248.21409
 51
291.7859
  0
LINE
  8
1-0
  6
CONTINUOUS
 62
    7
 10
132.26848
 20
83.111081
 11
132.2825
 21
83.096984
  0
LINE
  8
1-0
  6
CONTINUOUS
 62
    7
 10
132.2825
 20
83.096984
 11
132.29704
 21
83.091217
  0
LINE
  8
1-0
  6
CONTINUOUS
 62
    7
 10
132.29704
 20
83.091217
 11
132.30032
 21
83.091089
  0
LINE
  8
1-0
  6
CONTINUOUS
 62
    7
 10
132.0288
 20
83.091089
 11
132.04339
 21
83.094963
  0
LINE
  8
1-0
  6
CONTINUOUS
 62
    7
 10
132.04339
 20
83.094963
 11
132.05757
 21
83.107227
  0
LINE
  8
1-0
  6
CONTINUOUS
 62
    7
 10
132.05757
 20
83.107227
 11
132.06063
 21
83.111081
  0
ARC
  8
1-0
  6
CONTINUOUS
 62
    7
 10
133.31459
 20
84.811112
 40
0.1499732
 50
53.125381
 51
126.87461
  0
ARC
  8
1-0
  6
CONTINUOUS
 62
    7
 10
133.31459
 20
84.39107
 40
0.2800175
 50
68.214096
 51
111.7859
  0
LINE
  8
1-0
  6
CONTINUOUS
 62
    7
 10
133.45035
 20
84.671079
 11
133.43576
 21
84.667206
  0
LINE
  8
1-0
  6
CONTINUOUS
 62
    7
 10
133.43576
 20
84.667206
 11
133.42158
 21
84.654942
  0
LINE
  8
1-0
  6
CONTINUOUS
 62
    7
 10
133.42158
 20
84.654942
 11
133.41852
 21
84.651088
  0
LINE
  8
1-0
  6
CONTINUOUS
 62
    7
 10
133.21067
 20
84.651088
 11
133.19665
 21
84.665184
  0
LINE
  8
1-0
  6
CONTINUOUS
 62
    7
 10
133.19665
 20
84.665184
 11
133.18211
 21
84.670952
  0
LINE
  8
1-0
  6
CONTINUOUS
 62
    7
 10
133.18211
 20
84.670952
 11
133.17884
 21
84.671079
  0
ARC
  8
1-0
  6
CONTINUOUS
 62
    7
 10
133.31459
 20
83.371098
 40
0.2800175
 50
248.21409
 51
291.7859
  0
LINE
  8
1-0
  6
CONTINUOUS
 62
    7
 10
133.41852
 20
83.111081
 11
133.43254
 21
83.096984
  0
LINE
  8
1-0
  6
CONTINUOUS
 62
    7
 10
133.43254
 20
83.096984
 11
133.44708
 21
83.091217
  0
LINE
  8
1-0
  6
CONTINUOUS
 62
    7
 10
133.44708
 20
83.091217
 11
133.45035
 21
83.091089
  0
LINE
  8
1-0
  6
CONTINUOUS
 62
    7
 10
133.17884
 20
83.091089
 11
133.19343
 21
83.094963
  0
LINE
  8
1-0
  6
CONTINUOUS
 62
    7
 10
133.19343
 20
83.094963
 11
133.20761
 21
83.107227
  0
LINE
  8
1-0
  6
CONTINUOUS
 62
    7
 10
133.20761
 20
83.107227
 11
133.21067
 21
83.111081
  0
LINE
  8
1-0
  6
CONTINUOUS
 62
    7
 10
133.61211
 20
84.671079
 11
133.59751
 21
84.667206
  0
LINE
  8
1-0
  6
CONTINUOUS
 62
    7
 10
133.59751
 20
84.667206
 11
133.58334
 21
84.654942
  0
LINE
  8
1-0
  6
CONTINUOUS
 62
    7
 10
133.58334
 20
84.654942
 11
133.58027
 21
84.651088
  0
LINE
  8
1-0
  6
CONTINUOUS
 62
    7
 10
133.58027
 20
83.111081
 11
133.59429
 21
83.096984
  0
LINE
  8
1-0
  6
CONTINUOUS
 62
    7
 10
133.59429
 20
83.096984
 11
133.60883
 21
83.091217
  0
LINE
  8
1-0
  6
CONTINUOUS
 62
    7
 10
133.60883
 20
83.091217
 11
133.61211
 21
83.091089
  0
ARC
  8
1-0
  6
CONTINUOUS
 62
    7
 10
133.47635
 20
84.811112
 40
0.1499732
 50
53.125381
 51
122.63342
  0
ARC
  8
1-0
  6
CONTINUOUS
 62
    7
 10
133.47635
 20
84.39107
 40
0.2800175
 50
68.214096
 51
84.676406
  0
ARC
  8
1-0
  6
CONTINUOUS
 62
    7
 10
133.47635
 20
83.371098
 40
0.2800175
 50
275.32359
 51
291.7859
  0
CIRCLE
  8
1-0
  6
CONTINUOUS
 62
    7
 10
128.46136
 20
112.09109
 40
0.225
  0
ARC
  8
1-0
  6
CONTINUOUS
 62
    7
 10
128.46136
 20
112.09109
 40
0.45
 50
325.70918
 51
129.44424
  0
CIRCLE
  8
1-0
  6
CONTINUOUS
 62
    7
 10
127.11135
 20
112.49107
 40
0.15
  0
ARC
  8
1-0
  6
CONTINUOUS
 62
    7
 10
127.33293
 20
112.21232
 40
1.6000002
 50
301.18238
 51
304.9392
  0
ARC
  8
1-0
  6
CONTINUOUS
 62
    7
 10
127.33293
 20
112.21232
 40
1.6000002
 50
4.9391479
 51
11.765426
  0
ARC
  8
1-0
  6
CONTINUOUS
 62
    7
 10
127.11135
 20
112.49107
 40
0.3
 50
82.000549
 51
238.33801
  0
ARC
  8
1-0
  6
CONTINUOUS
 62
    7
 10
136.46323
 20
113.1712
 40
0.1
 50
315
 51
58.339645
  0
ARC
  8
1-0
  6
CONTINUOUS
 62
    7
 10
135.95135
 20
112.34108
 40
1.075
 50
57.464569
 51
76.659652
  0
ARC
  8
1-0
  6
CONTINUOUS
 62
    7
 10
136.78147
 20
111.8292
 40
0.1
 50
225
 51
328.33964
  0
ARC
  8
1-0
  6
CONTINUOUS
 62
    7
 10
136.78147
 20
112.85294
 40
0.1
 50
31.660354
 51
135
  0
ARC
  8
1-0
  6
CONTINUOUS
 62
    7
 10
135.95135
 20
112.34108
 40
1.075
 50
327.46456
 51
332.28211
  0
ARC
  8
1-0
  6
CONTINUOUS
 62
    7
 10
135.95135
 20
112.34108
 40
1.075
 50
27.71788
 51
31.659652
  0
CIRCLE
  8
1-0
  6
CONTINUOUS
 62
    7
 10
62.379083
 20
152.45121
 40
1.125
  0
CIRCLE
  8
1-0
  6
CONTINUOUS
 62
    7
 10
62.379083
 20
152.45121
 40
0.175
  0
ARC
  8
1-0
  6
CONTINUOUS
 62
    7
 10
62.379083
 20
152.45121
 40
1.2149998
 50
72.924682
 51
183.04244
  0
ARC
  8
1-0
  6
CONTINUOUS
 62
    7
 10
62.379083
 20
152.45121
 40
1.1549998
 50
73.421752
 51
184.74751
  0
CIRCLE
  8
1-0
  6
CONTINUOUS
 62
    7
 10
81.821358
 20
147.69334
 40
0.175
  0
ARC
  8
1-0
  6
CONTINUOUS
 62
    7
 10
81.821358
 20
147.69334
 40
0.5
 50
255.75044
 51
75.750442
  0
ARC
  8
1-0
  6
CONTINUOUS
 62
    7
 10
81.821358
 20
147.69334
 40
1.125
 50
192.13761
 51
248.08749
  0
ARC
  8
1-0
  6
CONTINUOUS
 62
    7
 10
81.821358
 20
147.69334
 40
1.125
 50
83.411865
 51
139.36174
  0
CIRCLE
  8
1-0
  6
CONTINUOUS
 62
    7
 10
142.35139
 20
112.4913
 40
0.2
  0
ARC
  8
1-0
  6
CONTINUOUS
 62
    7
 10
142.35139
 20
112.4913
 40
0.5
 50
263.41918
 51
43.48059
  0
ARC
  8
1-0
  6
CONTINUOUS
 62
    7
 10
85.748649
 20
142.39503
 40
2.4000002
 50
243.44989
 51
333.44989
  0
ARC
  8
1-0
  6
CONTINUOUS
 62
    7
 10
66.293086
 20
149.0981
 40
0.1
 50
153.44989
 51
333.44989
  0
ARC
  8
1-0
  6
CONTINUOUS
 62
    7
 10
127.59194
 20
117.85397
 40
0.06
 50
243.44989
 51
63.44989
  0
ARC
  8
1-0
  6
CONTINUOUS
 62
    7
 10
127.05522
 20
118.12216
 40
0.06
 50
63.44989
 51
243.44989
  0
CIRCLE
  8
1-0
  6
CONTINUOUS
 62
    7
 10
127.00213
 20
118.14907
 40
0.3
  0
ARC
  8
1-0
  6
CONTINUOUS
 62
    7
 10
127.00213
 20
118.14907
 40
0.2
 50
350.80851
 51
315.8906
  0
ARC
  8
1-0
  6
CONTINUOUS
 62
    7
 10
126.40663
 20
118.61392
 40
0.1
 50
333.44989
 51
63.44989
  0
ARC
  8
1-0
  6
CONTINUOUS
 62
    7
 10
125.69095
 20
118.97151
 40
0.1
 50
63.44989
 51
153.44989
  0
ARC
  8
1-0
  6
CONTINUOUS
 62
    7
 10
126.18312
 20
118.16666
 40
0.1
 50
243.44989
 51
333.44989
  0
ARC
  8
1-0
  6
CONTINUOUS
 62
    7
 10
125.46752
 20
118.52428
 40
0.1
 50
153.44989
 51
243.44989
  0
ARC
  8
1-0
  6
CONTINUOUS
 62
    7
 10
125.09805
 20
119.10048
 40
0.2
 50
316.2946
 51
315.8906
  0
ARC
  8
1-0
  6
CONTINUOUS
 62
    7
 10
125.09805
 20
119.10048
 40
0.0999999
 50
316.84718
 51
315.8906
  0
CIRCLE
  8
1-0
  6
CONTINUOUS
 62
    7
 10
62.379083
 20
152.45121
 40
1
  0
ARC
  8
1-0
  6
CONTINUOUS
 62
    7
 10
81.821358
 20
147.69334
 40
1.125
 50
263.41186
 51
345.96611
  0
ARC
  8
1-0
  6
CONTINUOUS
 62
    7
 10
81.821358
 20
147.69334
 40
1.125
 50
345.96611
 51
68.087493
  0
ARC
  8
1-0
  6
CONTINUOUS
 62
    7
 10
81.821358
 20
147.69334
 40
1
 50
195.74861
 51
247.12306
  0
ARC
  8
1-0
  6
CONTINUOUS
 62
    7
 10
81.821358
 20
147.69334
 40
1
 50
264.37599
 51
345.96617
  0
ARC
  8
1-0
  6
CONTINUOUS
 62
    7
 10
81.821358
 20
147.69334
 40
1
 50
345.96617
 51
67.123413
  0
ARC
  8
1-0
  6
CONTINUOUS
 62
    7
 10
81.821358
 20
147.69334
 40
1
 50
84.376678
 51
135.74844
  0
CIRCLE
  8
1-0
  6
CONTINUOUS
 62
    7
 10
142.35136
 20
112.49107
 40
0.2
  0
ARC
  8
1-0
  6
CONTINUOUS
 62
    7
 10
142.35136
 20
112.49107
 40
0.5
 50
15.001831
 51
180
  0
LINE
  8
1-0
  6
CONTINUOUS
 62
    7
 10
129.05326
 20
107.27985
 11
128.92974
 21
107.29077
  0
LINE
  8
1-0
  6
CONTINUOUS
 62
    7
 10
128.92974
 20
107.29077
 11
128.80675
 21
107.27131
  0
LINE
  8
1-0
  6
CONTINUOUS
 62
    7
 10
128.80675
 20
107.27131
 11
128.68803
 21
107.22207
  0
LINE
  8
1-0
  6
CONTINUOUS
 62
    7
 10
128.68803
 20
107.22207
 11
128.57719
 21
107.14455
  0
LINE
  8
1-0
  6
CONTINUOUS
 62
    7
 10
128.57719
 20
107.14455
 11
128.47758
 21
107.04109
  0
LINE
  8
1-0
  6
CONTINUOUS
 62
    7
 10
128.47758
 20
107.04109
 11
128.39225
 21
106.91484
  0
LINE
  8
1-0
  6
CONTINUOUS
 62
    7
 10
128.39225
 20
106.91484
 11
128.32378
 21
106.76963
  0
LINE
  8
1-0
  6
CONTINUOUS
 62
    7
 10
128.32378
 20
106.76963
 11
128.27425
 21
106.60989
  0
LINE
  8
1-0
  6
CONTINUOUS
 62
    7
 10
128.27425
 20
106.60989
 11
128.24516
 21
106.44046
  0
LINE
  8
1-0
  6
CONTINUOUS
 62
    7
 10
128.24516
 20
106.44046
 11
128.23741
 21
106.26649
  0
LINE
  8
1-0
  6
CONTINUOUS
 62
    7
 10
128.23741
 20
106.26649
 11
128.25122
 21
106.09327
  0
LINE
  8
1-0
  6
CONTINUOUS
 62
    7
 10
128.25122
 20
106.09327
 11
128.28618
 21
105.92606
  0
LINE
  8
1-0
  6
CONTINUOUS
 62
    7
 10
128.28618
 20
105.92606
 11
128.34123
 21
105.76994
  0
LINE
  8
1-0
  6
CONTINUOUS
 62
    7
 10
128.34123
 20
105.76994
 11
128.41469
 21
105.62965
  0
LINE
  8
1-0
  6
CONTINUOUS
 62
    7
 10
128.41469
 20
105.62965
 11
128.50432
 21
105.50946
  0
LINE
  8
1-0
  6
CONTINUOUS
 62
    7
 10
128.50432
 20
105.50946
 11
128.60742
 21
105.41302
  0
LINE
  8
1-0
  6
CONTINUOUS
 62
    7
 10
128.60742
 20
105.41302
 11
128.72084
 21
105.34326
  0
LINE
  8
1-0
  6
CONTINUOUS
 62
    7
 10
128.72084
 20
105.34326
 11
128.84113
 21
105.30229
  0
LINE
  8
1-0
  6
CONTINUOUS
 62
    7
 10
128.84113
 20
105.30229
 11
128.96465
 21
105.29138
  0
LINE
  8
1-0
  6
CONTINUOUS
 62
    7
 10
128.96465
 20
105.29138
 11
129.05326
 21
105.30229
  0
LINE
  8
1-0
  6
CONTINUOUS
 62
    7
 10
129.41531
 20
106.49107
 11
129.391
 21
106.48803
  0
LINE
  8
1-0
  6
CONTINUOUS
 62
    7
 10
129.391
 20
106.48803
 11
129.36743
 21
106.47901
  0
LINE
  8
1-0
  6
CONTINUOUS
 62
    7
 10
129.36743
 20
106.47901
 11
129.34531
 21
106.46428
  0
LINE
  8
1-0
  6
CONTINUOUS
 62
    7
 10
129.34531
 20
106.46428
 11
129.32532
 21
106.44428
  0
LINE
  8
1-0
  6
CONTINUOUS
 62
    7
 10
129.32532
 20
106.44428
 11
129.30807
 21
106.41963
  0
LINE
  8
1-0
  6
CONTINUOUS
 62
    7
 10
129.30807
 20
106.41963
 11
129.29407
 21
106.39107
  0
LINE
  8
1-0
  6
CONTINUOUS
 62
    7
 10
129.29407
 20
106.39107
 11
129.28376
 21
106.35948
  0
LINE
  8
1-0
  6
CONTINUOUS
 62
    7
 10
129.28376
 20
106.35948
 11
129.27744
 21
106.3258
  0
LINE
  8
1-0
  6
CONTINUOUS
 62
    7
 10
129.27744
 20
106.3258
 11
129.27531
 21
106.29107
  0
LINE
  8
1-0
  6
CONTINUOUS
 62
    7
 10
129.27531
 20
106.29107
 11
129.27744
 21
106.25634
  0
LINE
  8
1-0
  6
CONTINUOUS
 62
    7
 10
129.27744
 20
106.25634
 11
129.28376
 21
106.22267
  0
LINE
  8
1-0
  6
CONTINUOUS
 62
    7
 10
129.28376
 20
106.22267
 11
129.29407
 21
106.19107
  0
LINE
  8
1-0
  6
CONTINUOUS
 62
    7
 10
129.29407
 20
106.19107
 11
129.30807
 21
106.16252
  0
LINE
  8
1-0
  6
CONTINUOUS
 62
    7
 10
129.30807
 20
106.16252
 11
129.32532
 21
106.13786
  0
LINE
  8
1-0
  6
CONTINUOUS
 62
    7
 10
129.32532
 20
106.13786
 11
129.34531
 21
106.11787
  0
LINE
  8
1-0
  6
CONTINUOUS
 62
    7
 10
129.34531
 20
106.11787
 11
129.36743
 21
106.10313
  0
LINE
  8
1-0
  6
CONTINUOUS
 62
    7
 10
129.36743
 20
106.10313
 11
129.391
 21
106.09411
  0
LINE
  8
1-0
  6
CONTINUOUS
 62
    7
 10
129.391
 20
106.09411
 11
129.41531
 21
106.09107
  0
LINE
  8
1-0
  6
CONTINUOUS
 62
    7
 10
129.41531
 20
106.09107
 11
129.43963
 21
106.09411
  0
LINE
  8
1-0
  6
CONTINUOUS
 62
    7
 10
129.43963
 20
106.09411
 11
129.4632
 21
106.10313
  0
LINE
  8
1-0
  6
CONTINUOUS
 62
    7
 10
129.4632
 20
106.10313
 11
129.48531
 21
106.11787
  0
LINE
  8
1-0
  6
CONTINUOUS
 62
    7
 10
129.48531
 20
106.11787
 11
129.5053
 21
106.13786
  0
LINE
  8
1-0
  6
CONTINUOUS
 62
    7
 10
129.5053
 20
106.13786
 11
129.52256
 21
106.16252
  0
LINE
  8
1-0
  6
CONTINUOUS
 62
    7
 10
129.52256
 20
106.16252
 11
129.53656
 21
106.19107
  0
LINE
  8
1-0
  6
CONTINUOUS
 62
    7
 10
129.53656
 20
106.19107
 11
129.54687
 21
106.22267
  0
LINE
  8
1-0
  6
CONTINUOUS
 62
    7
 10
129.54687
 20
106.22267
 11
129.55319
 21
106.25634
  0
LINE
  8
1-0
  6
CONTINUOUS
 62
    7
 10
129.55319
 20
106.25634
 11
129.55531
 21
106.29107
  0
LINE
  8
1-0
  6
CONTINUOUS
 62
    7
 10
129.55531
 20
106.29107
 11
129.55319
 21
106.3258
  0
LINE
  8
1-0
  6
CONTINUOUS
 62
    7
 10
129.55319
 20
106.3258
 11
129.54687
 21
106.35948
  0
LINE
  8
1-0
  6
CONTINUOUS
 62
    7
 10
129.54687
 20
106.35948
 11
129.53656
 21
106.39107
  0
LINE
  8
1-0
  6
CONTINUOUS
 62
    7
 10
129.53656
 20
106.39107
 11
129.52256
 21
106.41963
  0
LINE
  8
1-0
  6
CONTINUOUS
 62
    7
 10
129.52256
 20
106.41963
 11
129.5053
 21
106.44428
  0
LINE
  8
1-0
  6
CONTINUOUS
 62
    7
 10
129.5053
 20
106.44428
 11
129.48531
 21
106.46428
  0
LINE
  8
1-0
  6
CONTINUOUS
 62
    7
 10
129.48531
 20
106.46428
 11
129.4632
 21
106.47901
  0
LINE
  8
1-0
  6
CONTINUOUS
 62
    7
 10
129.4632
 20
106.47901
 11
129.43963
 21
106.48803
  0
LINE
  8
1-0
  6
CONTINUOUS
 62
    7
 10
129.43963
 20
106.48803
 11
129.41531
 21
106.49107
  0
LINE
  8
1-0
  6
CONTINUOUS
 62
    7
 10
129.34461
 20
106.49107
 11
129.3203
 21
106.48803
  0
LINE
  8
1-0
  6
CONTINUOUS
 62
    7
 10
129.3203
 20
106.48803
 11
129.29673
 21
106.47901
  0
LINE
  8
1-0
  6
CONTINUOUS
 62
    7
 10
129.29673
 20
106.47901
 11
129.27461
 21
106.46428
  0
LINE
  8
1-0
  6
CONTINUOUS
 62
    7
 10
129.27461
 20
106.46428
 11
129.25462
 21
106.44428
  0
LINE
  8
1-0
  6
CONTINUOUS
 62
    7
 10
129.25462
 20
106.44428
 11
129.23736
 21
106.41963
  0
LINE
  8
1-0
  6
CONTINUOUS
 62
    7
 10
129.23736
 20
106.41963
 11
129.22336
 21
106.39107
  0
LINE
  8
1-0
  6
CONTINUOUS
 62
    7
 10
129.22336
 20
106.39107
 11
129.21305
 21
106.35948
  0
LINE
  8
1-0
  6
CONTINUOUS
 62
    7
 10
129.21305
 20
106.35948
 11
129.20674
 21
106.3258
  0
LINE
  8
1-0
  6
CONTINUOUS
 62
    7
 10
129.20674
 20
106.3258
 11
129.20461
 21
106.29107
  0
LINE
  8
1-0
  6
CONTINUOUS
 62
    7
 10
129.20461
 20
106.29107
 11
129.20674
 21
106.25634
  0
LINE
  8
1-0
  6
CONTINUOUS
 62
    7
 10
129.20674
 20
106.25634
 11
129.21305
 21
106.22267
  0
LINE
  8
1-0
  6
CONTINUOUS
 62
    7
 10
129.21305
 20
106.22267
 11
129.22336
 21
106.19107
  0
LINE
  8
1-0
  6
CONTINUOUS
 62
    7
 10
129.22336
 20
106.19107
 11
129.23736
 21
106.16252
  0
LINE
  8
1-0
  6
CONTINUOUS
 62
    7
 10
129.23736
 20
106.16252
 11
129.25462
 21
106.13786
  0
LINE
  8
1-0
  6
CONTINUOUS
 62
    7
 10
129.25462
 20
106.13786
 11
129.27461
 21
106.11787
  0
LINE
  8
1-0
  6
CONTINUOUS
 62
    7
 10
129.27461
 20
106.11787
 11
129.29673
 21
106.10313
  0
LINE
  8
1-0
  6
CONTINUOUS
 62
    7
 10
129.29673
 20
106.10313
 11
129.3203
 21
106.09411
  0
LINE
  8
1-0
  6
CONTINUOUS
 62
    7
 10
129.3203
 20
106.09411
 11
129.34461
 21
106.09107
  0
LINE
  8
1-0
  6
CONTINUOUS
 62
    7
 10
129.28087
 20
106.00458
 11
129.31664
 21
105.99348
  0
LINE
  8
1-0
  6
CONTINUOUS
 62
    7
 10
129.31664
 20
105.99348
 11
129.35322
 21
105.99142
  0
LINE
  8
1-0
  6
CONTINUOUS
 62
    7
 10
129.35322
 20
105.99142
 11
129.38949
 21
105.99846
  0
LINE
  8
1-0
  6
CONTINUOUS
 62
    7
 10
129.38949
 20
105.99846
 11
129.42435
 21
106.01439
  0
LINE
  8
1-0
  6
CONTINUOUS
 62
    7
 10
129.42435
 20
106.01439
 11
129.45675
 21
106.03874
  0
LINE
  8
1-0
  6
CONTINUOUS
 62
    7
 10
129.45675
 20
106.03874
 11
129.4857
 21
106.07074
  0
LINE
  8
1-0
  6
CONTINUOUS
 62
    7
 10
129.4857
 20
106.07074
 11
129.51031
 21
106.10945
  0
LINE
  8
1-0
  6
CONTINUOUS
 62
    7
 10
129.51031
 20
106.10945
 11
129.52985
 21
106.15367
  0
LINE
  8
1-0
  6
CONTINUOUS
 62
    7
 10
129.52985
 20
106.15367
 11
129.54372
 21
106.20207
  0
LINE
  8
1-0
  6
CONTINUOUS
 62
    7
 10
129.54372
 20
106.20207
 11
129.55149
 21
106.25317
  0
LINE
  8
1-0
  6
CONTINUOUS
 62
    7
 10
129.55149
 20
106.25317
 11
129.55293
 21
106.30542
  0
LINE
  8
1-0
  6
CONTINUOUS
 62
    7
 10
129.55293
 20
106.30542
 11
129.548
 21
106.35724
  0
LINE
  8
1-0
  6
CONTINUOUS
 62
    7
 10
129.548
 20
106.35724
 11
129.53685
 21
106.40704
  0
LINE
  8
1-0
  6
CONTINUOUS
 62
    7
 10
129.53685
 20
106.40704
 11
129.51981
 21
106.45333
  0
LINE
  8
1-0
  6
CONTINUOUS
 62
    7
 10
129.51981
 20
106.45333
 11
129.4974
 21
106.49468
  0
LINE
  8
1-0
  6
CONTINUOUS
 62
    7
 10
129.4974
 20
106.49468
 11
129.47031
 21
106.52985
  0
LINE
  8
1-0
  6
CONTINUOUS
 62
    7
 10
129.47031
 20
106.52985
 11
129.43936
 21
106.55776
  0
LINE
  8
1-0
  6
CONTINUOUS
 62
    7
 10
129.43936
 20
106.55776
 11
129.40548
 21
106.57757
  0
LINE
  8
1-0
  6
CONTINUOUS
 62
    7
 10
129.40548
 20
106.57757
 11
129.36971
 21
106.58867
  0
LINE
  8
1-0
  6
CONTINUOUS
 62
    7
 10
129.36971
 20
106.58867
 11
129.33313
 21
106.59073
  0
LINE
  8
1-0
  6
CONTINUOUS
 62
    7
 10
129.33313
 20
106.59073
 11
129.29686
 21
106.58369
  0
LINE
  8
1-0
  6
CONTINUOUS
 62
    7
 10
129.29686
 20
106.58369
 11
129.28087
 21
106.57757
  0
LINE
  8
1-0
  6
CONTINUOUS
 62
    7
 10
128.95784
 20
106.4342
 11
128.94076
 21
106.42423
  0
LINE
  8
1-0
  6
CONTINUOUS
 62
    7
 10
128.94076
 20
106.42423
 11
128.92516
 21
106.41021
  0
LINE
  8
1-0
  6
CONTINUOUS
 62
    7
 10
128.92516
 20
106.41021
 11
128.91152
 21
106.39258
  0
LINE
  8
1-0
  6
CONTINUOUS
 62
    7
 10
128.91152
 20
106.39258
 11
128.90025
 21
106.37186
  0
LINE
  8
1-0
  6
CONTINUOUS
 62
    7
 10
128.90025
 20
106.37186
 11
128.8917
 21
106.34868
  0
LINE
  8
1-0
  6
CONTINUOUS
 62
    7
 10
128.8917
 20
106.34868
 11
128.88611
 21
106.32376
  0
LINE
  8
1-0
  6
CONTINUOUS
 62
    7
 10
128.88611
 20
106.32376
 11
128.88367
 21
106.29784
  0
LINE
  8
1-0
  6
CONTINUOUS
 62
    7
 10
128.88367
 20
106.29784
 11
128.88445
 21
106.27172
  0
LINE
  8
1-0
  6
CONTINUOUS
 62
    7
 10
128.88445
 20
106.27172
 11
128.88842
 21
106.24618
  0
LINE
  8
1-0
  6
CONTINUOUS
 62
    7
 10
128.88842
 20
106.24618
 11
128.89547
 21
106.22201
  0
LINE
  8
1-0
  6
CONTINUOUS
 62
    7
 10
128.89547
 20
106.22201
 11
128.90537
 21
106.19994
  0
LINE
  8
1-0
  6
CONTINUOUS
 62
    7
 10
128.90537
 20
106.19994
 11
128.91783
 21
106.18063
  0
LINE
  8
1-0
  6
CONTINUOUS
 62
    7
 10
128.91783
 20
106.18063
 11
128.93247
 21
106.16469
  0
LINE
  8
1-0
  6
CONTINUOUS
 62
    7
 10
128.93247
 20
106.16469
 11
128.94885
 21
106.15258
  0
LINE
  8
1-0
  6
CONTINUOUS
 62
    7
 10
128.94885
 20
106.15258
 11
128.95784
 21
106.14795
  0
LINE
  8
1-0
  6
CONTINUOUS
 62
    7
 10
128.8942
 20
106.4342
 11
128.87712
 21
106.42423
  0
LINE
  8
1-0
  6
CONTINUOUS
 62
    7
 10
128.87712
 20
106.42423
 11
128.86152
 21
106.41021
  0
LINE
  8
1-0
  6
CONTINUOUS
 62
    7
 10
128.86152
 20
106.41021
 11
128.84788
 21
106.39258
  0
LINE
  8
1-0
  6
CONTINUOUS
 62
    7
 10
128.84788
 20
106.39258
 11
128.83661
 21
106.37186
  0
LINE
  8
1-0
  6
CONTINUOUS
 62
    7
 10
128.83661
 20
106.37186
 11
128.82805
 21
106.34868
  0
LINE
  8
1-0
  6
CONTINUOUS
 62
    7
 10
128.82805
 20
106.34868
 11
128.82247
 21
106.32376
  0
LINE
  8
1-0
  6
CONTINUOUS
 62
    7
 10
128.82247
 20
106.32376
 11
128.82003
 21
106.29784
  0
LINE
  8
1-0
  6
CONTINUOUS
 62
    7
 10
128.82003
 20
106.29784
 11
128.82081
 21
106.27172
  0
LINE
  8
1-0
  6
CONTINUOUS
 62
    7
 10
128.82081
 20
106.27172
 11
128.82478
 21
106.24618
  0
LINE
  8
1-0
  6
CONTINUOUS
 62
    7
 10
128.82478
 20
106.24618
 11
128.83183
 21
106.22201
  0
LINE
  8
1-0
  6
CONTINUOUS
 62
    7
 10
128.83183
 20
106.22201
 11
128.84173
 21
106.19994
  0
LINE
  8
1-0
  6
CONTINUOUS
 62
    7
 10
128.84173
 20
106.19994
 11
128.85419
 21
106.18063
  0
LINE
  8
1-0
  6
CONTINUOUS
 62
    7
 10
128.85419
 20
106.18063
 11
128.86883
 21
106.16469
  0
LINE
  8
1-0
  6
CONTINUOUS
 62
    7
 10
128.86883
 20
106.16469
 11
128.88521
 21
106.15258
  0
LINE
  8
1-0
  6
CONTINUOUS
 62
    7
 10
128.88521
 20
106.15258
 11
128.8942
 21
106.14795
  0
LINE
  8
1-0
  6
CONTINUOUS
 62
    7
 10
129.04334
 20
107.27764
 11
128.92347
 21
107.23428
  0
LINE
  8
1-0
  6
CONTINUOUS
 62
    7
 10
128.92347
 20
107.23428
 11
128.81076
 21
107.16227
  0
LINE
  8
1-0
  6
CONTINUOUS
 62
    7
 10
128.81076
 20
107.16227
 11
128.70865
 21
107.06378
  0
LINE
  8
1-0
  6
CONTINUOUS
 62
    7
 10
128.70865
 20
107.06378
 11
128.62023
 21
106.94182
  0
LINE
  8
1-0
  6
CONTINUOUS
 62
    7
 10
128.62023
 20
106.94182
 11
128.54819
 21
106.80008
  0
LINE
  8
1-0
  6
CONTINUOUS
 62
    7
 10
128.54819
 20
106.80008
 11
128.49471
 21
106.64288
  0
LINE
  8
1-0
  6
CONTINUOUS
 62
    7
 10
128.49471
 20
106.64288
 11
128.46144
 21
106.47499
  0
LINE
  8
1-0
  6
CONTINUOUS
 62
    7
 10
128.46144
 20
106.47499
 11
128.44936
 21
106.30151
  0
LINE
  8
1-0
  6
CONTINUOUS
 62
    7
 10
128.44936
 20
106.30151
 11
128.45886
 21
106.12771
  0
LINE
  8
1-0
  6
CONTINUOUS
 62
    7
 10
128.45886
 20
106.12771
 11
128.48965
 21
105.95888
  0
LINE
  8
1-0
  6
CONTINUOUS
 62
    7
 10
128.48965
 20
105.95888
 11
128.54078
 21
105.80014
  0
LINE
  8
1-0
  6
CONTINUOUS
 62
    7
 10
128.54078
 20
105.80014
 11
128.6107
 21
105.65631
  0
LINE
  8
1-0
  6
CONTINUOUS
 62
    7
 10
128.6107
 20
105.65631
 11
128.6973
 21
105.53178
  0
LINE
  8
1-0
  6
CONTINUOUS
 62
    7
 10
128.6973
 20
105.53178
 11
128.79793
 21
105.43031
  0
LINE
  8
1-0
  6
CONTINUOUS
 62
    7
 10
128.79793
 20
105.43031
 11
128.90954
 21
105.355
  0
LINE
  8
1-0
  6
CONTINUOUS
 62
    7
 10
128.90954
 20
105.355
 11
129.02875
 21
105.30813
  0
LINE
  8
1-0
  6
CONTINUOUS
 62
    7
 10
129.02875
 20
105.30813
 11
129.04334
 21
105.30451
  0
LINE
  8
1-0
  6
CONTINUOUS
 62
    7
 10
133.64944
 20
105.30229
 11
133.77296
 21
105.29138
  0
LINE
  8
1-0
  6
CONTINUOUS
 62
    7
 10
133.77296
 20
105.29138
 11
133.89595
 21
105.31083
  0
LINE
  8
1-0
  6
CONTINUOUS
 62
    7
 10
133.89595
 20
105.31083
 11
134.01467
 21
105.36007
  0
LINE
  8
1-0
  6
CONTINUOUS
 62
    7
 10
134.01467
 20
105.36007
 11
134.12551
 21
105.4376
  0
LINE
  8
1-0
  6
CONTINUOUS
 62
    7
 10
134.12551
 20
105.4376
 11
134.22512
 21
105.54106
  0
LINE
  8
1-0
  6
CONTINUOUS
 62
    7
 10
134.22512
 20
105.54106
 11
134.31045
 21
105.66731
  0
LINE
  8
1-0
  6
CONTINUOUS
 62
    7
 10
134.31045
 20
105.66731
 11
134.37893
 21
105.81251
  0
LINE
  8
1-0
  6
CONTINUOUS
 62
    7
 10
134.37893
 20
105.81251
 11
134.42846
 21
105.97226
  0
LINE
  8
1-0
  6
CONTINUOUS
 62
    7
 10
134.42846
 20
105.97226
 11
134.45754
 21
106.14169
  0
LINE
  8
1-0
  6
CONTINUOUS
 62
    7
 10
134.45754
 20
106.14169
 11
134.46529
 21
106.31565
  0
LINE
  8
1-0
  6
CONTINUOUS
 62
    7
 10
134.46529
 20
106.31565
 11
134.45148
 21
106.48888
  0
LINE
  8
1-0
  6
CONTINUOUS
 62
    7
 10
134.45148
 20
106.48888
 11
134.41652
 21
106.65609
  0
LINE
  8
1-0
  6
CONTINUOUS
 62
    7
 10
134.41652
 20
106.65609
 11
134.36147
 21
106.81221
  0
LINE
  8
1-0
  6
CONTINUOUS
 62
    7
 10
134.36147
 20
106.81221
 11
134.28802
 21
106.9525
  0
LINE
  8
1-0
  6
CONTINUOUS
 62
    7
 10
134.28802
 20
106.9525
 11
134.19838
 21
107.07269
  0
LINE
  8
1-0
  6
CONTINUOUS
 62
    7
 10
134.19838
 20
107.07269
 11
134.09529
 21
107.16913
  0
LINE
  8
1-0
  6
CONTINUOUS
 62
    7
 10
134.09529
 20
107.16913
 11
133.98187
 21
107.23889
  0
LINE
  8
1-0
  6
CONTINUOUS
 62
    7
 10
133.98187
 20
107.23889
 11
133.86157
 21
107.27985
  0
LINE
  8
1-0
  6
CONTINUOUS
 62
    7
 10
133.86157
 20
107.27985
 11
133.73806
 21
107.29077
  0
LINE
  8
1-0
  6
CONTINUOUS
 62
    7
 10
133.73806
 20
107.29077
 11
133.64944
 21
107.27985
  0
LINE
  8
1-0
  6
CONTINUOUS
 62
    7
 10
133.28739
 20
106.49107
 11
133.26308
 21
106.48803
  0
LINE
  8
1-0
  6
CONTINUOUS
 62
    7
 10
133.26308
 20
106.48803
 11
133.23951
 21
106.47901
  0
LINE
  8
1-0
  6
CONTINUOUS
 62
    7
 10
133.23951
 20
106.47901
 11
133.21739
 21
106.46428
  0
LINE
  8
1-0
  6
CONTINUOUS
 62
    7
 10
133.21739
 20
106.46428
 11
133.1974
 21
106.44428
  0
LINE
  8
1-0
  6
CONTINUOUS
 62
    7
 10
133.1974
 20
106.44428
 11
133.18014
 21
106.41963
  0
LINE
  8
1-0
  6
CONTINUOUS
 62
    7
 10
133.18014
 20
106.41963
 11
133.16615
 21
106.39107
  0
LINE
  8
1-0
  6
CONTINUOUS
 62
    7
 10
133.16615
 20
106.39107
 11
133.15583
 21
106.35948
  0
LINE
  8
1-0
  6
CONTINUOUS
 62
    7
 10
133.15583
 20
106.35948
 11
133.14952
 21
106.3258
  0
LINE
  8
1-0
  6
CONTINUOUS
 62
    7
 10
133.14952
 20
106.3258
 11
133.14739
 21
106.29107
  0
LINE
  8
1-0
  6
CONTINUOUS
 62
    7
 10
133.14739
 20
106.29107
 11
133.14952
 21
106.25634
  0
LINE
  8
1-0
  6
CONTINUOUS
 62
    7
 10
133.14952
 20
106.25634
 11
133.15583
 21
106.22267
  0
LINE
  8
1-0
  6
CONTINUOUS
 62
    7
 10
133.15583
 20
106.22267
 11
133.16615
 21
106.19107
  0
LINE
  8
1-0
  6
CONTINUOUS
 62
    7
 10
133.16615
 20
106.19107
 11
133.18014
 21
106.16252
  0
LINE
  8
1-0
  6
CONTINUOUS
 62
    7
 10
133.18014
 20
106.16252
 11
133.1974
 21
106.13786
  0
LINE
  8
1-0
  6
CONTINUOUS
 62
    7
 10
133.1974
 20
106.13786
 11
133.21739
 21
106.11787
  0
LINE
  8
1-0
  6
CONTINUOUS
 62
    7
 10
133.21739
 20
106.11787
 11
133.23951
 21
106.10313
  0
LINE
  8
1-0
  6
CONTINUOUS
 62
    7
 10
133.23951
 20
106.10313
 11
133.26308
 21
106.09411
  0
LINE
  8
1-0
  6
CONTINUOUS
 62
    7
 10
133.26308
 20
106.09411
 11
133.28739
 21
106.09107
  0
LINE
  8
1-0
  6
CONTINUOUS
 62
    7
 10
133.28739
 20
106.09107
 11
133.3117
 21
106.09411
  0
LINE
  8
1-0
  6
CONTINUOUS
 62
    7
 10
133.3117
 20
106.09411
 11
133.33527
 21
106.10313
  0
LINE
  8
1-0
  6
CONTINUOUS
 62
    7
 10
133.33527
 20
106.10313
 11
133.35739
 21
106.11787
  0
LINE
  8
1-0
  6
CONTINUOUS
 62
    7
 10
133.35739
 20
106.11787
 11
133.37738
 21
106.13786
  0
LINE
  8
1-0
  6
CONTINUOUS
 62
    7
 10
133.37738
 20
106.13786
 11
133.39463
 21
106.16252
  0
LINE
  8
1-0
  6
CONTINUOUS
 62
    7
 10
133.39463
 20
106.16252
 11
133.40863
 21
106.19107
  0
LINE
  8
1-0
  6
CONTINUOUS
 62
    7
 10
133.40863
 20
106.19107
 11
133.41895
 21
106.22267
  0
LINE
  8
1-0
  6
CONTINUOUS
 62
    7
 10
133.41895
 20
106.22267
 11
133.42526
 21
106.25634
  0
LINE
  8
1-0
  6
CONTINUOUS
 62
    7
 10
133.42526
 20
106.25634
 11
133.42739
 21
106.29107
  0
LINE
  8
1-0
  6
CONTINUOUS
 62
    7
 10
133.42739
 20
106.29107
 11
133.42526
 21
106.3258
  0
LINE
  8
1-0
  6
CONTINUOUS
 62
    7
 10
133.42526
 20
106.3258
 11
133.41895
 21
106.35948
  0
LINE
  8
1-0
  6
CONTINUOUS
 62
    7
 10
133.41895
 20
106.35948
 11
133.40863
 21
106.39107
  0
LINE
  8
1-0
  6
CONTINUOUS
 62
    7
 10
133.40863
 20
106.39107
 11
133.39463
 21
106.41963
  0
LINE
  8
1-0
  6
CONTINUOUS
 62
    7
 10
133.39463
 20
106.41963
 11
133.37738
 21
106.44428
  0
LINE
  8
1-0
  6
CONTINUOUS
 62
    7
 10
133.37738
 20
106.44428
 11
133.35739
 21
106.46428
  0
LINE
  8
1-0
  6
CONTINUOUS
 62
    7
 10
133.35739
 20
106.46428
 11
133.33527
 21
106.47901
  0
LINE
  8
1-0
  6
CONTINUOUS
 62
    7
 10
133.33527
 20
106.47901
 11
133.3117
 21
106.48803
  0
LINE
  8
1-0
  6
CONTINUOUS
 62
    7
 10
133.3117
 20
106.48803
 11
133.28739
 21
106.49107
  0
LINE
  8
1-0
  6
CONTINUOUS
 62
    7
 10
133.35809
 20
106.09107
 11
133.38241
 21
106.09411
  0
LINE
  8
1-0
  6
CONTINUOUS
 62
    7
 10
133.38241
 20
106.09411
 11
133.40598
 21
106.10313
  0
LINE
  8
1-0
  6
CONTINUOUS
 62
    7
 10
133.40598
 20
106.10313
 11
133.42809
 21
106.11787
  0
LINE
  8
1-0
  6
CONTINUOUS
 62
    7
 10
133.42809
 20
106.11787
 11
133.44808
 21
106.13786
  0
LINE
  8
1-0
  6
CONTINUOUS
 62
    7
 10
133.44808
 20
106.13786
 11
133.46534
 21
106.16252
  0
LINE
  8
1-0
  6
CONTINUOUS
 62
    7
 10
133.46534
 20
106.16252
 11
133.47934
 21
106.19107
  0
LINE
  8
1-0
  6
CONTINUOUS
 62
    7
 10
133.47934
 20
106.19107
 11
133.48965
 21
106.22267
  0
LINE
  8
1-0
  6
CONTINUOUS
 62
    7
 10
133.48965
 20
106.22267
 11
133.49597
 21
106.25634
  0
LINE
  8
1-0
  6
CONTINUOUS
 62
    7
 10
133.49597
 20
106.25634
 11
133.49809
 21
106.29107
  0
LINE
  8
1-0
  6
CONTINUOUS
 62
    7
 10
133.49809
 20
106.29107
 11
133.49597
 21
106.3258
  0
LINE
  8
1-0
  6
CONTINUOUS
 62
    7
 10
133.49597
 20
106.3258
 11
133.48965
 21
106.35948
  0
LINE
  8
1-0
  6
CONTINUOUS
 62
    7
 10
133.48965
 20
106.35948
 11
133.47934
 21
106.39107
  0
LINE
  8
1-0
  6
CONTINUOUS
 62
    7
 10
133.47934
 20
106.39107
 11
133.46534
 21
106.41963
  0
LINE
  8
1-0
  6
CONTINUOUS
 62
    7
 10
133.46534
 20
106.41963
 11
133.44808
 21
106.44428
  0
LINE
  8
1-0
  6
CONTINUOUS
 62
    7
 10
133.44808
 20
106.44428
 11
133.42809
 21
106.46428
  0
LINE
  8
1-0
  6
CONTINUOUS
 62
    7
 10
133.42809
 20
106.46428
 11
133.40598
 21
106.47901
  0
LINE
  8
1-0
  6
CONTINUOUS
 62
    7
 10
133.40598
 20
106.47901
 11
133.38241
 21
106.48803
  0
LINE
  8
1-0
  6
CONTINUOUS
 62
    7
 10
133.38241
 20
106.48803
 11
133.35809
 21
106.49107
  0
LINE
  8
1-0
  6
CONTINUOUS
 62
    7
 10
133.42184
 20
106.57757
 11
133.38606
 21
106.58867
  0
LINE
  8
1-0
  6
CONTINUOUS
 62
    7
 10
133.38606
 20
106.58867
 11
133.34949
 21
106.59073
  0
LINE
  8
1-0
  6
CONTINUOUS
 62
    7
 10
133.34949
 20
106.59073
 11
133.31322
 21
106.58369
  0
LINE
  8
1-0
  6
CONTINUOUS
 62
    7
 10
133.31322
 20
106.58369
 11
133.27835
 21
106.56775
  0
LINE
  8
1-0
  6
CONTINUOUS
 62
    7
 10
133.27835
 20
106.56775
 11
133.24595
 21
106.54341
  0
LINE
  8
1-0
  6
CONTINUOUS
 62
    7
 10
133.24595
 20
106.54341
 11
133.21701
 21
106.5114
  0
LINE
  8
1-0
  6
CONTINUOUS
 62
    7
 10
133.21701
 20
106.5114
 11
133.19239
 21
106.4727
  0
LINE
  8
1-0
  6
CONTINUOUS
 62
    7
 10
133.19239
 20
106.4727
 11
133.17285
 21
106.42848
  0
LINE
  8
1-0
  6
CONTINUOUS
 62
    7
 10
133.17285
 20
106.42848
 11
133.15899
 21
106.38008
  0
LINE
  8
1-0
  6
CONTINUOUS
 62
    7
 10
133.15899
 20
106.38008
 11
133.15121
 21
106.32898
  0
LINE
  8
1-0
  6
CONTINUOUS
 62
    7
 10
133.15121
 20
106.32898
 11
133.14977
 21
106.27673
  0
LINE
  8
1-0
  6
CONTINUOUS
 62
    7
 10
133.14977
 20
106.27673
 11
133.1547
 21
106.22491
  0
LINE
  8
1-0
  6
CONTINUOUS
 62
    7
 10
133.1547
 20
106.22491
 11
133.16585
 21
106.1751
  0
LINE
  8
1-0
  6
CONTINUOUS
 62
    7
 10
133.16585
 20
106.1751
 11
133.18289
 21
106.12882
  0
LINE
  8
1-0
  6
CONTINUOUS
 62
    7
 10
133.18289
 20
106.12882
 11
133.2053
 21
106.08747
  0
LINE
  8
1-0
  6
CONTINUOUS
 62
    7
 10
133.2053
 20
106.08747
 11
133.23239
 21
106.0523
  0
LINE
  8
1-0
  6
CONTINUOUS
 62
    7
 10
133.23239
 20
106.0523
 11
133.26335
 21
106.02439
  0
LINE
  8
1-0
  6
CONTINUOUS
 62
    7
 10
133.26335
 20
106.02439
 11
133.29722
 21
106.00458
  0
LINE
  8
1-0
  6
CONTINUOUS
 62
    7
 10
133.29722
 20
106.00458
 11
133.333
 21
105.99348
  0
LINE
  8
1-0
  6
CONTINUOUS
 62
    7
 10
133.333
 20
105.99348
 11
133.36957
 21
105.99142
  0
LINE
  8
1-0
  6
CONTINUOUS
 62
    7
 10
133.36957
 20
105.99142
 11
133.40584
 21
105.99846
  0
LINE
  8
1-0
  6
CONTINUOUS
 62
    7
 10
133.40584
 20
105.99846
 11
133.42184
 21
106.00458
  0
LINE
  8
1-0
  6
CONTINUOUS
 62
    7
 10
133.74487
 20
106.14795
 11
133.76195
 21
106.15792
  0
LINE
  8
1-0
  6
CONTINUOUS
 62
    7
 10
133.76195
 20
106.15792
 11
133.77754
 21
106.17193
  0
LINE
  8
1-0
  6
CONTINUOUS
 62
    7
 10
133.77754
 20
106.17193
 11
133.79118
 21
106.18957
  0
LINE
  8
1-0
  6
CONTINUOUS
 62
    7
 10
133.79118
 20
106.18957
 11
133.80245
 21
106.21029
  0
LINE
  8
1-0
  6
CONTINUOUS
 62
    7
 10
133.80245
 20
106.21029
 11
133.81101
 21
106.23346
  0
LINE
  8
1-0
  6
CONTINUOUS
 62
    7
 10
133.81101
 20
106.23346
 11
133.81659
 21
106.25839
  0
LINE
  8
1-0
  6
CONTINUOUS
 62
    7
 10
133.81659
 20
106.25839
 11
133.81903
 21
106.28431
  0
LINE
  8
1-0
  6
CONTINUOUS
 62
    7
 10
133.81903
 20
106.28431
 11
133.81825
 21
106.31043
  0
LINE
  8
1-0
  6
CONTINUOUS
 62
    7
 10
133.81825
 20
106.31043
 11
133.81428
 21
106.33596
  0
LINE
  8
1-0
  6
CONTINUOUS
 62
    7
 10
133.81428
 20
106.33596
 11
133.80723
 21
106.36014
  0
LINE
  8
1-0
  6
CONTINUOUS
 62
    7
 10
133.80723
 20
106.36014
 11
133.79733
 21
106.38221
  0
LINE
  8
1-0
  6
CONTINUOUS
 62
    7
 10
133.79733
 20
106.38221
 11
133.78487
 21
106.40151
  0
LINE
  8
1-0
  6
CONTINUOUS
 62
    7
 10
133.78487
 20
106.40151
 11
133.77023
 21
106.41746
  0
LINE
  8
1-0
  6
CONTINUOUS
 62
    7
 10
133.77023
 20
106.41746
 11
133.75385
 21
106.42957
  0
LINE
  8
1-0
  6
CONTINUOUS
 62
    7
 10
133.75385
 20
106.42957
 11
133.74487
 21
106.4342
  0
LINE
  8
1-0
  6
CONTINUOUS
 62
    7
 10
133.80852
 20
106.14795
 11
133.8256
 21
106.15792
  0
LINE
  8
1-0
  6
CONTINUOUS
 62
    7
 10
133.8256
 20
106.15792
 11
133.8412
 21
106.17193
  0
LINE
  8
1-0
  6
CONTINUOUS
 62
    7
 10
133.8412
 20
106.17193
 11
133.85484
 21
106.18957
  0
LINE
  8
1-0
  6
CONTINUOUS
 62
    7
 10
133.85484
 20
106.18957
 11
133.86611
 21
106.21029
  0
LINE
  8
1-0
  6
CONTINUOUS
 62
    7
 10
133.86611
 20
106.21029
 11
133.87466
 21
106.23346
  0
LINE
  8
1-0
  6
CONTINUOUS
 62
    7
 10
133.87466
 20
106.23346
 11
133.88024
 21
106.25839
  0
LINE
  8
1-0
  6
CONTINUOUS
 62
    7
 10
133.88024
 20
106.25839
 11
133.88268
 21
106.28431
  0
LINE
  8
1-0
  6
CONTINUOUS
 62
    7
 10
133.88268
 20
106.28431
 11
133.8819
 21
106.31043
  0
LINE
  8
1-0
  6
CONTINUOUS
 62
    7
 10
133.8819
 20
106.31043
 11
133.87793
 21
106.33596
  0
LINE
  8
1-0
  6
CONTINUOUS
 62
    7
 10
133.87793
 20
106.33596
 11
133.87089
 21
106.36014
  0
LINE
  8
1-0
  6
CONTINUOUS
 62
    7
 10
133.87089
 20
106.36014
 11
133.86098
 21
106.38221
  0
LINE
  8
1-0
  6
CONTINUOUS
 62
    7
 10
133.86098
 20
106.38221
 11
133.84852
 21
106.40151
  0
LINE
  8
1-0
  6
CONTINUOUS
 62
    7
 10
133.84852
 20
106.40151
 11
133.83388
 21
106.41746
  0
LINE
  8
1-0
  6
CONTINUOUS
 62
    7
 10
133.83388
 20
106.41746
 11
133.81751
 21
106.42957
  0
LINE
  8
1-0
  6
CONTINUOUS
 62
    7
 10
133.81751
 20
106.42957
 11
133.80852
 21
106.4342
  0
LINE
  8
1-0
  6
CONTINUOUS
 62
    7
 10
133.65936
 20
105.30451
 11
133.77924
 21
105.34786
  0
LINE
  8
1-0
  6
CONTINUOUS
 62
    7
 10
133.77924
 20
105.34786
 11
133.89194
 21
105.41988
  0
LINE
  8
1-0
  6
CONTINUOUS
 62
    7
 10
133.89194
 20
105.41988
 11
133.99406
 21
105.51836
  0
LINE
  8
1-0
  6
CONTINUOUS
 62
    7
 10
133.99406
 20
105.51836
 11
134.08248
 21
105.64033
  0
LINE
  8
1-0
  6
CONTINUOUS
 62
    7
 10
134.08248
 20
105.64033
 11
134.15452
 21
105.78206
  0
LINE
  8
1-0
  6
CONTINUOUS
 62
    7
 10
134.15452
 20
105.78206
 11
134.20799
 21
105.93927
  0
LINE
  8
1-0
  6
CONTINUOUS
 62
    7
 10
134.20799
 20
105.93927
 11
134.24127
 21
106.10716
  0
LINE
  8
1-0
  6
CONTINUOUS
 62
    7
 10
134.24127
 20
106.10716
 11
134.25334
 21
106.28064
  0
LINE
  8
1-0
  6
CONTINUOUS
 62
    7
 10
134.25334
 20
106.28064
 11
134.24384
 21
106.45444
  0
LINE
  8
1-0
  6
CONTINUOUS
 62
    7
 10
134.24384
 20
106.45444
 11
134.21306
 21
106.62327
  0
LINE
  8
1-0
  6
CONTINUOUS
 62
    7
 10
134.21306
 20
106.62327
 11
134.16193
 21
106.78201
  0
LINE
  8
1-0
  6
CONTINUOUS
 62
    7
 10
134.16193
 20
106.78201
 11
134.092
 21
106.92583
  0
LINE
  8
1-0
  6
CONTINUOUS
 62
    7
 10
134.092
 20
106.92583
 11
134.00541
 21
107.05037
  0
LINE
  8
1-0
  6
CONTINUOUS
 62
    7
 10
134.00541
 20
107.05037
 11
133.90477
 21
107.15183
  0
LINE
  8
1-0
  6
CONTINUOUS
 62
    7
 10
133.90477
 20
107.15183
 11
133.79316
 21
107.22715
  0
LINE
  8
1-0
  6
CONTINUOUS
 62
    7
 10
133.79316
 20
107.22715
 11
133.67396
 21
107.27402
  0
LINE
  8
1-0
  6
CONTINUOUS
 62
    7
 10
133.67396
 20
107.27402
 11
133.65936
 21
107.27764
  0
LINE
  8
1-0
  6
CONTINUOUS
 62
    7
 10
129.41531
 20
99.921074
 11
129.391
 21
99.918036
  0
LINE
  8
1-0
  6
CONTINUOUS
 62
    7
 10
129.391
 20
99.918036
 11
129.36743
 21
99.909013
  0
LINE
  8
1-0
  6
CONTINUOUS
 62
    7
 10
129.36743
 20
99.909013
 11
129.34531
 21
99.894279
  0
LINE
  8
1-0
  6
CONTINUOUS
 62
    7
 10
129.34531
 20
99.894279
 11
129.32532
 21
99.874283
  0
LINE
  8
1-0
  6
CONTINUOUS
 62
    7
 10
129.32532
 20
99.874283
 11
129.30807
 21
99.849632
  0
LINE
  8
1-0
  6
CONTINUOUS
 62
    7
 10
129.30807
 20
99.849632
 11
129.29407
 21
99.821074
  0
LINE
  8
1-0
  6
CONTINUOUS
 62
    7
 10
129.29407
 20
99.821074
 11
129.28376
 21
99.789478
  0
LINE
  8
1-0
  6
CONTINUOUS
 62
    7
 10
129.28376
 20
99.789478
 11
129.27744
 21
99.755804
  0
LINE
  8
1-0
  6
CONTINUOUS
 62
    7
 10
129.27744
 20
99.755804
 11
129.27531
 21
99.721074
  0
LINE
  8
1-0
  6
CONTINUOUS
 62
    7
 10
129.27531
 20
99.721074
 11
129.27744
 21
99.686345
  0
LINE
  8
1-0
  6
CONTINUOUS
 62
    7
 10
129.27744
 20
99.686345
 11
129.28376
 21
99.65267
  0
LINE
  8
1-0
  6
CONTINUOUS
 62
    7
 10
129.28376
 20
99.65267
 11
129.29407
 21
99.621074
  0
LINE
  8
1-0
  6
CONTINUOUS
 62
    7
 10
129.29407
 20
99.621074
 11
129.30807
 21
99.592517
  0
LINE
  8
1-0
  6
CONTINUOUS
 62
    7
 10
129.30807
 20
99.592517
 11
129.32532
 21
99.567865
  0
LINE
  8
1-0
  6
CONTINUOUS
 62
    7
 10
129.32532
 20
99.567865
 11
129.34531
 21
99.547869
  0
LINE
  8
1-0
  6
CONTINUOUS
 62
    7
 10
129.34531
 20
99.547869
 11
129.36743
 21
99.533136
  0
LINE
  8
1-0
  6
CONTINUOUS
 62
    7
 10
129.36743
 20
99.533136
 11
129.391
 21
99.524113
  0
LINE
  8
1-0
  6
CONTINUOUS
 62
    7
 10
129.391
 20
99.524113
 11
129.41531
 21
99.521074
  0
LINE
  8
1-0
  6
CONTINUOUS
 62
    7
 10
129.41531
 20
99.521074
 11
129.43963
 21
99.524113
  0
LINE
  8
1-0
  6
CONTINUOUS
 62
    7
 10
129.43963
 20
99.524113
 11
129.4632
 21
99.533136
  0
LINE
  8
1-0
  6
CONTINUOUS
 62
    7
 10
129.4632
 20
99.533136
 11
129.48531
 21
99.547869
  0
LINE
  8
1-0
  6
CONTINUOUS
 62
    7
 10
129.48531
 20
99.547869
 11
129.5053
 21
99.567865
  0
LINE
  8
1-0
  6
CONTINUOUS
 62
    7
 10
129.5053
 20
99.567865
 11
129.52256
 21
99.592517
  0
LINE
  8
1-0
  6
CONTINUOUS
 62
    7
 10
129.52256
 20
99.592517
 11
129.53656
 21
99.621074
  0
LINE
  8
1-0
  6
CONTINUOUS
 62
    7
 10
129.53656
 20
99.621074
 11
129.54687
 21
99.65267
  0
LINE
  8
1-0
  6
CONTINUOUS
 62
    7
 10
129.54687
 20
99.65267
 11
129.55319
 21
99.686345
  0
LINE
  8
1-0
  6
CONTINUOUS
 62
    7
 10
129.55319
 20
99.686345
 11
129.55531
 21
99.721074
  0
LINE
  8
1-0
  6
CONTINUOUS
 62
    7
 10
129.55531
 20
99.721074
 11
129.55319
 21
99.755804
  0
LINE
  8
1-0
  6
CONTINUOUS
 62
    7
 10
129.55319
 20
99.755804
 11
129.54687
 21
99.789478
  0
LINE
  8
1-0
  6
CONTINUOUS
 62
    7
 10
129.54687
 20
99.789478
 11
129.53656
 21
99.821074
  0
LINE
  8
1-0
  6
CONTINUOUS
 62
    7
 10
129.53656
 20
99.821074
 11
129.52256
 21
99.849632
  0
LINE
  8
1-0
  6
CONTINUOUS
 62
    7
 10
129.52256
 20
99.849632
 11
129.5053
 21
99.874283
  0
LINE
  8
1-0
  6
CONTINUOUS
 62
    7
 10
129.5053
 20
99.874283
 11
129.48531
 21
99.894279
  0
LINE
  8
1-0
  6
CONTINUOUS
 62
    7
 10
129.48531
 20
99.894279
 11
129.4632
 21
99.909013
  0
LINE
  8
1-0
  6
CONTINUOUS
 62
    7
 10
129.4632
 20
99.909013
 11
129.43963
 21
99.918036
  0
LINE
  8
1-0
  6
CONTINUOUS
 62
    7
 10
129.43963
 20
99.918036
 11
129.41531
 21
99.921074
  0
LINE
  8
1-0
  6
CONTINUOUS
 62
    7
 10
129.34461
 20
99.921074
 11
129.3203
 21
99.918036
  0
LINE
  8
1-0
  6
CONTINUOUS
 62
    7
 10
129.3203
 20
99.918036
 11
129.29673
 21
99.909013
  0
LINE
  8
1-0
  6
CONTINUOUS
 62
    7
 10
129.29673
 20
99.909013
 11
129.27461
 21
99.894279
  0
LINE
  8
1-0
  6
CONTINUOUS
 62
    7
 10
129.27461
 20
99.894279
 11
129.25462
 21
99.874283
  0
LINE
  8
1-0
  6
CONTINUOUS
 62
    7
 10
129.25462
 20
99.874283
 11
129.23736
 21
99.849632
  0
LINE
  8
1-0
  6
CONTINUOUS
 62
    7
 10
129.23736
 20
99.849632
 11
129.22336
 21
99.821074
  0
LINE
  8
1-0
  6
CONTINUOUS
 62
    7
 10
129.22336
 20
99.821074
 11
129.21305
 21
99.789478
  0
LINE
  8
1-0
  6
CONTINUOUS
 62
    7
 10
129.21305
 20
99.789478
 11
129.20674
 21
99.755804
  0
LINE
  8
1-0
  6
CONTINUOUS
 62
    7
 10
129.20674
 20
99.755804
 11
129.20461
 21
99.721074
  0
LINE
  8
1-0
  6
CONTINUOUS
 62
    7
 10
129.20461
 20
99.721074
 11
129.20674
 21
99.686345
  0
LINE
  8
1-0
  6
CONTINUOUS
 62
    7
 10
129.20674
 20
99.686345
 11
129.21305
 21
99.65267
  0
LINE
  8
1-0
  6
CONTINUOUS
 62
    7
 10
129.21305
 20
99.65267
 11
129.22336
 21
99.621074
  0
LINE
  8
1-0
  6
CONTINUOUS
 62
    7
 10
129.22336
 20
99.621074
 11
129.23736
 21
99.592517
  0
LINE
  8
1-0
  6
CONTINUOUS
 62
    7
 10
129.23736
 20
99.592517
 11
129.25462
 21
99.567865
  0
LINE
  8
1-0
  6
CONTINUOUS
 62
    7
 10
129.25462
 20
99.567865
 11
129.27461
 21
99.547869
  0
LINE
  8
1-0
  6
CONTINUOUS
 62
    7
 10
129.27461
 20
99.547869
 11
129.29673
 21
99.533136
  0
LINE
  8
1-0
  6
CONTINUOUS
 62
    7
 10
129.29673
 20
99.533136
 11
129.3203
 21
99.524113
  0
LINE
  8
1-0
  6
CONTINUOUS
 62
    7
 10
129.3203
 20
99.524113
 11
129.34461
 21
99.521074
  0
LINE
  8
1-0
  6
CONTINUOUS
 62
    7
 10
129.28087
 20
99.434582
 11
129.31664
 21
99.423479
  0
LINE
  8
1-0
  6
CONTINUOUS
 62
    7
 10
129.31664
 20
99.423479
 11
129.35322
 21
99.421417
  0
LINE
  8
1-0
  6
CONTINUOUS
 62
    7
 10
129.35322
 20
99.421417
 11
129.38949
 21
99.428461
  0
LINE
  8
1-0
  6
CONTINUOUS
 62
    7
 10
129.38949
 20
99.428461
 11
129.42435
 21
99.444396
  0
LINE
  8
1-0
  6
CONTINUOUS
 62
    7
 10
129.42435
 20
99.444396
 11
129.45675
 21
99.468737
  0
LINE
  8
1-0
  6
CONTINUOUS
 62
    7
 10
129.45675
 20
99.468737
 11
129.4857
 21
99.500745
  0
LINE
  8
1-0
  6
CONTINUOUS
 62
    7
 10
129.4857
 20
99.500745
 11
129.51031
 21
99.539448
  0
LINE
  8
1-0
  6
CONTINUOUS
 62
    7
 10
129.51031
 20
99.539448
 11
129.52985
 21
99.58367
  0
LINE
  8
1-0
  6
CONTINUOUS
 62
    7
 10
129.52985
 20
99.58367
 11
129.54372
 21
99.632067
  0
LINE
  8
1-0
  6
CONTINUOUS
 62
    7
 10
129.54372
 20
99.632067
 11
129.55149
 21
99.683168
  0
LINE
  8
1-0
  6
CONTINUOUS
 62
    7
 10
129.55149
 20
99.683168
 11
129.55293
 21
99.73542
  0
LINE
  8
1-0
  6
CONTINUOUS
 62
    7
 10
129.55293
 20
99.73542
 11
129.548
 21
99.787237
  0
LINE
  8
1-0
  6
CONTINUOUS
 62
    7
 10
129.548
 20
99.787237
 11
129.53685
 21
99.837044
  0
LINE
  8
1-0
  6
CONTINUOUS
 62
    7
 10
129.53685
 20
99.837044
 11
129.51981
 21
99.883327
  0
LINE
  8
1-0
  6
CONTINUOUS
 62
    7
 10
129.51981
 20
99.883327
 11
129.4974
 21
99.92468
  0
LINE
  8
1-0
  6
CONTINUOUS
 62
    7
 10
129.4974
 20
99.92468
 11
129.47031
 21
99.959846
  0
LINE
  8
1-0
  6
CONTINUOUS
 62
    7
 10
129.47031
 20
99.959846
 11
129.43936
 21
99.987758
  0
LINE
  8
1-0
  6
CONTINUOUS
 62
    7
 10
129.43936
 20
99.987758
 11
129.40548
 21
100.00756
  0
LINE
  8
1-0
  6
CONTINUOUS
 62
    7
 10
129.40548
 20
100.00756
 11
129.36971
 21
100.01867
  0
LINE
  8
1-0
  6
CONTINUOUS
 62
    7
 10
129.36971
 20
100.01867
 11
129.33313
 21
100.02073
  0
LINE
  8
1-0
  6
CONTINUOUS
 62
    7
 10
129.33313
 20
100.02073
 11
129.29686
 21
100.01368
  0
LINE
  8
1-0
  6
CONTINUOUS
 62
    7
 10
129.29686
 20
100.01368
 11
129.28087
 21
100.00756
  0
LINE
  8
1-0
  6
CONTINUOUS
 62
    7
 10
128.95784
 20
99.864199
 11
128.94076
 21
99.854229
  0
LINE
  8
1-0
  6
CONTINUOUS
 62
    7
 10
128.94076
 20
99.854229
 11
128.92516
 21
99.840214
  0
LINE
  8
1-0
  6
CONTINUOUS
 62
    7
 10
128.92516
 20
99.840214
 11
128.91152
 21
99.822578
  0
LINE
  8
1-0
  6
CONTINUOUS
 62
    7
 10
128.91152
 20
99.822578
 11
128.90025
 21
99.801859
  0
LINE
  8
1-0
  6
CONTINUOUS
 62
    7
 10
128.90025
 20
99.801859
 11
128.8917
 21
99.778684
  0
LINE
  8
1-0
  6
CONTINUOUS
 62
    7
 10
128.8917
 20
99.778684
 11
128.88611
 21
99.75376
  0
LINE
  8
1-0
  6
CONTINUOUS
 62
    7
 10
128.88611
 20
99.75376
 11
128.88367
 21
99.727842
  0
LINE
  8
1-0
  6
CONTINUOUS
 62
    7
 10
128.88367
 20
99.727842
 11
128.88445
 21
99.701718
  0
LINE
  8
1-0
  6
CONTINUOUS
 62
    7
 10
128.88445
 20
99.701718
 11
128.88842
 21
99.676183
  0
LINE
  8
1-0
  6
CONTINUOUS
 62
    7
 10
128.88842
 20
99.676183
 11
128.89547
 21
99.652011
  0
LINE
  8
1-0
  6
CONTINUOUS
 62
    7
 10
128.89547
 20
99.652011
 11
128.90537
 21
99.629938
  0
LINE
  8
1-0
  6
CONTINUOUS
 62
    7
 10
128.90537
 20
99.629938
 11
128.91783
 21
99.610635
  0
LINE
  8
1-0
  6
CONTINUOUS
 62
    7
 10
128.91783
 20
99.610635
 11
128.93247
 21
99.594686
  0
LINE
  8
1-0
  6
CONTINUOUS
 62
    7
 10
128.93247
 20
99.594686
 11
128.94885
 21
99.582578
  0
LINE
  8
1-0
  6
CONTINUOUS
 62
    7
 10
128.94885
 20
99.582578
 11
128.95784
 21
99.577949
  0
LINE
  8
1-0
  6
CONTINUOUS
 62
    7
 10
128.8942
 20
99.864199
 11
128.87712
 21
99.854229
  0
LINE
  8
1-0
  6
CONTINUOUS
 62
    7
 10
128.87712
 20
99.854229
 11
128.86152
 21
99.840214
  0
LINE
  8
1-0
  6
CONTINUOUS
 62
    7
 10
128.86152
 20
99.840214
 11
128.84788
 21
99.822578
  0
LINE
  8
1-0
  6
CONTINUOUS
 62
    7
 10
128.84788
 20
99.822578
 11
128.83661
 21
99.801859
  0
LINE
  8
1-0
  6
CONTINUOUS
 62
    7
 10
128.83661
 20
99.801859
 11
128.82805
 21
99.778684
  0
LINE
  8
1-0
  6
CONTINUOUS
 62
    7
 10
128.82805
 20
99.778684
 11
128.82247
 21
99.75376
  0
LINE
  8
1-0
  6
CONTINUOUS
 62
    7
 10
128.82247
 20
99.75376
 11
128.82003
 21
99.727842
  0
LINE
  8
1-0
  6
CONTINUOUS
 62
    7
 10
128.82003
 20
99.727842
 11
128.82081
 21
99.701718
  0
LINE
  8
1-0
  6
CONTINUOUS
 62
    7
 10
128.82081
 20
99.701718
 11
128.82478
 21
99.676183
  0
LINE
  8
1-0
  6
CONTINUOUS
 62
    7
 10
128.82478
 20
99.676183
 11
128.83183
 21
99.652011
  0
LINE
  8
1-0
  6
CONTINUOUS
 62
    7
 10
128.83183
 20
99.652011
 11
128.84173
 21
99.629938
  0
LINE
  8
1-0
  6
CONTINUOUS
 62
    7
 10
128.84173
 20
99.629938
 11
128.85419
 21
99.610635
  0
LINE
  8
1-0
  6
CONTINUOUS
 62
    7
 10
128.85419
 20
99.610635
 11
128.86883
 21
99.594686
  0
LINE
  8
1-0
  6
CONTINUOUS
 62
    7
 10
128.86883
 20
99.594686
 11
128.88521
 21
99.582578
  0
LINE
  8
1-0
  6
CONTINUOUS
 62
    7
 10
128.88521
 20
99.582578
 11
128.8942
 21
99.577949
  0
LINE
  8
1-0
  6
CONTINUOUS
 62
    7
 10
133.28739
 20
99.921074
 11
133.26308
 21
99.918036
  0
LINE
  8
1-0
  6
CONTINUOUS
 62
    7
 10
133.26308
 20
99.918036
 11
133.23951
 21
99.909013
  0
LINE
  8
1-0
  6
CONTINUOUS
 62
    7
 10
133.23951
 20
99.909013
 11
133.21739
 21
99.894279
  0
LINE
  8
1-0
  6
CONTINUOUS
 62
    7
 10
133.21739
 20
99.894279
 11
133.1974
 21
99.874283
  0
LINE
  8
1-0
  6
CONTINUOUS
 62
    7
 10
133.1974
 20
99.874283
 11
133.18014
 21
99.849632
  0
LINE
  8
1-0
  6
CONTINUOUS
 62
    7
 10
133.18014
 20
99.849632
 11
133.16615
 21
99.821074
  0
LINE
  8
1-0
  6
CONTINUOUS
 62
    7
 10
133.16615
 20
99.821074
 11
133.15583
 21
99.789478
  0
LINE
  8
1-0
  6
CONTINUOUS
 62
    7
 10
133.15583
 20
99.789478
 11
133.14952
 21
99.755804
  0
LINE
  8
1-0
  6
CONTINUOUS
 62
    7
 10
133.14952
 20
99.755804
 11
133.14739
 21
99.721074
  0
LINE
  8
1-0
  6
CONTINUOUS
 62
    7
 10
133.14739
 20
99.721074
 11
133.14952
 21
99.686345
  0
LINE
  8
1-0
  6
CONTINUOUS
 62
    7
 10
133.14952
 20
99.686345
 11
133.15583
 21
99.65267
  0
LINE
  8
1-0
  6
CONTINUOUS
 62
    7
 10
133.15583
 20
99.65267
 11
133.16615
 21
99.621074
  0
LINE
  8
1-0
  6
CONTINUOUS
 62
    7
 10
133.16615
 20
99.621074
 11
133.18014
 21
99.592517
  0
LINE
  8
1-0
  6
CONTINUOUS
 62
    7
 10
133.18014
 20
99.592517
 11
133.1974
 21
99.567865
  0
LINE
  8
1-0
  6
CONTINUOUS
 62
    7
 10
133.1974
 20
99.567865
 11
133.21739
 21
99.547869
  0
LINE
  8
1-0
  6
CONTINUOUS
 62
    7
 10
133.21739
 20
99.547869
 11
133.23951
 21
99.533136
  0
LINE
  8
1-0
  6
CONTINUOUS
 62
    7
 10
133.23951
 20
99.533136
 11
133.26308
 21
99.524113
  0
LINE
  8
1-0
  6
CONTINUOUS
 62
    7
 10
133.26308
 20
99.524113
 11
133.28739
 21
99.521074
  0
LINE
  8
1-0
  6
CONTINUOUS
 62
    7
 10
133.28739
 20
99.521074
 11
133.3117
 21
99.524113
  0
LINE
  8
1-0
  6
CONTINUOUS
 62
    7
 10
133.3117
 20
99.524113
 11
133.33527
 21
99.533136
  0
LINE
  8
1-0
  6
CONTINUOUS
 62
    7
 10
133.33527
 20
99.533136
 11
133.35739
 21
99.547869
  0
LINE
  8
1-0
  6
CONTINUOUS
 62
    7
 10
133.35739
 20
99.547869
 11
133.37738
 21
99.567865
  0
LINE
  8
1-0
  6
CONTINUOUS
 62
    7
 10
133.37738
 20
99.567865
 11
133.39463
 21
99.592517
  0
LINE
  8
1-0
  6
CONTINUOUS
 62
    7
 10
133.39463
 20
99.592517
 11
133.40863
 21
99.621074
  0
LINE
  8
1-0
  6
CONTINUOUS
 62
    7
 10
133.40863
 20
99.621074
 11
133.41895
 21
99.65267
  0
LINE
  8
1-0
  6
CONTINUOUS
 62
    7
 10
133.41895
 20
99.65267
 11
133.42526
 21
99.686345
  0
LINE
  8
1-0
  6
CONTINUOUS
 62
    7
 10
133.42526
 20
99.686345
 11
133.42739
 21
99.721074
  0
LINE
  8
1-0
  6
CONTINUOUS
 62
    7
 10
133.42739
 20
99.721074
 11
133.42526
 21
99.755804
  0
LINE
  8
1-0
  6
CONTINUOUS
 62
    7
 10
133.42526
 20
99.755804
 11
133.41895
 21
99.789478
  0
LINE
  8
1-0
  6
CONTINUOUS
 62
    7
 10
133.41895
 20
99.789478
 11
133.40863
 21
99.821074
  0
LINE
  8
1-0
  6
CONTINUOUS
 62
    7
 10
133.40863
 20
99.821074
 11
133.39463
 21
99.849632
  0
LINE
  8
1-0
  6
CONTINUOUS
 62
    7
 10
133.39463
 20
99.849632
 11
133.37738
 21
99.874283
  0
LINE
  8
1-0
  6
CONTINUOUS
 62
    7
 10
133.37738
 20
99.874283
 11
133.35739
 21
99.894279
  0
LINE
  8
1-0
  6
CONTINUOUS
 62
    7
 10
133.35739
 20
99.894279
 11
133.33527
 21
99.909013
  0
LINE
  8
1-0
  6
CONTINUOUS
 62
    7
 10
133.33527
 20
99.909013
 11
133.3117
 21
99.918036
  0
LINE
  8
1-0
  6
CONTINUOUS
 62
    7
 10
133.3117
 20
99.918036
 11
133.28739
 21
99.921074
  0
LINE
  8
1-0
  6
CONTINUOUS
 62
    7
 10
133.35809
 20
99.521074
 11
133.38241
 21
99.524113
  0
LINE
  8
1-0
  6
CONTINUOUS
 62
    7
 10
133.38241
 20
99.524113
 11
133.40598
 21
99.533136
  0
LINE
  8
1-0
  6
CONTINUOUS
 62
    7
 10
133.40598
 20
99.533136
 11
133.42809
 21
99.547869
  0
LINE
  8
1-0
  6
CONTINUOUS
 62
    7
 10
133.42809
 20
99.547869
 11
133.44808
 21
99.567865
  0
LINE
  8
1-0
  6
CONTINUOUS
 62
    7
 10
133.44808
 20
99.567865
 11
133.46534
 21
99.592517
  0
LINE
  8
1-0
  6
CONTINUOUS
 62
    7
 10
133.46534
 20
99.592517
 11
133.47934
 21
99.621074
  0
LINE
  8
1-0
  6
CONTINUOUS
 62
    7
 10
133.47934
 20
99.621074
 11
133.48965
 21
99.65267
  0
LINE
  8
1-0
  6
CONTINUOUS
 62
    7
 10
133.48965
 20
99.65267
 11
133.49597
 21
99.686345
  0
LINE
  8
1-0
  6
CONTINUOUS
 62
    7
 10
133.49597
 20
99.686345
 11
133.49809
 21
99.721074
  0
LINE
  8
1-0
  6
CONTINUOUS
 62
    7
 10
133.49809
 20
99.721074
 11
133.49597
 21
99.755804
  0
LINE
  8
1-0
  6
CONTINUOUS
 62
    7
 10
133.49597
 20
99.755804
 11
133.48965
 21
99.789478
  0
LINE
  8
1-0
  6
CONTINUOUS
 62
    7
 10
133.48965
 20
99.789478
 11
133.47934
 21
99.821074
  0
LINE
  8
1-0
  6
CONTINUOUS
 62
    7
 10
133.47934
 20
99.821074
 11
133.46534
 21
99.849632
  0
LINE
  8
1-0
  6
CONTINUOUS
 62
    7
 10
133.46534
 20
99.849632
 11
133.44808
 21
99.874283
  0
LINE
  8
1-0
  6
CONTINUOUS
 62
    7
 10
133.44808
 20
99.874283
 11
133.42809
 21
99.894279
  0
LINE
  8
1-0
  6
CONTINUOUS
 62
    7
 10
133.42809
 20
99.894279
 11
133.40598
 21
99.909013
  0
LINE
  8
1-0
  6
CONTINUOUS
 62
    7
 10
133.40598
 20
99.909013
 11
133.38241
 21
99.918036
  0
LINE
  8
1-0
  6
CONTINUOUS
 62
    7
 10
133.38241
 20
99.918036
 11
133.35809
 21
99.921074
  0
LINE
  8
1-0
  6
CONTINUOUS
 62
    7
 10
133.42184
 20
100.00756
 11
133.38606
 21
100.01867
  0
LINE
  8
1-0
  6
CONTINUOUS
 62
    7
 10
133.38606
 20
100.01867
 11
133.34949
 21
100.02073
  0
LINE
  8
1-0
  6
CONTINUOUS
 62
    7
 10
133.34949
 20
100.02073
 11
133.31322
 21
100.01368
  0
LINE
  8
1-0
  6
CONTINUOUS
 62
    7
 10
133.31322
 20
100.01368
 11
133.27835
 21
99.997753
  0
LINE
  8
1-0
  6
CONTINUOUS
 62
    7
 10
133.27835
 20
99.997753
 11
133.24595
 21
99.973412
  0
LINE
  8
1-0
  6
CONTINUOUS
 62
    7
 10
133.24595
 20
99.973412
 11
133.21701
 21
99.941403
  0
LINE
  8
1-0
  6
CONTINUOUS
 62
    7
 10
133.21701
 20
99.941403
 11
133.19239
 21
99.9027
  0
LINE
  8
1-0
  6
CONTINUOUS
 62
    7
 10
133.19239
 20
99.9027
 11
133.17285
 21
99.858478
  0
LINE
  8
1-0
  6
CONTINUOUS
 62
    7
 10
133.17285
 20
99.858478
 11
133.15899
 21
99.810082
  0
LINE
  8
1-0
  6
CONTINUOUS
 62
    7
 10
133.15899
 20
99.810082
 11
133.15121
 21
99.758981
  0
LINE
  8
1-0
  6
CONTINUOUS
 62
    7
 10
133.15121
 20
99.758981
 11
133.14977
 21
99.706728
  0
LINE
  8
1-0
  6
CONTINUOUS
 62
    7
 10
133.14977
 20
99.706728
 11
133.1547
 21
99.654911
  0
LINE
  8
1-0
  6
CONTINUOUS
 62
    7
 10
133.1547
 20
99.654911
 11
133.16585
 21
99.605105
  0
LINE
  8
1-0
  6
CONTINUOUS
 62
    7
 10
133.16585
 20
99.605105
 11
133.18289
 21
99.558822
  0
LINE
  8
1-0
  6
CONTINUOUS
 62
    7
 10
133.18289
 20
99.558822
 11
133.2053
 21
99.517469
  0
LINE
  8
1-0
  6
CONTINUOUS
 62
    7
 10
133.2053
 20
99.517469
 11
133.23239
 21
99.482302
  0
LINE
  8
1-0
  6
CONTINUOUS
 62
    7
 10
133.23239
 20
99.482302
 11
133.26335
 21
99.454391
  0
LINE
  8
1-0
  6
CONTINUOUS
 62
    7
 10
133.26335
 20
99.454391
 11
133.29722
 21
99.434582
  0
LINE
  8
1-0
  6
CONTINUOUS
 62
    7
 10
133.29722
 20
99.434582
 11
133.333
 21
99.423479
  0
LINE
  8
1-0
  6
CONTINUOUS
 62
    7
 10
133.333
 20
99.423479
 11
133.36957
 21
99.421417
  0
LINE
  8
1-0
  6
CONTINUOUS
 62
    7
 10
133.36957
 20
99.421417
 11
133.40584
 21
99.428461
  0
LINE
  8
1-0
  6
CONTINUOUS
 62
    7
 10
133.40584
 20
99.428461
 11
133.42184
 21
99.434582
  0
LINE
  8
1-0
  6
CONTINUOUS
 62
    7
 10
133.74487
 20
99.577949
 11
133.76195
 21
99.587919
  0
LINE
  8
1-0
  6
CONTINUOUS
 62
    7
 10
133.76195
 20
99.587919
 11
133.77754
 21
99.601935
  0
LINE
  8
1-0
  6
CONTINUOUS
 62
    7
 10
133.77754
 20
99.601935
 11
133.79118
 21
99.61957
  0
LINE
  8
1-0
  6
CONTINUOUS
 62
    7
 10
133.79118
 20
99.61957
 11
133.80245
 21
99.64029
  0
LINE
  8
1-0
  6
CONTINUOUS
 62
    7
 10
133.80245
 20
99.64029
 11
133.81101
 21
99.663464
  0
LINE
  8
1-0
  6
CONTINUOUS
 62
    7
 10
133.81101
 20
99.663464
 11
133.81659
 21
99.688389
  0
LINE
  8
1-0
  6
CONTINUOUS
 62
    7
 10
133.81659
 20
99.688389
 11
133.81903
 21
99.714307
  0
LINE
  8
1-0
  6
CONTINUOUS
 62
    7
 10
133.81903
 20
99.714307
 11
133.81825
 21
99.74043
  0
LINE
  8
1-0
  6
CONTINUOUS
 62
    7
 10
133.81825
 20
99.74043
 11
133.81428
 21
99.765966
  0
LINE
  8
1-0
  6
CONTINUOUS
 62
    7
 10
133.81428
 20
99.765966
 11
133.80723
 21
99.790137
  0
LINE
  8
1-0
  6
CONTINUOUS
 62
    7
 10
133.80723
 20
99.790137
 11
133.79733
 21
99.81221
  0
LINE
  8
1-0
  6
CONTINUOUS
 62
    7
 10
133.79733
 20
99.81221
 11
133.78487
 21
99.831514
  0
LINE
  8
1-0
  6
CONTINUOUS
 62
    7
 10
133.78487
 20
99.831514
 11
133.77023
 21
99.847462
  0
LINE
  8
1-0
  6
CONTINUOUS
 62
    7
 10
133.77023
 20
99.847462
 11
133.75385
 21
99.85957
  0
LINE
  8
1-0
  6
CONTINUOUS
 62
    7
 10
133.75385
 20
99.85957
 11
133.74487
 21
99.864199
  0
CIRCLE
  8
1-0
  6
CONTINUOUS
 62
    7
 10
151.35134
 20
130.69108
 40
0.2
  0
LINE
  8
1-0
  6
CONTINUOUS
 62
    7
 10
150.41382
 20
126.39108
 11
150.40334
 21
126.4592
  0
LINE
  8
1-0
  6
CONTINUOUS
 62
    7
 10
150.40334
 20
126.4592
 11
150.36094
 21
126.52798
  0
LINE
  8
1-0
  6
CONTINUOUS
 62
    7
 10
150.36094
 20
126.52798
 11
150.28792
 21
126.59531
  0
LINE
  8
1-0
  6
CONTINUOUS
 62
    7
 10
150.28792
 20
126.59531
 11
150.18648
 21
126.65916
  0
LINE
  8
1-0
  6
CONTINUOUS
 62
    7
 10
150.18648
 20
126.65916
 11
150.05972
 21
126.71759
  0
LINE
  8
1-0
  6
CONTINUOUS
 62
    7
 10
150.05972
 20
126.71759
 11
149.91149
 21
126.76882
  0
LINE
  8
1-0
  6
CONTINUOUS
 62
    7
 10
149.91149
 20
126.76882
 11
149.74628
 21
126.81129
  0
LINE
  8
1-0
  6
CONTINUOUS
 62
    7
 10
149.74628
 20
126.81129
 11
149.56912
 21
126.84371
  0
LINE
  8
1-0
  6
CONTINUOUS
 62
    7
 10
149.56912
 20
126.84371
 11
149.38539
 21
126.8651
  0
LINE
  8
1-0
  6
CONTINUOUS
 62
    7
 10
149.38539
 20
126.8651
 11
149.20068
 21
126.87481
  0
LINE
  8
1-0
  6
CONTINUOUS
 62
    7
 10
149.20068
 20
126.87481
 11
149.02059
 21
126.87255
  0
LINE
  8
1-0
  6
CONTINUOUS
 62
    7
 10
149.02059
 20
126.87255
 11
148.85061
 21
126.85837
  0
LINE
  8
1-0
  6
CONTINUOUS
 62
    7
 10
148.85061
 20
126.85837
 11
148.69588
 21
126.83272
  0
LINE
  8
1-0
  6
CONTINUOUS
 62
    7
 10
148.69588
 20
126.83272
 11
148.56112
 21
126.79637
  0
LINE
  8
1-0
  6
CONTINUOUS
 62
    7
 10
148.56112
 20
126.79637
 11
148.45042
 21
126.75043
  0
LINE
  8
1-0
  6
CONTINUOUS
 62
    7
 10
148.45042
 20
126.75043
 11
148.36714
 21
126.69629
  0
LINE
  8
1-0
  6
CONTINUOUS
 62
    7
 10
148.36714
 20
126.69629
 11
148.31381
 21
126.6356
  0
LINE
  8
1-0
  6
CONTINUOUS
 62
    7
 10
148.31381
 20
126.6356
 11
148.29206
 21
126.5702
  0
ARC
  8
1-0
  6
CONTINUOUS
 62
    7
 10
151.35134
 20
130.69108
 40
0.5
 50
351.76533
 51
150.78125
  0
ARC
  8
1-0
  6
CONTINUOUS
 62
    7
 10
151.35134
 20
130.69108
 40
1.2149998
 50
352.90841
 51
7.0915832
  0
ARC
  8
1-0
  6
CONTINUOUS
 62
    7
 10
151.35134
 20
130.69108
 40
1.125
 50
7.6621856
 51
214.39321
  0
ARC
  8
1-0
  6
CONTINUOUS
 62
    7
 10
151.35134
 20
130.69108
 40
1.125
 50
288.15359
 51
352.33781
  0
LINE
  8
1-0
  6
CONTINUOUS
 62
    7
 10
133.65936
 20
98.734508
 11
133.77924
 21
98.777864
  0
LINE
  8
1-0
  6
CONTINUOUS
 62
    7
 10
133.77924
 20
98.777864
 11
133.85135
 21
98.820051
  0
LINE
  8
1-0
  6
CONTINUOUS
 62
    7
 10
133.85135
 20
100.62209
 11
133.73559
 21
100.68373
  0
LINE
  8
1-0
  6
CONTINUOUS
 62
    7
 10
133.73559
 20
100.68373
 11
133.65936
 21
100.70764
  0
LINE
  8
1-0
  6
CONTINUOUS
 62
    7
 10
133.64944
 20
98.732296
 11
133.77296
 21
98.721376
  0
LINE
  8
1-0
  6
CONTINUOUS
 62
    7
 10
133.77296
 20
98.721376
 11
133.85135
 21
98.730228
  0
LINE
  8
1-0
  6
CONTINUOUS
 62
    7
 10
133.85135
 20
100.71192
 11
133.72774
 21
100.7203
  0
LINE
  8
1-0
  6
CONTINUOUS
 62
    7
 10
133.72774
 20
100.7203
 11
133.64944
 21
100.70985
  0
LINE
  8
1-0
  6
CONTINUOUS
 62
    7
 10
133.80852
 20
99.577949
 11
133.8256
 21
99.587919
  0
LINE
  8
1-0
  6
CONTINUOUS
 62
    7
 10
133.8256
 20
99.587919
 11
133.8412
 21
99.601935
  0
LINE
  8
1-0
  6
CONTINUOUS
 62
    7
 10
133.8412
 20
99.601935
 11
133.85135
 21
99.614454
  0
LINE
  8
1-0
  6
CONTINUOUS
 62
    7
 10
133.85135
 20
99.827695
 11
133.83714
 21
99.844396
  0
LINE
  8
1-0
  6
CONTINUOUS
 62
    7
 10
133.83714
 20
99.844396
 11
133.82109
 21
99.857351
  0
LINE
  8
1-0
  6
CONTINUOUS
 62
    7
 10
133.82109
 20
99.857351
 11
133.80852
 21
99.864199
  0
ARC
  8
1-0
  6
CONTINUOUS
 62
    7
 10
134.11635
 20
101.42107
 40
0.175
 50
0
 51
180
  0
ARC
  8
1-0
  6
CONTINUOUS
 62
    7
 10
123.88636
 20
101.42107
 40
0.175
 50
0
 51
180
  0
ARC
  8
1-0
  6
CONTINUOUS
 62
    7
 10
124.23636
 20
101.42107
 40
0.175
 50
84.187927
 51
276.25833
  0
ARC
  8
1-0
  6
CONTINUOUS
 62
    7
 10
133.76635
 20
101.42107
 40
0.175
 50
270
 51
90
  0
LINE
  8
1-0
  6
CONTINUOUS
 62
    7
 10
129.04334
 20
100.70764
 11
128.92347
 21
100.66428
  0
LINE
  8
1-0
  6
CONTINUOUS
 62
    7
 10
128.92347
 20
100.66428
 11
128.84984
 21
100.62107
  0
LINE
  8
1-0
  6
CONTINUOUS
 62
    7
 10
128.5086
 20
100.12107
 11
128.46917
 21
99.955843
  0
LINE
  8
1-0
  6
CONTINUOUS
 62
    7
 10
128.46917
 20
99.955843
 11
128.45071
 21
99.783481
  0
LINE
  8
1-0
  6
CONTINUOUS
 62
    7
 10
128.45071
 20
99.783481
 11
128.45378
 21
99.609224
  0
LINE
  8
1-0
  6
CONTINUOUS
 62
    7
 10
128.45378
 20
99.609224
 11
128.47829
 21
99.438364
  0
LINE
  8
1-0
  6
CONTINUOUS
 62
    7
 10
128.47829
 20
99.438364
 11
128.52349
 21
99.276095
  0
LINE
  8
1-0
  6
CONTINUOUS
 62
    7
 10
128.52349
 20
99.276095
 11
128.58801
 21
99.127346
  0
LINE
  8
1-0
  6
CONTINUOUS
 62
    7
 10
128.58801
 20
99.127346
 11
128.66989
 21
98.996637
  0
LINE
  8
1-0
  6
CONTINUOUS
 62
    7
 10
128.66989
 20
98.996637
 11
128.76664
 21
98.88794
  0
LINE
  8
1-0
  6
CONTINUOUS
 62
    7
 10
128.76664
 20
98.88794
 11
128.87533
 21
98.804558
  0
LINE
  8
1-0
  6
CONTINUOUS
 62
    7
 10
128.87533
 20
98.804558
 11
128.99264
 21
98.749023
  0
LINE
  8
1-0
  6
CONTINUOUS
 62
    7
 10
128.99264
 20
98.749023
 11
129.04334
 21
98.734508
  0
LINE
  8
1-0
  6
CONTINUOUS
 62
    7
 10
129.05326
 20
100.70985
 11
128.92974
 21
100.72077
  0
LINE
  8
1-0
  6
CONTINUOUS
 62
    7
 10
128.92974
 20
100.72077
 11
128.80675
 21
100.70131
  0
LINE
  8
1-0
  6
CONTINUOUS
 62
    7
 10
128.80675
 20
100.70131
 11
128.68803
 21
100.65207
  0
LINE
  8
1-0
  6
CONTINUOUS
 62
    7
 10
128.68803
 20
100.65207
 11
128.63771
 21
100.62107
  0
LINE
  8
1-0
  6
CONTINUOUS
 62
    7
 10
128.29647
 20
100.12107
 11
128.25704
 21
99.955843
  0
LINE
  8
1-0
  6
CONTINUOUS
 62
    7
 10
128.25704
 20
99.955843
 11
128.23858
 21
99.783481
  0
LINE
  8
1-0
  6
CONTINUOUS
 62
    7
 10
128.23858
 20
99.783481
 11
128.24165
 21
99.609224
  0
LINE
  8
1-0
  6
CONTINUOUS
 62
    7
 10
128.24165
 20
99.609224
 11
128.26616
 21
99.438364
  0
LINE
  8
1-0
  6
CONTINUOUS
 62
    7
 10
128.26616
 20
99.438364
 11
128.31136
 21
99.276095
  0
LINE
  8
1-0
  6
CONTINUOUS
 62
    7
 10
128.31136
 20
99.276095
 11
128.37588
 21
99.127346
  0
LINE
  8
1-0
  6
CONTINUOUS
 62
    7
 10
128.37588
 20
99.127346
 11
128.45776
 21
98.996637
  0
LINE
  8
1-0
  6
CONTINUOUS
 62
    7
 10
128.45776
 20
98.996637
 11
128.55451
 21
98.88794
  0
LINE
  8
1-0
  6
CONTINUOUS
 62
    7
 10
128.55451
 20
98.88794
 11
128.6632
 21
98.804558
  0
LINE
  8
1-0
  6
CONTINUOUS
 62
    7
 10
128.6632
 20
98.804558
 11
128.78051
 21
98.749023
  0
LINE
  8
1-0
  6
CONTINUOUS
 62
    7
 10
128.78051
 20
98.749023
 11
128.90289
 21
98.723023
  0
LINE
  8
1-0
  6
CONTINUOUS
 62
    7
 10
128.90289
 20
98.723023
 11
129.02661
 21
98.727349
  0
LINE
  8
1-0
  6
CONTINUOUS
 62
    7
 10
129.02661
 20
98.727349
 11
129.05326
 21
98.732296
  0
ARC
  8
1-0
  6
CONTINUOUS
 62
    7
 10
124.23636
 20
98.121079
 40
0.175
 50
84.187927
 51
276.25833
  0
ARC
  8
1-0
  6
CONTINUOUS
 62
    7
 10
133.76635
 20
98.121079
 40
0.175
 50
270
 51
90
  0
ARC
  8
1-0
  6
CONTINUOUS
 62
    7
 10
123.88636
 20
93.246075
 40
0.175
 50
0
 51
180
  0
ARC
  8
1-0
  6
CONTINUOUS
 62
    7
 10
127.38634
 20
93.246075
 40
0.175
 50
0
 51
180
  0
ARC
  8
1-0
  6
CONTINUOUS
 62
    7
 10
124.06136
 20
91.121087
 40
0.175
 50
90
 51
270
  0
ARC
  8
1-0
  6
CONTINUOUS
 62
    7
 10
127.21134
 20
91.121087
 40
0.175
 50
270
 51
90
  0
ARC
  8
1-0
  6
CONTINUOUS
 62
    7
 10
124.06136
 20
88.121077
 40
0.175
 50
90
 51
270
  0
ARC
  8
1-0
  6
CONTINUOUS
 62
    7
 10
127.21134
 20
88.121077
 40
0.175
 50
270
 51
90
  0
ARC
  8
1-0
  6
CONTINUOUS
 62
    7
 10
124.06136
 20
85.121079
 40
0.175
 50
90
 51
270
  0
ARC
  8
1-0
  6
CONTINUOUS
 62
    7
 10
127.21134
 20
85.121079
 40
0.175
 50
270
 51
90
  0
ARC
  8
1-0
  6
CONTINUOUS
 62
    7
 10
124.06136
 20
82.121082
 40
0.175
 50
90
 51
270
  0
ARC
  8
1-0
  6
CONTINUOUS
 62
    7
 10
127.21134
 20
82.121082
 40
0.175
 50
270
 51
90
  0
ARC
  8
1-0
  6
CONTINUOUS
 62
    7
 10
131.61137
 20
120.74108
 40
0.15
 50
0
 51
180
  0
ARC
  8
1-0
  6
CONTINUOUS
 62
    7
 10
132.01135
 20
120.74108
 40
0.15
 50
104.43141
 51
180
  0
ARC
  8
1-0
  6
CONTINUOUS
 62
    7
 10
150.91136
 20
120.74108
 40
0.15
 50
0
 51
90
  0
ARC
  8
1-0
  6
CONTINUOUS
 62
    7
 10
151.31135
 20
120.74108
 40
0.15
 50
90
 51
180
  0
ARC
  8
1-0
  6
CONTINUOUS
 62
    7
 10
155.79135
 20
120.74108
 40
0.15
 50
0
 51
90
  0
ARC
  8
1-0
  6
CONTINUOUS
 62
    7
 10
144.80133
 20
111.62108
 40
0.05
 50
180
 51
270
  0
ARC
  8
1-0
  6
CONTINUOUS
 62
    7
 10
145.61138
 20
111.52107
 40
0.05
 50
0
 51
90
  0
ARC
  8
1-0
  6
CONTINUOUS
 62
    7
 10
149.30135
 20
111.62108
 40
0.05
 50
270
 51
360
  0
ARC
  8
1-0
  6
CONTINUOUS
 62
    7
 10
148.49135
 20
111.52107
 40
0.05
 50
90
 51
180
  0
ARC
  8
1-0
  6
CONTINUOUS
 62
    7
 10
147.85137
 20
122.79107
 40
1.8000002
 50
10.415695
 51
169.5843
  0
ARC
  8
1-0
  6
CONTINUOUS
 62
    7
 10
147.85137
 20
122.79107
 40
1.2000001
 50
0
 51
180
  0
ARC
  8
1-0
  6
CONTINUOUS
 62
    7
 10
147.85137
 20
122.19106
 40
1.2000001
 50
180
 51
0
  0
ARC
  8
1-0
  6
CONTINUOUS
 62
    7
 10
147.85137
 20
122.79107
 40
1.5500001
 50
314.68179
 51
225.3182
  0
ARC
  8
1-0
  6
CONTINUOUS
 62
    7
 10
147.05135
 20
115.79107
 40
0.8000001
 50
118.95463
 51
61.045364
  0
ARC
  8
1-0
  6
CONTINUOUS
 62
    7
 10
147.05135
 20
115.79107
 40
1.3
 50
147.42088
 51
32.579116
  0
ARC
  8
1-0
  6
CONTINUOUS
 62
    7
 10
147.05135
 20
115.79107
 40
1.3
 50
50.285186
 51
129.71481
  0
ARC
  8
1-0
  6
CONTINUOUS
 62
    7
 10
147.05135
 20
115.79107
 40
1.8000002
 50
157.11463
 51
22.88536
  0
ARC
  8
1-0
  6
CONTINUOUS
 62
    7
 10
147.05135
 20
115.79107
 40
1.8000002
 50
33.749053
 51
146.25094
  0
ARC
  8
1-0
  6
CONTINUOUS
 62
    7
 10
135.95135
 20
112.34108
 40
1.3750001
 50
303.55494
 51
338.6762
  0
ARC
  8
1-0
  6
CONTINUOUS
 62
    7
 10
135.95135
 20
112.34108
 40
0.2
 50
272.86851
 51
311.40748
  0
ARC
  8
1-0
  6
CONTINUOUS
 62
    7
 10
135.95135
 20
112.34108
 40
1.3750001
 50
21.323791
 51
79.099853
  0
ARC
  8
1-0
  6
CONTINUOUS
 62
    7
 10
141.42134
 20
123.6064
 40
0.035
 50
7.1275329
 51
177.81141
  0
ARC
  8
1-0
  6
CONTINUOUS
 62
    7
 10
141.38634
 20
122.6864
 40
0.035
 50
177.81141
 51
357.81219
  0
ARC
  8
1-0
  6
CONTINUOUS
 62
    7
 10
141.53634
 20
122.6864
 40
0.035
 50
177.81141
 51
7.1275329
  0
ARC
  8
1-0
  6
CONTINUOUS
 62
    7
 10
141.57134
 20
123.6064
 40
0.035
 50
357.81219
 51
177.81141
  0
ARC
  8
1-0
  6
CONTINUOUS
 62
    7
 10
141.68634
 20
122.6864
 40
0.035
 50
177.81141
 51
7.1275329
  0
ARC
  8
1-0
  6
CONTINUOUS
 62
    7
 10
141.72134
 20
123.6064
 40
0.035
 50
357.81219
 51
177.81141
  0
ARC
  8
1-0
  6
CONTINUOUS
 62
    7
 10
141.83634
 20
122.6864
 40
0.035
 50
177.81141
 51
7.1275329
  0
ARC
  8
1-0
  6
CONTINUOUS
 62
    7
 10
141.87134
 20
123.6064
 40
0.035
 50
357.81219
 51
177.81141
  0
ARC
  8
1-0
  6
CONTINUOUS
 62
    7
 10
141.98633
 20
122.6864
 40
0.035
 50
177.81141
 51
7.1275329
  0
ARC
  8
1-0
  6
CONTINUOUS
 62
    7
 10
142.02133
 20
123.6064
 40
0.035
 50
357.81219
 51
177.81141
  0
ARC
  8
1-0
  6
CONTINUOUS
 62
    7
 10
142.13634
 20
122.6864
 40
0.035
 50
177.81141
 51
7.1275329
  0
ARC
  8
1-0
  6
CONTINUOUS
 62
    7
 10
142.17134
 20
123.6064
 40
0.035
 50
357.81219
 51
177.81141
  0
ARC
  8
1-0
  6
CONTINUOUS
 62
    7
 10
142.28634
 20
122.6864
 40
0.035
 50
177.81141
 51
7.1275329
  0
ARC
  8
1-0
  6
CONTINUOUS
 62
    7
 10
142.32134
 20
123.6064
 40
0.035
 50
357.81219
 51
177.81141
  0
ARC
  8
1-0
  6
CONTINUOUS
 62
    7
 10
142.43634
 20
122.6864
 40
0.035
 50
177.81141
 51
7.1275329
  0
ARC
  8
1-0
  6
CONTINUOUS
 62
    7
 10
142.47134
 20
123.6064
 40
0.035
 50
357.81219
 51
177.81141
  0
ARC
  8
1-0
  6
CONTINUOUS
 62
    7
 10
142.58634
 20
122.6864
 40
0.035
 50
177.81141
 51
7.1275329
  0
ARC
  8
1-0
  6
CONTINUOUS
 62
    7
 10
142.62134
 20
123.6064
 40
0.035
 50
357.81219
 51
177.81141
  0
ARC
  8
1-0
  6
CONTINUOUS
 62
    7
 10
142.73634
 20
122.6864
 40
0.035
 50
177.81141
 51
7.1275329
  0
ARC
  8
1-0
  6
CONTINUOUS
 62
    7
 10
142.77134
 20
123.6064
 40
0.035
 50
357.81219
 51
177.81141
  0
ARC
  8
1-0
  6
CONTINUOUS
 62
    7
 10
142.88633
 20
122.6864
 40
0.035
 50
177.81141
 51
7.1275329
  0
ARC
  8
1-0
  6
CONTINUOUS
 62
    7
 10
142.92133
 20
123.6064
 40
0.035
 50
357.81219
 51
177.81141
  0
ARC
  8
1-0
  6
CONTINUOUS
 62
    7
 10
143.03634
 20
122.6864
 40
0.035
 50
177.81141
 51
7.1275329
  0
ARC
  8
1-0
  6
CONTINUOUS
 62
    7
 10
143.07134
 20
123.6064
 40
0.035
 50
357.81219
 51
177.81141
  0
ARC
  8
1-0
  6
CONTINUOUS
 62
    7
 10
143.18634
 20
122.6864
 40
0.035
 50
177.81141
 51
7.1275329
  0
ARC
  8
1-0
  6
CONTINUOUS
 62
    7
 10
143.22134
 20
123.6064
 40
0.035
 50
357.81219
 51
177.81141
  0
ARC
  8
1-0
  6
CONTINUOUS
 62
    7
 10
143.37134
 20
123.6064
 40
0.035
 50
357.81219
 51
177.81141
  0
ARC
  8
1-0
  6
CONTINUOUS
 62
    7
 10
143.52133
 20
123.6064
 40
0.035
 50
357.81219
 51
177.81141
  0
ARC
  8
1-0
  6
CONTINUOUS
 62
    7
 10
143.67132
 20
123.6064
 40
0.035
 50
357.81219
 51
177.81141
  0
ARC
  8
1-0
  6
CONTINUOUS
 62
    7
 10
143.82132
 20
123.6064
 40
0.035
 50
357.81219
 51
177.81141
  0
ARC
  8
1-0
  6
CONTINUOUS
 62
    7
 10
143.97135
 20
123.6064
 40
0.035
 50
357.81219
 51
177.81141
  0
ARC
  8
1-0
  6
CONTINUOUS
 62
    7
 10
144.12134
 20
123.6064
 40
0.035
 50
357.81219
 51
177.81141
  0
ARC
  8
1-0
  6
CONTINUOUS
 62
    7
 10
144.27134
 20
123.6064
 40
0.035
 50
50.385009
 51
177.81141
  0
ARC
  8
1-0
  6
CONTINUOUS
 62
    7
 10
143.33634
 20
122.6864
 40
0.035
 50
177.81141
 51
237.06274
  0
ARC
  8
1-0
  6
CONTINUOUS
 62
    7
 10
63.379074
 20
203.27689
 40
0.05
 50
98.853958
 51
261.17623
  0
ARC
  8
1-0
  6
CONTINUOUS
 62
    7
 10
80.071761
 20
201.89189
 40
0.05
 50
283.92279
 51
76.073806
  0
ARC
  8
1-0
  6
CONTINUOUS
 62
    7
 10
82.071755
 20
201.89189
 40
0.05
 50
103.92619
 51
256.0772
  0
ARC
  8
1-0
  6
CONTINUOUS
 62
    7
 10
80.071761
 20
202.26189
 40
0.05
 50
283.92279
 51
76.073806
  0
ARC
  8
1-0
  6
CONTINUOUS
 62
    7
 10
82.071755
 20
202.26189
 40
0.05
 50
103.92619
 51
256.0772
  0
ARC
  8
1-0
  6
CONTINUOUS
 62
    7
 10
80.071761
 20
202.63189
 40
0.05
 50
283.92279
 51
76.073806
  0
ARC
  8
1-0
  6
CONTINUOUS
 62
    7
 10
82.071755
 20
202.63189
 40
0.05
 50
103.92619
 51
256.0772
  0
ARC
  8
1-0
  6
CONTINUOUS
 62
    7
 10
80.071761
 20
201.52189
 40
0.05
 50
283.92619
 51
76.077209
  0
ARC
  8
1-0
  6
CONTINUOUS
 62
    7
 10
82.071755
 20
201.52189
 40
0.05
 50
103.92279
 51
256.0738
  0
ARC
  8
1-0
  6
CONTINUOUS
 62
    7
 10
80.071761
 20
201.15188
 40
0.05
 50
283.92619
 51
76.077209
  0
ARC
  8
1-0
  6
CONTINUOUS
 62
    7
 10
82.071755
 20
201.15188
 40
0.05
 50
103.92279
 51
256.0738
  0
ARC
  8
1-0
  6
CONTINUOUS
 62
    7
 10
63.379074
 20
200.5069
 40
0.05
 50
98.82376
 51
261.14604
  0
ARC
  8
1-0
  6
CONTINUOUS
 62
    7
 10
131.35135
 20
201.89189
 40
2.9000003
 50
99.928237
 51
148.8525
  0
ARC
  8
1-0
  6
CONTINUOUS
 62
    7
 10
131.35135
 20
201.89189
 40
2.9000003
 50
211.14749
 51
260.07176
  0
ARC
  8
1-0
  6
CONTINUOUS
 62
    7
 10
131.35135
 20
201.89189
 40
2.7500003
 50
100.47573
 51
146.94407
  0
ARC
  8
1-0
  6
CONTINUOUS
 62
    7
 10
131.35135
 20
201.89189
 40
2.7500003
 50
213.05592
 51
259.52429
  0
ARC
  8
1-0
  6
CONTINUOUS
 62
    7
 10
131.35135
 20
201.89189
 40
2.7500003
 50
270
 51
326.94407
  0
ARC
  8
1-0
  6
CONTINUOUS
 62
    7
 10
131.35135
 20
201.89189
 40
2.7500003
 50
33.055923
 51
90
  0
ARC
  8
1-0
  6
CONTINUOUS
 62
    7
 10
131.35135
 20
201.89189
 40
2.9000003
 50
270
 51
328.8525
  0
ARC
  8
1-0
  6
CONTINUOUS
 62
    7
 10
131.35135
 20
201.89189
 40
2.9000003
 50
33.055923
 51
90
  0
ARC
  8
1-0
  6
CONTINUOUS
 62
    7
 10
131.35135
 20
201.89189
 40
4.2099998
 50
20.872879
 51
159.12712
  0
ARC
  8
1-0
  6
CONTINUOUS
 62
    7
 10
131.35135
 20
201.89189
 40
4.3000003
 50
20.416259
 51
158.11235
  0
ARC
  8
1-0
  6
CONTINUOUS
 62
    7
 10
131.35135
 20
201.89189
 40
5.3000005
 50
16.440521
 51
163.55947
  0
ARC
  8
1-0
  6
CONTINUOUS
 62
    7
 10
92.175038
 20
202.6819
 40
0.05
 50
0
 51
90
  0
ARC
  8
1-0
  6
CONTINUOUS
 62
    7
 10
92.175038
 20
201.1019
 40
0.05
 50
270
 51
0
  0
ARC
  8
1-0
  6
CONTINUOUS
 62
    7
 10
92.114551
 20
202.6119
 40
0.03
 50
0
 51
90
  0
ARC
  8
1-0
  6
CONTINUOUS
 62
    7
 10
92.114551
 20
201.17188
 40
0.03
 50
270
 51
0
  0
ARC
  8
1-0
  6
CONTINUOUS
 62
    7
 10
95.305047
 20
202.6819
 40
0.05
 50
0
 51
90
  0
ARC
  8
1-0
  6
CONTINUOUS
 62
    7
 10
95.305047
 20
201.1019
 40
0.05
 50
270
 51
0
  0
ARC
  8
1-0
  6
CONTINUOUS
 62
    7
 10
95.244548
 20
202.6119
 40
0.03
 50
0
 51
90
  0
ARC
  8
1-0
  6
CONTINUOUS
 62
    7
 10
95.244548
 20
201.17188
 40
0.03
 50
270
 51
0
  0
ARC
  8
1-0
  6
CONTINUOUS
 62
    7
 10
98.435049
 20
202.6819
 40
0.05
 50
0
 51
90
  0
ARC
  8
1-0
  6
CONTINUOUS
 62
    7
 10
98.435049
 20
201.1019
 40
0.05
 50
270
 51
0
  0
ARC
  8
1-0
  6
CONTINUOUS
 62
    7
 10
98.37455
 20
202.6119
 40
0.03
 50
0
 51
90
  0
ARC
  8
1-0
  6
CONTINUOUS
 62
    7
 10
98.37455
 20
201.17188
 40
0.03
 50
270
 51
0
  0
ARC
  8
1-0
  6
CONTINUOUS
 62
    7
 10
101.56502
 20
202.6819
 40
0.05
 50
0
 51
90
  0
ARC
  8
1-0
  6
CONTINUOUS
 62
    7
 10
101.56502
 20
201.1019
 40
0.05
 50
270
 51
0
  0
ARC
  8
1-0
  6
CONTINUOUS
 62
    7
 10
101.50455
 20
202.6119
 40
0.03
 50
0
 51
90
  0
ARC
  8
1-0
  6
CONTINUOUS
 62
    7
 10
101.50455
 20
201.17188
 40
0.03
 50
270
 51
0
  0
ARC
  8
1-0
  6
CONTINUOUS
 62
    7
 10
104.69502
 20
202.6819
 40
0.05
 50
0
 51
90
  0
ARC
  8
1-0
  6
CONTINUOUS
 62
    7
 10
104.69502
 20
201.1019
 40
0.05
 50
270
 51
0
  0
ARC
  8
1-0
  6
CONTINUOUS
 62
    7
 10
104.63455
 20
202.6119
 40
0.03
 50
0
 51
90
  0
ARC
  8
1-0
  6
CONTINUOUS
 62
    7
 10
104.63455
 20
201.17188
 40
0.03
 50
270
 51
0
  0
ARC
  8
1-0
  6
CONTINUOUS
 62
    7
 10
107.82503
 20
202.6819
 40
0.05
 50
0
 51
90
  0
ARC
  8
1-0
  6
CONTINUOUS
 62
    7
 10
107.82503
 20
201.1019
 40
0.05
 50
270
 51
0
  0
ARC
  8
1-0
  6
CONTINUOUS
 62
    7
 10
107.76455
 20
202.6119
 40
0.03
 50
0
 51
90
  0
ARC
  8
1-0
  6
CONTINUOUS
 62
    7
 10
107.76455
 20
201.17188
 40
0.03
 50
270
 51
0
  0
ARC
  8
1-0
  6
CONTINUOUS
 62
    7
 10
110.95504
 20
202.6819
 40
0.05
 50
0
 51
90
  0
ARC
  8
1-0
  6
CONTINUOUS
 62
    7
 10
110.95504
 20
201.1019
 40
0.05
 50
270
 51
0
  0
ARC
  8
1-0
  6
CONTINUOUS
 62
    7
 10
110.89456
 20
202.6119
 40
0.03
 50
0
 51
90
  0
ARC
  8
1-0
  6
CONTINUOUS
 62
    7
 10
110.89456
 20
201.17188
 40
0.03
 50
270
 51
0
  0
ARC
  8
1-0
  6
CONTINUOUS
 62
    7
 10
114.08502
 20
202.6819
 40
0.05
 50
0
 51
90
  0
ARC
  8
1-0
  6
CONTINUOUS
 62
    7
 10
114.08502
 20
201.1019
 40
0.05
 50
270
 51
0
  0
ARC
  8
1-0
  6
CONTINUOUS
 62
    7
 10
114.02456
 20
202.6119
 40
0.03
 50
0
 51
90
  0
ARC
  8
1-0
  6
CONTINUOUS
 62
    7
 10
114.02456
 20
201.17188
 40
0.03
 50
270
 51
0
  0
ARC
  8
1-0
  6
CONTINUOUS
 62
    7
 10
117.21502
 20
202.6819
 40
0.05
 50
0
 51
90
  0
ARC
  8
1-0
  6
CONTINUOUS
 62
    7
 10
117.21502
 20
201.1019
 40
0.05
 50
270
 51
0
  0
ARC
  8
1-0
  6
CONTINUOUS
 62
    7
 10
117.15454
 20
202.6119
 40
0.03
 50
0
 51
90
  0
ARC
  8
1-0
  6
CONTINUOUS
 62
    7
 10
117.15454
 20
201.17188
 40
0.03
 50
270
 51
0
  0
ARC
  8
1-0
  6
CONTINUOUS
 62
    7
 10
120.34502
 20
202.6819
 40
0.05
 50
0
 51
90
  0
ARC
  8
1-0
  6
CONTINUOUS
 62
    7
 10
120.34502
 20
201.1019
 40
0.05
 50
270
 51
0
  0
ARC
  8
1-0
  6
CONTINUOUS
 62
    7
 10
120.28455
 20
202.6119
 40
0.03
 50
0
 51
90
  0
ARC
  8
1-0
  6
CONTINUOUS
 62
    7
 10
120.28455
 20
201.17188
 40
0.03
 50
270
 51
0
  0
ARC
  8
1-0
  6
CONTINUOUS
 62
    7
 10
123.47503
 20
202.6819
 40
0.05
 50
0
 51
90
  0
ARC
  8
1-0
  6
CONTINUOUS
 62
    7
 10
123.47503
 20
201.1019
 40
0.05
 50
270
 51
0
  0
ARC
  8
1-0
  6
CONTINUOUS
 62
    7
 10
123.41455
 20
202.6119
 40
0.03
 50
0
 51
90
  0
ARC
  8
1-0
  6
CONTINUOUS
 62
    7
 10
123.41455
 20
201.17188
 40
0.03
 50
270
 51
0
  0
ARC
  8
1-0
  6
CONTINUOUS
 62
    7
 10
126.60503
 20
202.6819
 40
0.05
 50
0
 51
90
  0
ARC
  8
1-0
  6
CONTINUOUS
 62
    7
 10
126.60503
 20
201.1019
 40
0.05
 50
270
 51
0
  0
ARC
  8
1-0
  6
CONTINUOUS
 62
    7
 10
126.54453
 20
202.6119
 40
0.03
 50
0
 51
90
  0
ARC
  8
1-0
  6
CONTINUOUS
 62
    7
 10
126.54453
 20
201.17188
 40
0.03
 50
270
 51
0
  0
ARC
  8
1-0
  6
CONTINUOUS
 62
    7
 10
129.73503
 20
202.6819
 40
0.05
 50
0
 51
90
  0
ARC
  8
1-0
  6
CONTINUOUS
 62
    7
 10
129.73503
 20
201.1019
 40
0.05
 50
270
 51
0
  0
ARC
  8
1-0
  6
CONTINUOUS
 62
    7
 10
129.67453
 20
202.6119
 40
0.03
 50
0
 51
90
  0
ARC
  8
1-0
  6
CONTINUOUS
 62
    7
 10
129.67453
 20
201.17188
 40
0.03
 50
270
 51
0
  0
ARC
  8
1-0
  6
CONTINUOUS
 62
    7
 10
146.10136
 20
200.04189
 40
0.05
 50
90
 51
180
  0
ARC
  8
1-0
  6
CONTINUOUS
 62
    7
 10
149.60137
 20
200.04189
 40
0.05
 50
0
 51
90
  0
ARC
  8
1-0
  6
CONTINUOUS
 62
    7
 10
146.10136
 20
202.29188
 40
0.05
 50
180
 51
270
  0
ARC
  8
1-0
  6
CONTINUOUS
 62
    7
 10
149.60136
 20
202.29188
 40
0.05
 50
270
 51
0
  0
ARC
  8
1-0
  6
CONTINUOUS
 62
    7
 10
147.55137
 20
205.29187
 40
0.1
 50
270
 51
90
  0
ARC
  8
1-0
  6
CONTINUOUS
 62
    7
 10
147.55137
 20
204.99187
 40
0.1
 50
270
 51
90
  0
ARC
  8
1-0
  6
CONTINUOUS
 62
    7
 10
147.55137
 20
204.69186
 40
0.1
 50
270
 51
90
  0
ARC
  8
1-0
  6
CONTINUOUS
 62
    7
 10
147.55137
 20
204.39187
 40
0.1
 50
270
 51
90
  0
ARC
  8
1-0
  6
CONTINUOUS
 62
    7
 10
147.55137
 20
204.09187
 40
0.1
 50
270
 51
90
  0
ARC
  8
1-0
  6
CONTINUOUS
 62
    7
 10
147.55137
 20
203.79186
 40
0.1
 50
270
 51
90
  0
ARC
  8
1-0
  6
CONTINUOUS
 62
    7
 10
147.55137
 20
203.49187
 40
0.1
 50
270
 51
90
  0
ARC
  8
1-0
  6
CONTINUOUS
 62
    7
 10
147.55137
 20
203.19187
 40
0.1
 50
270
 51
90
  0
ARC
  8
1-0
  6
CONTINUOUS
 62
    7
 10
148.15136
 20
205.29187
 40
0.1
 50
90
 51
270
  0
ARC
  8
1-0
  6
CONTINUOUS
 62
    7
 10
148.15136
 20
204.99187
 40
0.1
 50
90
 51
270
  0
ARC
  8
1-0
  6
CONTINUOUS
 62
    7
 10
148.15136
 20
204.69186
 40
0.1
 50
90
 51
270
  0
ARC
  8
1-0
  6
CONTINUOUS
 62
    7
 10
148.15136
 20
204.39187
 40
0.1
 50
90
 51
270
  0
ARC
  8
1-0
  6
CONTINUOUS
 62
    7
 10
148.15136
 20
204.09187
 40
0.1
 50
90
 51
270
  0
ARC
  8
1-0
  6
CONTINUOUS
 62
    7
 10
148.15136
 20
203.79186
 40
0.1
 50
90
 51
270
  0
ARC
  8
1-0
  6
CONTINUOUS
 62
    7
 10
148.15136
 20
203.49187
 40
0.1
 50
90
 51
270
  0
ARC
  8
1-0
  6
CONTINUOUS
 62
    7
 10
148.15136
 20
203.19187
 40
0.1
 50
90
 51
270
  0
ARC
  8
1-0
  6
CONTINUOUS
 62
    7
 10
141.42134
 20
202.35189
 40
0.035
 50
7.1275329
 51
177.81141
  0
ARC
  8
1-0
  6
CONTINUOUS
 62
    7
 10
141.38634
 20
201.43188
 40
0.035
 50
177.81141
 51
357.81219
  0
ARC
  8
1-0
  6
CONTINUOUS
 62
    7
 10
141.53634
 20
201.43188
 40
0.035
 50
177.81141
 51
7.1275329
  0
ARC
  8
1-0
  6
CONTINUOUS
 62
    7
 10
141.57134
 20
202.35189
 40
0.035
 50
357.81219
 51
177.81141
  0
ARC
  8
1-0
  6
CONTINUOUS
 62
    7
 10
141.68634
 20
201.43188
 40
0.035
 50
177.81141
 51
7.1275329
  0
ARC
  8
1-0
  6
CONTINUOUS
 62
    7
 10
141.72134
 20
202.35189
 40
0.035
 50
357.81219
 51
177.81141
  0
ARC
  8
1-0
  6
CONTINUOUS
 62
    7
 10
141.83634
 20
201.43188
 40
0.035
 50
177.81141
 51
7.1275329
  0
ARC
  8
1-0
  6
CONTINUOUS
 62
    7
 10
141.87134
 20
202.35189
 40
0.035
 50
357.81219
 51
177.81141
  0
ARC
  8
1-0
  6
CONTINUOUS
 62
    7
 10
141.98633
 20
201.43188
 40
0.035
 50
177.81141
 51
7.1275329
  0
ARC
  8
1-0
  6
CONTINUOUS
 62
    7
 10
142.02133
 20
202.35189
 40
0.035
 50
357.81219
 51
177.81141
  0
ARC
  8
1-0
  6
CONTINUOUS
 62
    7
 10
142.13634
 20
201.43188
 40
0.035
 50
177.81141
 51
7.1275329
  0
ARC
  8
1-0
  6
CONTINUOUS
 62
    7
 10
142.17134
 20
202.35189
 40
0.035
 50
357.81219
 51
177.81141
  0
ARC
  8
1-0
  6
CONTINUOUS
 62
    7
 10
142.28634
 20
201.43188
 40
0.035
 50
177.81141
 51
7.1275329
  0
ARC
  8
1-0
  6
CONTINUOUS
 62
    7
 10
142.32134
 20
202.35189
 40
0.035
 50
357.81219
 51
177.81141
  0
ARC
  8
1-0
  6
CONTINUOUS
 62
    7
 10
142.43634
 20
201.43188
 40
0.035
 50
177.81141
 51
7.1275329
  0
ARC
  8
1-0
  6
CONTINUOUS
 62
    7
 10
142.47134
 20
202.35189
 40
0.035
 50
357.81219
 51
177.81141
  0
ARC
  8
1-0
  6
CONTINUOUS
 62
    7
 10
142.58634
 20
201.43188
 40
0.035
 50
177.81141
 51
7.1275329
  0
ARC
  8
1-0
  6
CONTINUOUS
 62
    7
 10
142.62134
 20
202.35189
 40
0.035
 50
357.81219
 51
177.81141
  0
ARC
  8
1-0
  6
CONTINUOUS
 62
    7
 10
142.73634
 20
201.43188
 40
0.035
 50
177.81141
 51
7.1275329
  0
ARC
  8
1-0
  6
CONTINUOUS
 62
    7
 10
142.77134
 20
202.35189
 40
0.035
 50
357.81219
 51
177.81141
  0
ARC
  8
1-0
  6
CONTINUOUS
 62
    7
 10
142.88633
 20
201.43188
 40
0.035
 50
177.81141
 51
7.1275329
  0
ARC
  8
1-0
  6
CONTINUOUS
 62
    7
 10
142.92133
 20
202.35189
 40
0.035
 50
357.81219
 51
177.81141
  0
ARC
  8
1-0
  6
CONTINUOUS
 62
    7
 10
143.03634
 20
201.43188
 40
0.035
 50
177.81141
 51
7.1275329
  0
ARC
  8
1-0
  6
CONTINUOUS
 62
    7
 10
143.07134
 20
202.35189
 40
0.035
 50
357.81219
 51
177.81141
  0
ARC
  8
1-0
  6
CONTINUOUS
 62
    7
 10
143.18634
 20
201.43188
 40
0.035
 50
177.81141
 51
7.1275329
  0
ARC
  8
1-0
  6
CONTINUOUS
 62
    7
 10
143.22134
 20
202.35189
 40
0.035
 50
357.81219
 51
177.81141
  0
ARC
  8
1-0
  6
CONTINUOUS
 62
    7
 10
143.33634
 20
201.43188
 40
0.035
 50
177.81141
 51
7.1275329
  0
ARC
  8
1-0
  6
CONTINUOUS
 62
    7
 10
143.37134
 20
202.35189
 40
0.035
 50
357.81219
 51
177.81141
  0
ARC
  8
1-0
  6
CONTINUOUS
 62
    7
 10
143.48634
 20
201.43188
 40
0.035
 50
177.81141
 51
7.1275329
  0
ARC
  8
1-0
  6
CONTINUOUS
 62
    7
 10
143.52134
 20
202.35189
 40
0.035
 50
357.81219
 51
177.81141
  0
ARC
  8
1-0
  6
CONTINUOUS
 62
    7
 10
143.63634
 20
201.43188
 40
0.035
 50
177.81141
 51
7.1275329
  0
ARC
  8
1-0
  6
CONTINUOUS
 62
    7
 10
143.67134
 20
202.35189
 40
0.035
 50
357.81219
 51
177.81141
  0
ARC
  8
1-0
  6
CONTINUOUS
 62
    7
 10
143.78633
 20
201.43188
 40
0.035
 50
177.81141
 51
7.1275329
  0
ARC
  8
1-0
  6
CONTINUOUS
 62
    7
 10
143.82133
 20
202.35189
 40
0.035
 50
357.81219
 51
177.81141
  0
ARC
  8
1-0
  6
CONTINUOUS
 62
    7
 10
143.93634
 20
201.43188
 40
0.035
 50
177.81141
 51
7.1275329
  0
ARC
  8
1-0
  6
CONTINUOUS
 62
    7
 10
143.97135
 20
202.35189
 40
0.035
 50
357.81219
 51
177.81141
  0
ARC
  8
1-0
  6
CONTINUOUS
 62
    7
 10
144.08634
 20
201.43188
 40
0.035
 50
177.81141
 51
7.1275329
  0
ARC
  8
1-0
  6
CONTINUOUS
 62
    7
 10
144.12134
 20
202.35189
 40
0.035
 50
357.81219
 51
177.81141
  0
ARC
  8
1-0
  6
CONTINUOUS
 62
    7
 10
144.23634
 20
201.43188
 40
0.035
 50
177.81141
 51
7.1275329
  0
ARC
  8
1-0
  6
CONTINUOUS
 62
    7
 10
144.27134
 20
202.35189
 40
0.035
 50
357.81219
 51
177.81141
  0
CIRCLE
  8
1-0
  6
CONTINUOUS
 62
    7
 10
135.31136
 20
199.19187
 40
1.2
  0
CIRCLE
  8
1-0
  6
CONTINUOUS
 62
    7
 10
135.31136
 20
199.19187
 40
0.75
  0
ARC
  8
1-0
  6
CONTINUOUS
 62
    7
 10
131.35135
 20
201.89189
 40
3.553051
 50
311.636
 51
335.02813
  0
ARC
  8
1-0
  6
CONTINUOUS
 62
    7
 10
135.31136
 20
199.19187
 40
1.6
 50
178.40528
 51
48.590927
  0
ARC
  8
1-0
  6
CONTINUOUS
 62
    7
 10
131.35135
 20
201.89189
 40
5.3000005
 50
196.44052
 51
308.39613
  0
ARC
  8
1-0
  6
CONTINUOUS
 62
    7
 10
131.35135
 20
201.89189
 40
4.3000003
 50
200.41625
 51
306.41061
  0
ARC
  8
1-0
  6
CONTINUOUS
 62
    7
 10
131.35135
 20
201.89189
 40
4.2099998
 50
200.87287
 51
306.61918
  0
CIRCLE
  8
2-0
  6
CONTINUOUS
 62
    7
 10
276.42902
 20
185.67567
 40
1.2999999
  0
CIRCLE
  8
2-0
  6
CONTINUOUS
 62
    7
 10
315.4054
 20
155.67567
 40
1.4999999
  0
ARC
  8
2-0
  6
CONTINUOUS
 62
    7
 10
315.4054
 20
155.67567
 40
3.4999999
 50
251.01591
 51
45.000427
  0
CIRCLE
  8
2-0
  6
CONTINUOUS
 62
    7
 10
312.29184
 20
90.809275
 40
1.3999999
  0
CIRCLE
  8
2-0
  6
CONTINUOUS
 62
    7
 10
305.29184
 20
72.797296
 40
1.0999999
  0
CIRCLE
  8
2-0
  6
CONTINUOUS
 62
    7
 10
319.29186
 20
72.797296
 40
1.0999999
  0
CIRCLE
  8
2-0
  6
CONTINUOUS
 62
    7
 10
319.29186
 20
61.797297
 40
1.0999999
  0
CIRCLE
  8
2-0
  6
CONTINUOUS
 62
    7
 10
305.29184
 20
61.797297
 40
1.0999999
  0
TEXT
  8
0-0
 10
306.38993
 20
35.916728
 40
3
 41
1
 50
270
  1
名　称
  0
TEXT
  8
0-0
 10
306.63098
 20
21.694669
 40
3
 41
1
 50
270
  1
設計
  0
TEXT
  8
0-0
 10
306.14887
 20
13.739958
 40
3
 41
1
 50
270
  1
製図
  0
TEXT
  8
0-0
 10
322.29937
 20
21.694669
 40
3
 41
1
 50
270
  1
写図
  0
TEXT
  8
0-0
 10
322.29937
 20
13.739958
 40
3
 41
1
 50
270
  1
検図
  0
TEXT
  8
0-0
 10
338.20878
 20
21.694669
 40
3
 41
1
 50
270
  1
縮尺
  0
TEXT
  8
0-0
 10
338.20878
 20
13.739958
 40
3
 41
1
 50
270
  1
作図
  0
TEXT
  8
0-0
 10
365.2066
 20
37.604094
 40
3
 41
1
 50
270
  1
客先
  0
TEXT
  8
0-0
 10
365.2066
 20
27.238862
 40
3
 41
1
 50
270
  1
図番
  0
TEXT
  8
0-0
 10
366.65291
 20
9.1599716
 40
4
 41
1
 50
0
  1
建機サービス株式会社
  0
TEXT
  8
0-0
 10
207.04586
 20
278.5886
 40
3
 41
1
 50
0
  1
KENKI
  0
TEXT
  8
0-1
 10
343.32671
 20
16.432227
 40
3
 41
1
 50
0
  1
1/100 1/10
  0
TEXT
  8
0-1
 10
312.07137
 20
32.304085
 40
3
 41
1
 50
0
  1
HUC-1000-7U
  0
ENDSEC
  0
EOF
