  0
SECTION
  2
HEADER
  9
$EXTMIN
 10
   0.0
 20
   0.0
  9
$EXTMAX
 10
 594.0
 20
 420.0
  9
$LIMMIN
 10
   0.0
 20
   0.0
  9
$LIMMAX
 10
 594.0
 20
 420.0
  9
$LTSCALE
 40
40.0
  9
$TEXTSTYLE
  7
BIGFONT
  9
$CLAYER
  8
0
  0
ENDSEC
  0
SECTION
  2
TABLES
  0
TABLE
  2
STYLE
 70
     2
  0
STYLE
  2
STANDARD
 70
     0
 40
0.0
 41
1.0
 50
0.0
 71
     0
 42
0.2
  3
TXT
  4
BIGFONT
  0
STYLE
  2
KANJI
 70
    64
 40
0.0
 41
1.0
 50
0.0
 71
     0
 42
0.2
  3
TXT
  4
BIGFONT
  0
ENDTAB
  0
TABLE
  2
LTYPE
 70
     2
  0
LTYPE
  2
CONTINUOUS
 70
    64
  3
_____________________________________________
 72
    65
 73
     0
 40
0.375
  0
LTYPE
  2
HIDDEN
 70
    64
  3
_ _ _ _ _ _ _ _ _ _ _ _ _ _ _ _ _ _ _ _ _ _ _
 72
    65
 73
     2
 40
0.375
 49
0.25
 49
-0.125
  0
LTYPE
  2
CENTER
 70
    64
  3
____ _ ____ _ ____ _ ____ _ ____ _ ____ _ ____
 72
    65
 73
     4
 40
2.0
 49
1.25
 49
-0.25
 49
0.25
 49
-0.25
  0
LTYPE
  2
DASHED
 70
    64
  3
__ __ __ __ __ __ __ __ __ __ __ __ __ __ __
 72
    65
 73
     2
 40
0.75
 49
0.5
 49
-0.25
  0
LTYPE
  2
PHANTOM
 70
    64
  3
_____ _ _ _____ _ _ _____ _ _ _____ _ _ ____
 72
    65
 73
     6
 40
2.5
 49
1.25
 49
-0.25
 49
0.25
 49
-0.25
 49
0.25
 49
-0.25
  0
ENDTAB
  0
TABLE
  2
LAYER
 70
    18
  0
LAYER
  2
L-1-1
 70
     0
 62
4
  6
CONTINUOUS
  0
LAYER
  2
L-1-2
 70
     0
 62
6
  6
CONTINUOUS
  0
LAYER
  2
L-1-3
 70
     0
 62
2
  6
CONTINUOUS
  0
LAYER
  2
L-2-1
 70
     0
 62
4
  6
HIDDEN
  0
LAYER
  2
L-2-2
 70
     0
 62
6
  6
HIDDEN
  0
LAYER
  2
L-2-3
 70
     0
 62
2
  6
HIDDEN
  0
LAYER
  2
L-3-1
 70
     0
 62
4
  6
CENTER
  0
LAYER
  2
L-3-2
 70
     0
 62
6
  6
CENTER
  0
LAYER
  2
L-3-3
 70
     0
 62
2
  6
CENTER
  0
LAYER
  2
L-4-1
 70
     0
 62
4
  6
DASHED
  0
LAYER
  2
L-4-2
 70
     0
 62
6
  6
DASHED
  0
LAYER
  2
L-4-3
 70
     0
 62
2
  6
DASHED
  0
LAYER
  2
L-5-1
 70
     0
 62
4
  6
PHANTOM
  0
LAYER
  2
L-5-2
 70
     0
 62
6
  6
PHANTOM
  0
LAYER
  2
L-5-3
 70
     0
 62
2
  6
PHANTOM
  0
LAYER
  2
TSHIN
 70
     0
 62
3
  6
CENTER
  0
LAYER
  2
SPLIN
 70
    64
 62
3
  6
CONTINUOUS
  0
LAYER
  2
SPTXT
 70
    64
 62
2
  6
CONTINUOUS
  0
LAYER
  2
NTEXT
 70
    64
 62
2
  6
CONTINUOUS
  0
LAYER
  2
KGLIN
 70
    64
 62
3
  6
CONTINUOUS
  0
LAYER
  2
KGTXT
 70
    64
 62
6
  6
CONTINUOUS
  0
ENDTAB
  0
ENDSEC
  0
SECTION
  2
ENTITIES
  0
LINE
  8
L-1-1
 10
127.28
 20
114.57
 11
127.28
 21
91.49
  0
LINE
  8
L-1-1
 10
127.03
 20
94.49
 11
127.53
 21
94.49
  0
LINE
  8
L-1-1
 10
127.53
 20
94.49
 11
127.03
 21
94.49
  0
LINE
  8
L-1-1
 10
126.78
 20
94.49
 11
126.28
 21
94.49
  0
LINE
  8
L-1-1
 10
122.04
 20
95.27
 11
124.94
 21
94.49
  0
LINE
  8
L-1-1
 10
124.94
 20
94.49
 11
122.04
 21
93.72
  0
LINE
  8
L-1-1
 10
124.94
 20
94.49
 11
121.94
 21
94.49
  0
LINE
  8
L-1-1
 10
114.24
 20
94.49
 11
121.94
 21
94.49
  0
LINE
  8
L-1-1
 10
124.94
 20
94.49
 11
126.28
 21
94.49
  0
LINE
  8
L-1-1
 10
127.28
 20
114.57
 11
127.28
 21
91.49
  0
LINE
  8
L-1-1
 10
136.67
 20
93.72
 11
133.78
 21
94.49
  0
LINE
  8
L-1-1
 10
133.78
 20
94.49
 11
136.67
 21
95.27
  0
LINE
  8
L-1-1
 10
133.78
 20
94.49
 11
136.78
 21
94.49
  0
LINE
  8
L-1-1
 10
127.28
 20
94.49
 11
133.78
 21
94.49
  0
LINE
  8
L-1-1
 10
136.78
 20
94.49
 11
147.68
 21
94.49
  0
LINE
  8
L-1-1
 10
356.11
 20
104.57
 11
356.11
 21
69.32
  0
LINE
  8
L-1-1
 10
367.84
 20
71.54
 11
364.94
 21
72.32
  0
LINE
  8
L-1-1
 10
364.94
 20
72.32
 11
367.84
 21
73.09
  0
LINE
  8
L-1-1
 10
364.94
 20
72.32
 11
367.94
 21
72.32
  0
LINE
  8
L-1-1
 10
368.24
 20
72.32
 11
367.94
 21
72.32
  0
LINE
  8
L-1-1
 10
364.94
 20
72.32
 11
356.11
 21
72.32
  0
LINE
  8
L-1-1
 10
356.11
 20
104.57
 11
356.11
 21
69.32
  0
LINE
  8
L-1-1
 10
133.78
 20
98.61
 11
133.78
 21
69.32
  0
LINE
  8
L-1-1
 10
136.67
 20
71.54
 11
133.78
 21
72.32
  0
LINE
  8
L-1-1
 10
133.78
 20
72.32
 11
136.67
 21
73.09
  0
LINE
  8
L-1-1
 10
133.78
 20
72.32
 11
136.78
 21
72.32
  0
LINE
  8
L-1-1
 10
353.21
 20
73.09
 11
356.11
 21
72.32
  0
LINE
  8
L-1-1
 10
356.11
 20
72.32
 11
353.21
 21
71.54
  0
LINE
  8
L-1-1
 10
356.11
 20
72.32
 11
353.11
 21
72.32
  0
LINE
  8
L-1-1
 10
353.11
 20
72.32
 11
136.78
 21
72.32
  0
LINE
  8
L-1-1
 10
133.78
 20
98.61
 11
133.78
 21
69.32
  0
LINE
  8
L-1-1
 10
122.04
 20
73.09
 11
124.94
 21
72.32
  0
LINE
  8
L-1-1
 10
124.94
 20
72.32
 11
122.04
 21
71.54
  0
LINE
  8
L-1-1
 10
124.94
 20
72.32
 11
121.94
 21
72.32
  0
LINE
  8
L-1-1
 10
133.78
 20
72.32
 11
124.94
 21
72.32
  0
LINE
  8
L-1-1
 10
121.94
 20
72.32
 11
121.64
 21
72.32
  0
LINE
  8
L-1-1
 10
364.94
 20
114.06
 11
364.94
 21
62.32
  0
LINE
  8
L-1-1
 10
124.94
 20
114.06
 11
124.94
 21
62.32
  0
LINE
  8
L-1-1
 10
127.84
 20
64.54
 11
124.94
 21
65.32
  0
LINE
  8
L-1-1
 10
124.94
 20
65.32
 11
127.84
 21
66.09
  0
LINE
  8
L-1-1
 10
124.94
 20
65.32
 11
127.94
 21
65.32
  0
LINE
  8
L-1-1
 10
362.05
 20
66.09
 11
364.94
 21
65.32
  0
LINE
  8
L-1-1
 10
364.94
 20
65.32
 11
362.05
 21
64.54
  0
LINE
  8
L-1-1
 10
364.94
 20
65.32
 11
361.94
 21
65.32
  0
LINE
  8
L-1-1
 10
361.94
 20
65.32
 11
127.94
 21
65.32
  0
LINE
  8
L-1-1
 10
126.84
 20
310.87
 11
81.28
 21
310.87
  0
LINE
  8
L-1-1
 10
83.50
 20
307.98
 11
84.28
 21
310.87
  0
LINE
  8
L-1-1
 10
84.28
 20
310.87
 11
85.05
 21
307.98
  0
LINE
  8
L-1-1
 10
84.28
 20
310.87
 11
84.28
 21
307.87
  0
LINE
  8
L-1-1
 10
85.05
 20
273.77
 11
84.28
 21
270.87
  0
LINE
  8
L-1-1
 10
84.28
 20
270.87
 11
83.50
 21
273.77
  0
LINE
  8
L-1-1
 10
84.28
 20
270.87
 11
84.28
 21
273.87
  0
LINE
  8
L-1-1
 10
84.28
 20
273.87
 11
84.28
 21
307.87
  0
LINE
  8
L-1-1
 10
91.52
 20
273.87
 11
93.19
 21
270.87
  0
LINE
  8
L-1-1
 10
93.19
 20
270.87
 11
94.85
 21
273.87
  0
LINE
  8
L-1-1
 10
94.85
 20
273.87
 11
91.52
 21
273.87
  0
LINE
  8
L-1-1
 10
362.61
 20
114.57
 11
362.61
 21
91.49
  0
LINE
  8
L-1-1
 10
362.86
 20
94.49
 11
362.36
 21
94.49
  0
LINE
  8
L-1-1
 10
362.36
 20
94.49
 11
362.86
 21
94.49
  0
LINE
  8
L-1-1
 10
363.11
 20
94.49
 11
363.61
 21
94.49
  0
LINE
  8
L-1-1
 10
367.84
 20
93.72
 11
364.94
 21
94.49
  0
LINE
  8
L-1-1
 10
364.94
 20
94.49
 11
367.84
 21
95.27
  0
LINE
  8
L-1-1
 10
364.94
 20
94.49
 11
367.94
 21
94.49
  0
LINE
  8
L-1-1
 10
375.64
 20
94.49
 11
367.94
 21
94.49
  0
LINE
  8
L-1-1
 10
364.94
 20
94.49
 11
363.61
 21
94.49
  0
LINE
  8
L-1-1
 10
362.61
 20
114.57
 11
362.61
 21
91.49
  0
LINE
  8
L-1-1
 10
353.21
 20
95.27
 11
356.11
 21
94.49
  0
LINE
  8
L-1-1
 10
356.11
 20
94.49
 11
353.21
 21
93.72
  0
LINE
  8
L-1-1
 10
356.11
 20
94.49
 11
353.11
 21
94.49
  0
LINE
  8
L-1-1
 10
362.61
 20
94.49
 11
356.11
 21
94.49
  0
LINE
  8
L-1-1
 10
353.11
 20
94.49
 11
342.21
 21
94.49
  0
LINE
  8
L-1-1
 10
364.78
 20
106.57
 11
424.41
 21
106.57
  0
LINE
  8
L-1-1
 10
420.64
 20
113.68
 11
421.41
 21
116.57
  0
LINE
  8
L-1-1
 10
421.41
 20
116.57
 11
422.19
 21
113.68
  0
LINE
  8
L-1-1
 10
421.41
 20
116.57
 11
421.41
 21
113.57
  0
LINE
  8
L-1-1
 10
422.19
 20
109.47
 11
421.41
 21
106.57
  0
LINE
  8
L-1-1
 10
421.41
 20
106.57
 11
420.64
 21
109.47
  0
LINE
  8
L-1-1
 10
421.41
 20
106.57
 11
421.41
 21
109.57
  0
LINE
  8
L-1-1
 10
421.41
 20
109.57
 11
421.41
 21
113.57
  0
LINE
  8
L-1-1
 10
83.06
 20
147.84
 11
83.84
 21
150.74
  0
LINE
  8
L-1-1
 10
83.84
 20
150.74
 11
84.62
 21
147.84
  0
LINE
  8
L-1-1
 10
83.84
 20
150.74
 11
83.84
 21
147.74
  0
LINE
  8
L-1-1
 10
84.62
 20
119.47
 11
83.84
 21
116.57
  0
LINE
  8
L-1-1
 10
83.84
 20
116.57
 11
83.06
 21
119.47
  0
LINE
  8
L-1-1
 10
83.84
 20
116.57
 11
83.84
 21
119.57
  0
LINE
  8
L-1-1
 10
83.84
 20
119.57
 11
83.84
 21
147.74
  0
LINE
  8
L-1-1
 10
90.87
 20
153.74
 11
92.54
 21
150.74
  0
LINE
  8
L-1-1
 10
92.54
 20
150.74
 11
94.20
 21
153.74
  0
LINE
  8
L-1-1
 10
94.20
 20
153.74
 11
90.87
 21
153.74
  0
LINE
  8
L-1-1
 10
360.41
 20
170.29
 11
385.97
 21
170.29
  0
LINE
  8
L-1-1
 10
360.41
 20
129.29
 11
385.97
 21
129.29
  0
LINE
  8
L-1-1
 10
383.75
 20
132.19
 11
382.97
 21
129.29
  0
LINE
  8
L-1-1
 10
382.97
 20
129.29
 11
382.20
 21
132.19
  0
LINE
  8
L-1-1
 10
382.97
 20
129.29
 11
382.97
 21
132.29
  0
LINE
  8
L-1-1
 10
382.20
 20
167.39
 11
382.97
 21
170.29
  0
LINE
  8
L-1-1
 10
382.97
 20
170.29
 11
383.75
 21
167.39
  0
LINE
  8
L-1-1
 10
382.97
 20
170.29
 11
382.97
 21
167.29
  0
LINE
  8
L-1-1
 10
382.97
 20
167.29
 11
382.97
 21
132.29
  0
LINE
  8
L-1-1
 10
363.04
 20
278.54
 11
412.60
 21
278.54
  0
LINE
  8
L-1-1
 10
410.38
 20
281.44
 11
409.60
 21
278.54
  0
LINE
  8
L-1-1
 10
409.60
 20
278.54
 11
408.83
 21
281.44
  0
LINE
  8
L-1-1
 10
409.60
 20
278.54
 11
409.60
 21
281.54
  0
LINE
  8
L-1-1
 10
408.83
 20
307.98
 11
409.60
 21
310.87
  0
LINE
  8
L-1-1
 10
409.60
 20
310.87
 11
410.38
 21
307.98
  0
LINE
  8
L-1-1
 10
409.60
 20
310.87
 11
409.60
 21
307.87
  0
LINE
  8
L-1-1
 10
409.60
 20
307.87
 11
409.60
 21
281.54
  0
LINE
  8
L-1-1
 10
363.04
 20
278.54
 11
412.60
 21
278.54
  0
LINE
  8
L-1-1
 10
363.04
 20
263.21
 11
412.60
 21
263.21
  0
LINE
  8
L-1-1
 10
410.38
 20
266.11
 11
409.60
 21
263.21
  0
LINE
  8
L-1-1
 10
409.60
 20
263.21
 11
408.83
 21
266.11
  0
LINE
  8
L-1-1
 10
409.60
 20
263.21
 11
409.60
 21
266.21
  0
LINE
  8
L-1-1
 10
408.83
 20
275.64
 11
409.60
 21
278.54
  0
LINE
  8
L-1-1
 10
409.60
 20
278.54
 11
410.38
 21
275.64
  0
LINE
  8
L-1-1
 10
409.60
 20
278.54
 11
409.60
 21
275.54
  0
LINE
  8
L-1-1
 10
409.60
 20
275.54
 11
409.60
 21
266.21
  0
LINE
  8
L-1-1
 10
363.04
 20
263.21
 11
412.60
 21
263.21
  0
LINE
  8
L-1-1
 10
363.04
 20
215.54
 11
412.60
 21
215.54
  0
LINE
  8
L-1-1
 10
410.38
 20
218.44
 11
409.60
 21
215.54
  0
LINE
  8
L-1-1
 10
409.60
 20
215.54
 11
408.83
 21
218.44
  0
LINE
  8
L-1-1
 10
409.60
 20
215.54
 11
409.60
 21
218.54
  0
LINE
  8
L-1-1
 10
408.83
 20
260.31
 11
409.60
 21
263.21
  0
LINE
  8
L-1-1
 10
409.60
 20
263.21
 11
410.38
 21
260.31
  0
LINE
  8
L-1-1
 10
409.60
 20
263.21
 11
409.60
 21
260.21
  0
LINE
  8
L-1-1
 10
409.60
 20
260.21
 11
409.60
 21
218.54
  0
LINE
  8
L-1-1
 10
363.04
 20
215.54
 11
412.60
 21
215.54
  0
LINE
  8
L-1-1
 10
363.04
 20
167.87
 11
412.60
 21
167.87
  0
LINE
  8
L-1-1
 10
410.38
 20
170.77
 11
409.60
 21
167.87
  0
LINE
  8
L-1-1
 10
409.60
 20
167.87
 11
408.83
 21
170.77
  0
LINE
  8
L-1-1
 10
409.60
 20
167.87
 11
409.60
 21
170.87
  0
LINE
  8
L-1-1
 10
408.83
 20
212.64
 11
409.60
 21
215.54
  0
LINE
  8
L-1-1
 10
409.60
 20
215.54
 11
410.38
 21
212.64
  0
LINE
  8
L-1-1
 10
409.60
 20
215.54
 11
409.60
 21
212.54
  0
LINE
  8
L-1-1
 10
409.60
 20
212.54
 11
409.60
 21
170.87
  0
LINE
  8
L-1-1
 10
363.04
 20
167.87
 11
412.60
 21
167.87
  0
LINE
  8
L-1-1
 10
363.44
 20
120.21
 11
412.60
 21
120.21
  0
LINE
  8
L-1-1
 10
410.38
 20
123.11
 11
409.60
 21
120.21
  0
LINE
  8
L-1-1
 10
409.60
 20
120.21
 11
408.83
 21
123.11
  0
LINE
  8
L-1-1
 10
409.60
 20
120.21
 11
409.60
 21
123.21
  0
LINE
  8
L-1-1
 10
408.83
 20
164.98
 11
409.60
 21
167.87
  0
LINE
  8
L-1-1
 10
409.60
 20
167.87
 11
410.38
 21
164.98
  0
LINE
  8
L-1-1
 10
409.60
 20
167.87
 11
409.60
 21
164.87
  0
LINE
  8
L-1-1
 10
409.60
 20
164.87
 11
409.60
 21
123.21
  0
LINE
  8
L-1-1
 10
363.44
 20
120.21
 11
412.60
 21
120.21
  0
LINE
  8
L-1-1
 10
408.83
 20
113.68
 11
409.60
 21
116.57
  0
LINE
  8
L-1-1
 10
409.60
 20
116.57
 11
410.38
 21
113.68
  0
LINE
  8
L-1-1
 10
409.60
 20
116.57
 11
409.60
 21
113.57
  0
LINE
  8
L-1-1
 10
410.38
 20
123.11
 11
409.60
 21
120.21
  0
LINE
  8
L-1-1
 10
409.60
 20
120.21
 11
408.83
 21
123.11
  0
LINE
  8
L-1-1
 10
409.60
 20
120.21
 11
409.60
 21
123.21
  0
LINE
  8
L-1-1
 10
409.60
 20
123.51
 11
409.60
 21
123.21
  0
LINE
  8
L-1-1
 10
409.60
 20
120.21
 11
409.60
 21
116.57
  0
LINE
  8
L-1-1
 10
409.60
 20
113.57
 11
409.60
 21
102.67
  0
LINE
  8
L-1-1
 10
363.04
 20
310.87
 11
424.41
 21
310.87
  0
LINE
  8
L-1-1
 10
422.19
 20
119.47
 11
421.41
 21
116.57
  0
LINE
  8
L-1-1
 10
421.41
 20
116.57
 11
420.64
 21
119.47
  0
LINE
  8
L-1-1
 10
421.41
 20
116.57
 11
421.41
 21
119.57
  0
LINE
  8
L-1-1
 10
420.64
 20
307.98
 11
421.41
 21
310.87
  0
LINE
  8
L-1-1
 10
421.41
 20
310.87
 11
422.19
 21
307.98
  0
LINE
  8
L-1-1
 10
421.41
 20
310.87
 11
421.41
 21
307.87
  0
LINE
  8
L-1-1
 10
421.41
 20
307.87
 11
421.41
 21
119.57
  0
LINE
  8
L-1-1
 10
121.38
 20
214.54
 11
101.48
 21
214.54
  0
LINE
  8
L-1-1
 10
121.31
 20
166.87
 11
101.48
 21
166.87
  0
LINE
  8
L-1-1
 10
105.26
 20
169.77
 11
104.48
 21
166.87
  0
LINE
  8
L-1-1
 10
104.48
 20
166.87
 11
103.70
 21
169.77
  0
LINE
  8
L-1-1
 10
104.48
 20
166.87
 11
104.48
 21
169.87
  0
LINE
  8
L-1-1
 10
103.70
 20
211.64
 11
104.48
 21
214.54
  0
LINE
  8
L-1-1
 10
104.48
 20
214.54
 11
105.26
 21
211.64
  0
LINE
  8
L-1-1
 10
104.48
 20
214.54
 11
104.48
 21
211.54
  0
LINE
  8
L-1-1
 10
104.48
 20
211.54
 11
104.48
 21
169.87
  0
LINE
  8
L-1-1
 10
249.44
 20
365.55
 11
267.50
 21
365.55
  0
LINE
  8
L-1-1
 10
249.44
 20
331.22
 11
267.50
 21
331.22
  0
LINE
  8
L-1-1
 10
265.27
 20
334.11
 11
264.50
 21
331.22
  0
LINE
  8
L-1-1
 10
264.50
 20
331.22
 11
263.72
 21
334.11
  0
LINE
  8
L-1-1
 10
264.50
 20
331.22
 11
264.50
 21
334.22
  0
LINE
  8
L-1-1
 10
263.72
 20
362.65
 11
264.50
 21
365.55
  0
LINE
  8
L-1-1
 10
264.50
 20
365.55
 11
265.27
 21
362.65
  0
LINE
  8
L-1-1
 10
264.50
 20
365.55
 11
264.50
 21
362.55
  0
LINE
  8
L-1-1
 10
264.50
 20
362.55
 11
264.50
 21
334.22
  0
LINE
  8
L-1-1
 10
249.44
 20
331.22
 11
275.50
 21
331.22
  0
LINE
  8
L-1-1
 10
249.44
 20
331.72
 11
275.50
 21
331.72
  0
LINE
  8
L-1-1
 10
273.27
 20
334.61
 11
272.50
 21
331.72
  0
LINE
  8
L-1-1
 10
272.50
 20
331.72
 11
271.72
 21
334.61
  0
LINE
  8
L-1-1
 10
272.50
 20
331.72
 11
272.50
 21
334.72
  0
LINE
  8
L-1-1
 10
271.72
 20
328.32
 11
272.50
 21
331.22
  0
LINE
  8
L-1-1
 10
272.50
 20
331.22
 11
273.27
 21
328.32
  0
LINE
  8
L-1-1
 10
272.50
 20
331.22
 11
272.50
 21
328.22
  0
LINE
  8
L-1-1
 10
272.50
 20
318.92
 11
272.50
 21
328.22
  0
LINE
  8
L-1-1
 10
272.50
 20
331.22
 11
272.50
 21
331.72
  0
LINE
  8
L-1-1
 10
272.50
 20
334.72
 11
272.50
 21
335.02
  0
LINE
  8
L-1-1
 10
249.44
 20
331.72
 11
275.50
 21
331.72
  0
LINE
  8
L-1-1
 10
249.44
 20
365.05
 11
275.50
 21
365.05
  0
LINE
  8
L-1-1
 10
271.72
 20
362.15
 11
272.50
 21
365.05
  0
LINE
  8
L-1-1
 10
272.50
 20
365.05
 11
273.27
 21
362.15
  0
LINE
  8
L-1-1
 10
272.50
 20
365.05
 11
272.50
 21
362.05
  0
LINE
  8
L-1-1
 10
273.27
 20
334.61
 11
272.50
 21
331.72
  0
LINE
  8
L-1-1
 10
272.50
 20
331.72
 11
271.72
 21
334.61
  0
LINE
  8
L-1-1
 10
272.50
 20
331.72
 11
272.50
 21
334.72
  0
LINE
  8
L-1-1
 10
272.50
 20
334.72
 11
272.50
 21
362.05
  0
LINE
  8
L-1-1
 10
249.44
 20
365.05
 11
275.50
 21
365.05
  0
LINE
  8
L-1-1
 10
249.44
 20
365.55
 11
275.50
 21
365.55
  0
LINE
  8
L-1-1
 10
273.27
 20
368.45
 11
272.50
 21
365.55
  0
LINE
  8
L-1-1
 10
272.50
 20
365.55
 11
271.72
 21
368.45
  0
LINE
  8
L-1-1
 10
272.50
 20
365.55
 11
272.50
 21
368.55
  0
LINE
  8
L-1-1
 10
271.72
 20
362.15
 11
272.50
 21
365.05
  0
LINE
  8
L-1-1
 10
272.50
 20
365.05
 11
273.27
 21
362.15
  0
LINE
  8
L-1-1
 10
272.50
 20
365.05
 11
272.50
 21
362.05
  0
LINE
  8
L-1-1
 10
272.50
 20
361.75
 11
272.50
 21
362.05
  0
LINE
  8
L-1-1
 10
272.50
 20
365.05
 11
272.50
 21
365.55
  0
LINE
  8
L-1-1
 10
272.50
 20
368.55
 11
272.50
 21
377.85
  0
CIRCLE
  8
L-1-1
 10
301.85
 20
322.39
 40
1.72
  0
CIRCLE
  8
L-1-1
 10
157.86
 20
173.31
 40
1.72
  0
CIRCLE
  8
L-1-1
 10
370.86
 20
184.47
 40
1.72
  0
LINE
  8
L-1-1
 10
470.45
 20
121.12
 11
450.70
 21
121.12
  0
LINE
  8
L-1-1
 10
470.39
 20
107.79
 11
450.70
 21
107.79
  0
LINE
  8
L-1-1
 10
454.48
 20
110.69
 11
453.70
 21
107.79
  0
LINE
  8
L-1-1
 10
453.70
 20
107.79
 11
452.92
 21
110.69
  0
LINE
  8
L-1-1
 10
453.70
 20
107.79
 11
453.70
 21
110.79
  0
LINE
  8
L-1-1
 10
452.92
 20
118.22
 11
453.70
 21
121.12
  0
LINE
  8
L-1-1
 10
453.70
 20
121.12
 11
454.48
 21
118.22
  0
LINE
  8
L-1-1
 10
453.70
 20
121.12
 11
453.70
 21
118.12
  0
LINE
  8
L-1-1
 10
453.70
 20
118.12
 11
453.70
 21
110.79
  0
LINE
  8
L-1-1
 10
473.64
 20
105.63
 11
473.64
 21
64.92
  0
LINE
  8
L-1-1
 10
482.47
 20
101.45
 11
482.47
 21
64.92
  0
LINE
  8
L-1-1
 10
479.57
 20
68.69
 11
482.47
 21
67.92
  0
LINE
  8
L-1-1
 10
482.47
 20
67.92
 11
479.57
 21
67.14
  0
LINE
  8
L-1-1
 10
482.47
 20
67.92
 11
479.47
 21
67.92
  0
LINE
  8
L-1-1
 10
476.53
 20
67.14
 11
473.64
 21
67.92
  0
LINE
  8
L-1-1
 10
473.64
 20
67.92
 11
476.53
 21
68.69
  0
LINE
  8
L-1-1
 10
473.64
 20
67.92
 11
476.64
 21
67.92
  0
LINE
  8
L-1-1
 10
476.64
 20
67.92
 11
479.47
 21
67.92
  0
LINE
  8
L-1-1
 10
473.64
 20
105.63
 11
473.64
 21
72.92
  0
LINE
  8
L-1-1
 10
480.14
 20
99.85
 11
480.14
 21
72.92
  0
LINE
  8
L-1-1
 10
470.74
 20
76.69
 11
473.64
 21
75.92
  0
LINE
  8
L-1-1
 10
473.64
 20
75.92
 11
470.74
 21
75.14
  0
LINE
  8
L-1-1
 10
473.64
 20
75.92
 11
470.64
 21
75.92
  0
LINE
  8
L-1-1
 10
470.34
 20
75.92
 11
470.64
 21
75.92
  0
LINE
  8
L-1-1
 10
473.64
 20
75.92
 11
480.14
 21
75.92
  0
LINE
  8
L-1-1
 10
480.14
 20
99.85
 11
480.14
 21
72.92
  0
LINE
  8
L-1-1
 10
482.47
 20
101.45
 11
482.47
 21
72.92
  0
LINE
  8
L-1-1
 10
485.37
 20
75.14
 11
482.47
 21
75.92
  0
LINE
  8
L-1-1
 10
482.47
 20
75.92
 11
485.37
 21
76.69
  0
LINE
  8
L-1-1
 10
482.47
 20
75.92
 11
485.47
 21
75.92
  0
LINE
  8
L-1-1
 10
480.39
 20
75.92
 11
479.89
 21
75.92
  0
LINE
  8
L-1-1
 10
479.89
 20
75.92
 11
480.39
 21
75.92
  0
LINE
  8
L-1-1
 10
480.64
 20
75.92
 11
481.14
 21
75.92
  0
LINE
  8
L-1-1
 10
481.14
 20
75.92
 11
482.47
 21
75.92
  0
LINE
  8
L-1-1
 10
485.47
 20
75.92
 11
494.77
 21
75.92
  0
LINE
  8
L-1-1
 10
485.58
 20
124.46
 11
508.44
 21
124.46
  0
LINE
  8
L-1-1
 10
485.47
 20
104.46
 11
508.44
 21
104.46
  0
LINE
  8
L-1-1
 10
506.22
 20
107.35
 11
505.44
 21
104.46
  0
LINE
  8
L-1-1
 10
505.44
 20
104.46
 11
504.67
 21
107.35
  0
LINE
  8
L-1-1
 10
505.44
 20
104.46
 11
505.44
 21
107.46
  0
LINE
  8
L-1-1
 10
504.67
 20
121.56
 11
505.44
 21
124.46
  0
LINE
  8
L-1-1
 10
505.44
 20
124.46
 11
506.22
 21
121.56
  0
LINE
  8
L-1-1
 10
505.44
 20
124.46
 11
505.44
 21
121.46
  0
LINE
  8
L-1-1
 10
505.44
 20
121.46
 11
505.44
 21
107.46
  0
LINE
  8
L-1-1
 10
470.45
 20
107.79
 11
459.53
 21
107.79
  0
LINE
  8
L-1-1
 10
469.61
 20
115.12
 11
459.53
 21
115.12
  0
LINE
  8
L-1-1
 10
462.53
 20
114.87
 11
462.53
 21
115.37
  0
LINE
  8
L-1-1
 10
462.53
 20
115.37
 11
462.53
 21
114.87
  0
LINE
  8
L-1-1
 10
462.53
 20
114.62
 11
462.53
 21
114.12
  0
LINE
  8
L-1-1
 10
461.75
 20
104.89
 11
462.53
 21
107.79
  0
LINE
  8
L-1-1
 10
462.53
 20
107.79
 11
463.31
 21
104.89
  0
LINE
  8
L-1-1
 10
462.53
 20
107.79
 11
462.53
 21
104.79
  0
LINE
  8
L-1-1
 10
462.53
 20
104.49
 11
462.53
 21
104.79
  0
LINE
  8
L-1-1
 10
462.53
 20
107.79
 11
462.53
 21
114.12
  0
LINE
  8
L-1-1
 10
469.61
 20
115.12
 11
459.53
 21
115.12
  0
LINE
  8
L-1-1
 10
470.39
 20
121.12
 11
459.53
 21
121.12
  0
LINE
  8
L-1-1
 10
463.31
 20
124.02
 11
462.53
 21
121.12
  0
LINE
  8
L-1-1
 10
462.53
 20
121.12
 11
461.75
 21
124.02
  0
LINE
  8
L-1-1
 10
462.53
 20
121.12
 11
462.53
 21
124.12
  0
LINE
  8
L-1-1
 10
462.53
 20
115.37
 11
462.53
 21
114.87
  0
LINE
  8
L-1-1
 10
462.53
 20
114.87
 11
462.53
 21
115.37
  0
LINE
  8
L-1-1
 10
462.53
 20
115.62
 11
462.53
 21
116.12
  0
LINE
  8
L-1-1
 10
462.53
 20
116.12
 11
462.53
 21
121.12
  0
LINE
  8
L-1-1
 10
462.53
 20
124.12
 11
462.53
 21
137.42
  0
LINE
  8
L-1-1
 10
481.37
 20
120.46
 11
498.66
 21
120.46
  0
LINE
  8
L-1-1
 10
481.44
 20
108.46
 11
498.66
 21
108.46
  0
LINE
  8
L-1-1
 10
496.43
 20
111.35
 11
495.66
 21
108.46
  0
LINE
  8
L-1-1
 10
495.66
 20
108.46
 11
494.88
 21
111.35
  0
LINE
  8
L-1-1
 10
495.66
 20
108.46
 11
495.66
 21
111.46
  0
LINE
  8
L-1-1
 10
494.88
 20
117.56
 11
495.66
 21
120.46
  0
LINE
  8
L-1-1
 10
495.66
 20
120.46
 11
496.43
 21
117.56
  0
LINE
  8
L-1-1
 10
495.66
 20
120.46
 11
495.66
 21
117.46
  0
LINE
  8
L-1-1
 10
495.66
 20
117.46
 11
495.66
 21
111.46
  0
LINE
  8
L-1-1
 10
207.76
 20
281.16
 11
238.49
 21
281.16
  0
LINE
  8
L-1-1
 10
207.76
 20
257.83
 11
238.49
 21
257.83
  0
LINE
  8
L-1-1
 10
236.26
 20
260.72
 11
235.49
 21
257.83
  0
LINE
  8
L-1-1
 10
235.49
 20
257.83
 11
234.71
 21
260.72
  0
LINE
  8
L-1-1
 10
235.49
 20
257.83
 11
235.49
 21
260.83
  0
LINE
  8
L-1-1
 10
234.71
 20
278.26
 11
235.49
 21
281.16
  0
LINE
  8
L-1-1
 10
235.49
 20
281.16
 11
236.26
 21
278.26
  0
LINE
  8
L-1-1
 10
235.49
 20
281.16
 11
235.49
 21
278.16
  0
LINE
  8
L-1-1
 10
235.49
 20
278.16
 11
235.49
 21
260.83
  0
LINE
  8
L-1-1
 10
204.43
 20
279.16
 11
233.10
 21
279.16
  0
LINE
  8
L-1-1
 10
204.43
 20
259.83
 11
233.10
 21
259.83
  0
LINE
  8
L-1-1
 10
230.87
 20
262.72
 11
230.10
 21
259.83
  0
LINE
  8
L-1-1
 10
230.10
 20
259.83
 11
229.32
 21
262.72
  0
LINE
  8
L-1-1
 10
230.10
 20
259.83
 11
230.10
 21
262.83
  0
LINE
  8
L-1-1
 10
229.32
 20
276.26
 11
230.10
 21
279.16
  0
LINE
  8
L-1-1
 10
230.10
 20
279.16
 11
230.87
 21
276.26
  0
LINE
  8
L-1-1
 10
230.10
 20
279.16
 11
230.10
 21
276.16
  0
LINE
  8
L-1-1
 10
230.10
 20
276.16
 11
230.10
 21
262.83
  0
LINE
  8
L-1-1
 10
205.76
 20
261.16
 11
219.92
 21
261.16
  0
LINE
  8
L-1-1
 10
205.76
 20
277.83
 11
219.92
 21
277.83
  0
LINE
  8
L-1-1
 10
216.15
 20
274.93
 11
216.92
 21
277.83
  0
LINE
  8
L-1-1
 10
216.92
 20
277.83
 11
217.70
 21
274.93
  0
LINE
  8
L-1-1
 10
216.92
 20
277.83
 11
216.92
 21
274.83
  0
LINE
  8
L-1-1
 10
217.70
 20
264.06
 11
216.92
 21
261.16
  0
LINE
  8
L-1-1
 10
216.92
 20
261.16
 11
216.15
 21
264.06
  0
LINE
  8
L-1-1
 10
216.92
 20
261.16
 11
216.92
 21
264.16
  0
LINE
  8
L-1-1
 10
216.92
 20
264.16
 11
216.92
 21
274.83
  0
LINE
  8
L-1-1
 10
192.43
 20
255.83
 11
192.43
 21
219.98
  0
LINE
  8
L-1-1
 10
205.76
 20
255.83
 11
205.76
 21
219.98
  0
LINE
  8
L-1-1
 10
202.86
 20
223.76
 11
205.76
 21
222.98
  0
LINE
  8
L-1-1
 10
205.76
 20
222.98
 11
202.86
 21
222.21
  0
LINE
  8
L-1-1
 10
205.76
 20
222.98
 11
202.76
 21
222.98
  0
LINE
  8
L-1-1
 10
195.33
 20
222.21
 11
192.43
 21
222.98
  0
LINE
  8
L-1-1
 10
192.43
 20
222.98
 11
195.33
 21
223.76
  0
LINE
  8
L-1-1
 10
192.43
 20
222.98
 11
195.43
 21
222.98
  0
LINE
  8
L-1-1
 10
195.43
 20
222.98
 11
202.76
 21
222.98
  0
LINE
  8
L-1-1
 10
192.43
 20
255.83
 11
192.43
 21
226.30
  0
LINE
  8
L-1-1
 10
194.43
 20
259.16
 11
194.43
 21
226.30
  0
LINE
  8
L-1-1
 10
194.18
 20
229.30
 11
194.68
 21
229.30
  0
LINE
  8
L-1-1
 10
194.68
 20
229.30
 11
194.18
 21
229.30
  0
LINE
  8
L-1-1
 10
193.93
 20
229.30
 11
193.43
 21
229.30
  0
LINE
  8
L-1-1
 10
189.53
 20
230.08
 11
192.43
 21
229.30
  0
LINE
  8
L-1-1
 10
192.43
 20
229.30
 11
189.53
 21
228.52
  0
LINE
  8
L-1-1
 10
192.43
 20
229.30
 11
189.43
 21
229.30
  0
LINE
  8
L-1-1
 10
180.13
 20
229.30
 11
189.43
 21
229.30
  0
LINE
  8
L-1-1
 10
192.43
 20
229.30
 11
193.43
 21
229.30
  0
LINE
  8
L-1-1
 10
194.43
 20
259.16
 11
194.43
 21
226.30
  0
LINE
  8
L-1-1
 10
203.76
 20
259.16
 11
203.76
 21
226.30
  0
LINE
  8
L-1-1
 10
203.51
 20
229.30
 11
204.01
 21
229.30
  0
LINE
  8
L-1-1
 10
204.01
 20
229.30
 11
203.51
 21
229.30
  0
LINE
  8
L-1-1
 10
203.26
 20
229.30
 11
202.76
 21
229.30
  0
LINE
  8
L-1-1
 10
194.43
 20
229.30
 11
202.76
 21
229.30
  0
LINE
  8
L-1-1
 10
203.76
 20
259.16
 11
203.76
 21
226.30
  0
LINE
  8
L-1-1
 10
205.76
 20
255.83
 11
205.76
 21
226.30
  0
LINE
  8
L-1-1
 10
208.66
 20
228.52
 11
205.76
 21
229.30
  0
LINE
  8
L-1-1
 10
205.76
 20
229.30
 11
208.66
 21
230.08
  0
LINE
  8
L-1-1
 10
205.76
 20
229.30
 11
208.76
 21
229.30
  0
LINE
  8
L-1-1
 10
200.86
 20
230.08
 11
203.76
 21
229.30
  0
LINE
  8
L-1-1
 10
203.76
 20
229.30
 11
200.86
 21
228.52
  0
LINE
  8
L-1-1
 10
203.76
 20
229.30
 11
200.76
 21
229.30
  0
LINE
  8
L-1-1
 10
200.46
 20
229.30
 11
200.76
 21
229.30
  0
LINE
  8
L-1-1
 10
203.76
 20
229.30
 11
205.76
 21
229.30
  0
LINE
  8
L-1-1
 10
208.76
 20
229.30
 11
218.06
 21
229.30
  0
LINE
  8
L-1-1
 10
194.43
 20
259.16
 11
194.43
 21
240.87
  0
LINE
  8
L-1-1
 10
195.76
 20
257.83
 11
195.76
 21
240.87
  0
LINE
  8
L-1-1
 10
191.53
 20
244.65
 11
194.43
 21
243.87
  0
LINE
  8
L-1-1
 10
194.43
 20
243.87
 11
191.53
 21
243.10
  0
LINE
  8
L-1-1
 10
194.43
 20
243.87
 11
191.43
 21
243.87
  0
LINE
  8
L-1-1
 10
182.13
 20
243.87
 11
191.43
 21
243.87
  0
LINE
  8
L-1-1
 10
194.43
 20
243.87
 11
195.76
 21
243.87
  0
LINE
  8
L-1-1
 10
195.76
 20
257.83
 11
195.76
 21
240.87
  0
LINE
  8
L-1-1
 10
202.43
 20
257.83
 11
202.43
 21
240.87
  0
LINE
  8
L-1-1
 10
202.18
 20
243.87
 11
202.68
 21
243.87
  0
LINE
  8
L-1-1
 10
202.68
 20
243.87
 11
202.18
 21
243.87
  0
LINE
  8
L-1-1
 10
201.93
 20
243.87
 11
201.43
 21
243.87
  0
LINE
  8
L-1-1
 10
196.01
 20
243.87
 11
195.51
 21
243.87
  0
LINE
  8
L-1-1
 10
195.51
 20
243.87
 11
196.01
 21
243.87
  0
LINE
  8
L-1-1
 10
196.26
 20
243.87
 11
196.76
 21
243.87
  0
LINE
  8
L-1-1
 10
196.76
 20
243.87
 11
201.43
 21
243.87
  0
LINE
  8
L-1-1
 10
202.43
 20
257.83
 11
202.43
 21
240.87
  0
LINE
  8
L-1-1
 10
203.76
 20
259.16
 11
203.76
 21
240.87
  0
LINE
  8
L-1-1
 10
206.66
 20
243.10
 11
203.76
 21
243.87
  0
LINE
  8
L-1-1
 10
203.76
 20
243.87
 11
206.66
 21
244.65
  0
LINE
  8
L-1-1
 10
203.76
 20
243.87
 11
206.76
 21
243.87
  0
LINE
  8
L-1-1
 10
202.43
 20
243.87
 11
203.76
 21
243.87
  0
LINE
  8
L-1-1
 10
206.76
 20
243.87
 11
216.06
 21
243.87
  0
LINE
  8
L-1-1
 10
197.85
 20
280.42
 11
196.03
 21
278.03
  0
LINE
  8
L-1-1
 10
196.03
 20
278.03
 11
196.41
 21
281.00
  0
LINE
  8
L-1-1
 10
196.03
 20
278.03
 11
197.17
 21
280.80
  0
LINE
  8
L-1-1
 10
197.17
 20
280.80
 11
205.23
 21
300.49
  0
LINE
  8
L-1-1
 10
205.23
 20
300.49
 11
261.09
 21
300.49
  0
LINE
  8
L-1-1
 10
475.37
 20
112.59
 11
477.33
 21
114.86
  0
LINE
  8
L-1-1
 10
477.33
 20
114.86
 11
476.77
 21
111.92
  0
LINE
  8
L-1-1
 10
477.33
 20
114.86
 11
476.02
 21
112.16
  0
LINE
  8
L-1-1
 10
476.02
 20
112.16
 11
467.44
 21
94.37
  0
LINE
  8
L-1-1
 10
467.44
 20
94.37
 11
432.84
 21
94.37
  0
LINE
  8
L-1-1
 10
459.50
 20
55.14
 11
499.73
 21
55.14
  0
LINE
  8
L-1-1
 10
459.50
 20
54.74
 11
499.73
 21
54.74
  0
LINE
  8
L-1-1
 10
473.64
 20
105.63
 11
473.64
 21
80.76
  0
LINE
  8
L-1-1
 10
478.97
 20
105.79
 11
478.97
 21
80.76
  0
LINE
  8
L-1-1
 10
476.07
 20
84.53
 11
478.97
 21
83.76
  0
LINE
  8
L-1-1
 10
478.97
 20
83.76
 11
476.07
 21
82.98
  0
LINE
  8
L-1-1
 10
478.97
 20
83.76
 11
475.97
 21
83.76
  0
LINE
  8
L-1-1
 10
470.74
 20
84.53
 11
473.64
 21
83.76
  0
LINE
  8
L-1-1
 10
473.64
 20
83.76
 11
470.74
 21
82.98
  0
LINE
  8
L-1-1
 10
473.64
 20
83.76
 11
470.64
 21
83.76
  0
LINE
  8
L-1-1
 10
457.34
 20
83.76
 11
470.64
 21
83.76
  0
LINE
  8
L-1-1
 10
473.64
 20
83.76
 11
475.97
 21
83.76
  0
LINE
  8
L-1-1
 10
478.97
 20
105.79
 11
478.97
 21
80.76
  0
LINE
  8
L-1-1
 10
480.14
 20
99.85
 11
480.14
 21
80.76
  0
LINE
  8
L-1-1
 10
483.03
 20
82.98
 11
480.14
 21
83.76
  0
LINE
  8
L-1-1
 10
480.14
 20
83.76
 11
483.03
 21
84.53
  0
LINE
  8
L-1-1
 10
480.14
 20
83.76
 11
483.14
 21
83.76
  0
LINE
  8
L-1-1
 10
479.22
 20
83.76
 11
478.72
 21
83.76
  0
LINE
  8
L-1-1
 10
478.72
 20
83.76
 11
479.22
 21
83.76
  0
LINE
  8
L-1-1
 10
479.47
 20
83.76
 11
479.97
 21
83.76
  0
LINE
  8
L-1-1
 10
479.97
 20
83.76
 11
480.14
 21
83.76
  0
LINE
  8
L-1-1
 10
483.14
 20
83.76
 11
492.44
 21
83.76
  0
LINE
  8
L-1-1
 10
304.94
 20
214.41
 11
282.20
 21
214.41
  0
LINE
  8
L-1-1
 10
290.03
 20
150.74
 11
282.20
 21
150.74
  0
LINE
  8
L-1-1
 10
285.97
 20
153.64
 11
285.20
 21
150.74
  0
LINE
  8
L-1-1
 10
285.20
 20
150.74
 11
284.42
 21
153.64
  0
LINE
  8
L-1-1
 10
285.20
 20
150.74
 11
285.20
 21
153.74
  0
LINE
  8
L-1-1
 10
284.42
 20
211.51
 11
285.20
 21
214.41
  0
LINE
  8
L-1-1
 10
285.20
 20
214.41
 11
285.97
 21
211.51
  0
LINE
  8
L-1-1
 10
285.20
 20
214.41
 11
285.20
 21
211.41
  0
LINE
  8
L-1-1
 10
285.20
 20
211.41
 11
285.20
 21
153.74
  0
LINE
  8
L-1-1
 10
290.03
 20
150.74
 11
282.20
 21
150.74
  0
LINE
  8
L-1-1
 10
302.94
 20
136.41
 11
282.20
 21
136.41
  0
LINE
  8
L-1-1
 10
285.97
 20
139.31
 11
285.20
 21
136.41
  0
LINE
  8
L-1-1
 10
285.20
 20
136.41
 11
284.42
 21
139.31
  0
LINE
  8
L-1-1
 10
285.20
 20
136.41
 11
285.20
 21
139.41
  0
LINE
  8
L-1-1
 10
284.42
 20
147.84
 11
285.20
 21
150.74
  0
LINE
  8
L-1-1
 10
285.20
 20
150.74
 11
285.97
 21
147.84
  0
LINE
  8
L-1-1
 10
285.20
 20
150.74
 11
285.20
 21
147.74
  0
LINE
  8
L-1-1
 10
285.20
 20
147.74
 11
285.20
 21
139.41
  0
LINE
  8
L-1-1
 10
285.20
 20
136.41
 11
285.20
 21
120.11
  0
LINE
  8
L-1-1
 10
356.11
 20
104.57
 11
356.11
 21
76.32
  0
LINE
  8
L-1-1
 10
348.94
 20
137.74
 11
348.94
 21
76.32
  0
LINE
  8
L-1-1
 10
359.01
 20
78.54
 11
356.11
 21
79.32
  0
LINE
  8
L-1-1
 10
356.11
 20
79.32
 11
359.01
 21
80.09
  0
LINE
  8
L-1-1
 10
356.11
 20
79.32
 11
359.11
 21
79.32
  0
LINE
  8
L-1-1
 10
359.41
 20
79.32
 11
359.11
 21
79.32
  0
LINE
  8
L-1-1
 10
356.11
 20
79.32
 11
348.94
 21
79.32
  0
LINE
  8
L-1-1
 10
348.94
 20
137.74
 11
348.94
 21
76.32
  0
LINE
  8
L-1-1
 10
140.94
 20
134.41
 11
140.94
 21
76.32
  0
LINE
  8
L-1-1
 10
143.84
 20
78.54
 11
140.94
 21
79.32
  0
LINE
  8
L-1-1
 10
140.94
 20
79.32
 11
143.84
 21
80.09
  0
LINE
  8
L-1-1
 10
140.94
 20
79.32
 11
143.94
 21
79.32
  0
LINE
  8
L-1-1
 10
346.05
 20
80.09
 11
348.94
 21
79.32
  0
LINE
  8
L-1-1
 10
348.94
 20
79.32
 11
346.05
 21
78.54
  0
LINE
  8
L-1-1
 10
348.94
 20
79.32
 11
345.94
 21
79.32
  0
LINE
  8
L-1-1
 10
345.94
 20
79.32
 11
143.94
 21
79.32
  0
LINE
  8
L-1-1
 10
140.94
 20
134.41
 11
140.94
 21
76.32
  0
LINE
  8
L-1-1
 10
133.78
 20
98.61
 11
133.78
 21
76.32
  0
LINE
  8
L-1-1
 10
130.88
 20
80.09
 11
133.78
 21
79.32
  0
LINE
  8
L-1-1
 10
133.78
 20
79.32
 11
130.88
 21
78.54
  0
LINE
  8
L-1-1
 10
133.78
 20
79.32
 11
130.78
 21
79.32
  0
LINE
  8
L-1-1
 10
140.94
 20
79.32
 11
133.78
 21
79.32
  0
LINE
  8
L-1-1
 10
130.78
 20
79.32
 11
130.48
 21
79.32
  0
LINE
  8
L-1-1
 10
140.94
 20
137.74
 11
140.94
 21
83.32
  0
LINE
  8
L-1-1
 10
184.94
 20
137.74
 11
184.94
 21
83.32
  0
LINE
  8
L-1-1
 10
182.05
 20
87.09
 11
184.94
 21
86.32
  0
LINE
  8
L-1-1
 10
184.94
 20
86.32
 11
182.05
 21
85.54
  0
LINE
  8
L-1-1
 10
184.94
 20
86.32
 11
181.94
 21
86.32
  0
LINE
  8
L-1-1
 10
143.84
 20
85.54
 11
140.94
 21
86.32
  0
LINE
  8
L-1-1
 10
140.94
 20
86.32
 11
143.84
 21
87.09
  0
LINE
  8
L-1-1
 10
140.94
 20
86.32
 11
143.94
 21
86.32
  0
LINE
  8
L-1-1
 10
143.94
 20
86.32
 11
181.94
 21
86.32
  0
LINE
  8
L-1-1
 10
184.94
 20
137.74
 11
184.94
 21
83.32
  0
LINE
  8
L-1-1
 10
244.94
 20
134.41
 11
244.94
 21
83.32
  0
LINE
  8
L-1-1
 10
242.05
 20
87.09
 11
244.94
 21
86.32
  0
LINE
  8
L-1-1
 10
244.94
 20
86.32
 11
242.05
 21
85.54
  0
LINE
  8
L-1-1
 10
244.94
 20
86.32
 11
241.94
 21
86.32
  0
LINE
  8
L-1-1
 10
187.84
 20
85.54
 11
184.94
 21
86.32
  0
LINE
  8
L-1-1
 10
184.94
 20
86.32
 11
187.84
 21
87.09
  0
LINE
  8
L-1-1
 10
184.94
 20
86.32
 11
187.94
 21
86.32
  0
LINE
  8
L-1-1
 10
187.94
 20
86.32
 11
241.94
 21
86.32
  0
LINE
  8
L-1-1
 10
244.94
 20
134.41
 11
244.94
 21
83.32
  0
LINE
  8
L-1-1
 10
304.94
 20
134.41
 11
304.94
 21
83.32
  0
LINE
  8
L-1-1
 10
302.05
 20
87.09
 11
304.94
 21
86.32
  0
LINE
  8
L-1-1
 10
304.94
 20
86.32
 11
302.05
 21
85.54
  0
LINE
  8
L-1-1
 10
304.94
 20
86.32
 11
301.94
 21
86.32
  0
LINE
  8
L-1-1
 10
247.84
 20
85.54
 11
244.94
 21
86.32
  0
LINE
  8
L-1-1
 10
244.94
 20
86.32
 11
247.84
 21
87.09
  0
LINE
  8
L-1-1
 10
244.94
 20
86.32
 11
247.94
 21
86.32
  0
LINE
  8
L-1-1
 10
247.94
 20
86.32
 11
301.94
 21
86.32
  0
LINE
  8
L-1-1
 10
304.94
 20
134.41
 11
304.94
 21
83.32
  0
LINE
  8
L-1-1
 10
348.94
 20
134.41
 11
348.94
 21
83.32
  0
LINE
  8
L-1-1
 10
346.05
 20
87.09
 11
348.94
 21
86.32
  0
LINE
  8
L-1-1
 10
348.94
 20
86.32
 11
346.05
 21
85.54
  0
LINE
  8
L-1-1
 10
348.94
 20
86.32
 11
345.94
 21
86.32
  0
LINE
  8
L-1-1
 10
307.84
 20
85.54
 11
304.94
 21
86.32
  0
LINE
  8
L-1-1
 10
304.94
 20
86.32
 11
307.84
 21
87.09
  0
LINE
  8
L-1-1
 10
304.94
 20
86.32
 11
307.94
 21
86.32
  0
LINE
  8
L-1-1
 10
307.94
 20
86.32
 11
345.94
 21
86.32
  0
LINE
  8
L-1-1
 10
304.94
 20
180.41
 11
304.94
 21
202.83
  0
LINE
  8
L-1-1
 10
185.85
 20
180.41
 11
185.85
 21
202.83
  0
LINE
  8
L-1-1
 10
188.75
 20
199.05
 11
185.85
 21
199.83
  0
LINE
  8
L-1-1
 10
185.85
 20
199.83
 11
188.75
 21
200.60
  0
LINE
  8
L-1-1
 10
185.85
 20
199.83
 11
188.85
 21
199.83
  0
LINE
  8
L-1-1
 10
302.05
 20
200.60
 11
304.94
 21
199.83
  0
LINE
  8
L-1-1
 10
304.94
 20
199.83
 11
302.05
 21
199.05
  0
LINE
  8
L-1-1
 10
304.94
 20
199.83
 11
301.94
 21
199.83
  0
LINE
  8
L-1-1
 10
301.94
 20
199.83
 11
188.85
 21
199.83
  0
CIRCLE
  8
L-1-1
 10
271.32
 20
231.18
 40
1.72
  0
LINE
  8
L-1-1
 10
306.38
 20
215.84
 11
306.38
 21
224.07
  0
LINE
  8
L-1-1
 10
348.51
 20
215.84
 11
348.51
 21
224.07
  0
LINE
  8
L-1-1
 10
345.61
 20
221.84
 11
348.51
 21
221.07
  0
LINE
  8
L-1-1
 10
348.51
 20
221.07
 11
345.61
 21
220.29
  0
LINE
  8
L-1-1
 10
348.51
 20
221.07
 11
345.51
 21
221.07
  0
LINE
  8
L-1-1
 10
309.27
 20
220.29
 11
306.38
 21
221.07
  0
LINE
  8
L-1-1
 10
306.38
 20
221.07
 11
309.27
 21
221.84
  0
LINE
  8
L-1-1
 10
306.38
 20
221.07
 11
309.38
 21
221.07
  0
LINE
  8
L-1-1
 10
309.38
 20
221.07
 11
345.51
 21
221.07
  0
LINE
  8
L-1-1
 10
123.28
 20
116.57
 11
123.28
 21
116.77
  0
LINE
  8
L-1-1
 10
126.61
 20
116.77
 11
123.28
 21
116.77
  0
LINE
  8
L-1-1
 10
126.61
 20
116.77
 11
126.61
 21
116.57
  0
LINE
  8
L-1-1
 10
125.75
 20
116.77
 11
125.75
 21
316.30
  0
CIRCLE
  8
L-1-1
 10
124.94
 20
119.21
 40
0.81
  0
CIRCLE
  8
L-1-1
 10
124.94
 20
166.87
 40
0.81
  0
CIRCLE
  8
L-1-1
 10
124.94
 20
214.54
 40
0.81
  0
CIRCLE
  8
L-1-1
 10
124.94
 20
262.21
 40
0.81
  0
CIRCLE
  8
L-1-1
 10
124.94
 20
309.87
 40
0.81
  0
LINE
  8
L-1-1
 10
124.13
 20
116.77
 11
124.13
 21
316.30
  0
LINE
  8
L-1-1
 10
124.94
 20
116.06
 11
124.94
 21
316.30
  0
LINE
  8
L-1-1
 10
63.28
 20
116.57
 11
63.28
 21
116.77
  0
LINE
  8
L-1-1
 10
66.61
 20
116.77
 11
63.28
 21
116.77
  0
LINE
  8
L-1-1
 10
66.61
 20
116.77
 11
66.61
 21
116.57
  0
LINE
  8
L-1-1
 10
65.75
 20
116.77
 11
65.75
 21
316.30
  0
CIRCLE
  8
L-1-1
 10
64.94
 20
119.21
 40
0.81
  0
CIRCLE
  8
L-1-1
 10
64.94
 20
166.87
 40
0.81
  0
CIRCLE
  8
L-1-1
 10
64.94
 20
214.54
 40
0.81
  0
CIRCLE
  8
L-1-1
 10
64.94
 20
262.21
 40
0.81
  0
CIRCLE
  8
L-1-1
 10
64.94
 20
309.87
 40
0.81
  0
LINE
  8
L-1-1
 10
64.13
 20
116.77
 11
64.13
 21
316.30
  0
LINE
  8
L-1-1
 10
64.94
 20
116.06
 11
64.94
 21
316.30
  0
LINE
  8
L-1-1
 10
64.94
 20
126.57
 11
124.94
 21
166.57
  0
LINE
  8
L-1-1
 10
124.94
 20
126.57
 11
64.94
 21
166.57
  0
LINE
  8
L-1-1
 10
124.94
 20
176.57
 11
64.94
 21
176.57
  0
LINE
  8
L-1-1
 10
64.94
 20
186.57
 11
124.94
 21
226.57
  0
LINE
  8
L-1-1
 10
64.94
 20
226.57
 11
124.94
 21
186.57
  0
LINE
  8
L-1-1
 10
64.94
 20
236.57
 11
124.94
 21
236.57
  0
LINE
  8
L-1-1
 10
64.94
 20
246.57
 11
124.94
 21
286.57
  0
LINE
  8
L-1-1
 10
124.94
 20
246.57
 11
64.94
 21
286.57
  0
LINE
  8
L-1-1
 10
64.94
 20
296.57
 11
124.94
 21
296.57
  0
LINE
  8
L-1-1
 10
128.84
 20
278.54
 11
135.03
 21
278.54
  0
LINE
  8
L-1-1
 10
135.03
 20
310.87
 11
135.03
 21
278.54
  0
LINE
  8
L-1-1
 10
132.53
 20
310.87
 11
132.53
 21
278.54
  0
ARC
  8
L-1-1
 10
128.84
 20
278.94
 40
0.40
 50
180.00
 51
270.00
  0
LINE
  8
L-1-1
 10
128.44
 20
278.94
 11
128.44
 21
280.21
  0
LINE
  8
L-1-1
 10
128.64
 20
278.94
 11
128.64
 21
280.21
  0
LINE
  8
L-1-1
 10
129.03
 20
279.54
 11
128.11
 21
279.54
  0
LINE
  8
L-1-1
 10
128.64
 20
280.21
 11
132.53
 21
281.04
  0
LINE
  8
L-1-1
 10
128.44
 20
280.21
 11
128.64
 21
280.21
  0
LINE
  8
L-1-1
 10
128.84
 20
310.87
 11
135.03
 21
310.87
  0
ARC
  8
L-1-1
 10
128.84
 20
310.47
 40
0.40
 50
90.00
 51
180.00
  0
LINE
  8
L-1-1
 10
128.44
 20
310.47
 11
128.44
 21
309.21
  0
LINE
  8
L-1-1
 10
128.64
 20
309.21
 11
132.53
 21
308.37
  0
LINE
  8
L-1-1
 10
128.44
 20
309.21
 11
128.64
 21
309.21
  0
LINE
  8
L-1-1
 10
129.03
 20
309.87
 11
123.60
 21
309.87
  0
LINE
  8
L-1-1
 10
128.09
 20
117.87
 11
128.09
 21
118.54
  0
LINE
  8
L-1-1
 10
128.09
 20
117.87
 11
126.47
 21
117.87
  0
LINE
  8
L-1-1
 10
126.47
 20
117.87
 11
126.47
 21
118.54
  0
LINE
  8
L-1-1
 10
126.47
 20
119.87
 11
126.47
 21
166.21
  0
LINE
  8
L-1-1
 10
128.09
 20
119.87
 11
128.09
 21
166.21
  0
LINE
  8
L-1-1
 10
128.09
 20
167.54
 11
128.09
 21
213.87
  0
LINE
  8
L-1-1
 10
126.47
 20
167.54
 11
126.47
 21
213.87
  0
LINE
  8
L-1-1
 10
127.28
 20
116.57
 11
127.28
 21
316.30
  0
LINE
  8
L-1-1
 10
128.09
 20
215.21
 11
128.09
 21
261.54
  0
LINE
  8
L-1-1
 10
126.47
 20
215.21
 11
126.47
 21
261.54
  0
LINE
  8
L-1-1
 10
128.09
 20
262.87
 11
128.09
 21
309.21
  0
LINE
  8
L-1-1
 10
126.47
 20
262.87
 11
126.47
 21
309.21
  0
LINE
  8
L-1-1
 10
128.09
 20
310.54
 11
128.09
 21
312.21
  0
LINE
  8
L-1-1
 10
128.09
 20
312.21
 11
126.47
 21
312.21
  0
LINE
  8
L-1-1
 10
126.47
 20
310.54
 11
126.47
 21
312.21
  0
LINE
  8
L-1-1
 10
128.84
 20
215.54
 11
135.03
 21
215.54
  0
LINE
  8
L-1-1
 10
132.53
 20
263.21
 11
132.53
 21
215.54
  0
LINE
  8
L-1-1
 10
135.03
 20
263.21
 11
135.03
 21
215.54
  0
ARC
  8
L-1-1
 10
128.84
 20
215.94
 40
0.40
 50
180.00
 51
270.00
  0
LINE
  8
L-1-1
 10
128.44
 20
215.94
 11
128.44
 21
217.21
  0
LINE
  8
L-1-1
 10
129.03
 20
216.54
 11
128.11
 21
216.54
  0
LINE
  8
L-1-1
 10
128.64
 20
217.21
 11
132.53
 21
218.04
  0
LINE
  8
L-1-1
 10
128.44
 20
217.21
 11
128.64
 21
217.21
  0
LINE
  8
L-1-1
 10
128.84
 20
263.21
 11
135.03
 21
263.21
  0
ARC
  8
L-1-1
 10
128.84
 20
262.81
 40
0.40
 50
90.00
 51
180.00
  0
LINE
  8
L-1-1
 10
128.44
 20
262.81
 11
128.44
 21
261.54
  0
LINE
  8
L-1-1
 10
129.03
 20
262.21
 11
123.38
 21
262.21
  0
LINE
  8
L-1-1
 10
128.64
 20
261.54
 11
132.53
 21
260.71
  0
LINE
  8
L-1-1
 10
128.44
 20
261.54
 11
128.64
 21
261.54
  0
LINE
  8
L-1-1
 10
128.84
 20
263.21
 11
135.03
 21
263.21
  0
ARC
  8
L-1-1
 10
128.84
 20
263.61
 40
0.40
 50
180.00
 51
270.00
  0
LINE
  8
L-1-1
 10
128.44
 20
263.61
 11
128.44
 21
264.87
  0
LINE
  8
L-1-1
 10
129.03
 20
264.21
 11
128.11
 21
264.21
  0
LINE
  8
L-1-1
 10
128.64
 20
264.87
 11
132.53
 21
265.71
  0
LINE
  8
L-1-1
 10
128.44
 20
264.87
 11
128.64
 21
264.87
  0
LINE
  8
L-1-1
 10
129.03
 20
262.21
 11
123.87
 21
262.21
  0
LINE
  8
L-1-1
 10
129.03
 20
277.54
 11
123.87
 21
277.54
  0
LINE
  8
L-1-1
 10
132.53
 20
278.54
 11
132.53
 21
273.54
  0
LINE
  8
L-1-1
 10
135.03
 20
278.54
 11
135.03
 21
273.28
  0
LINE
  8
L-1-1
 10
132.53
 20
271.57
 11
132.53
 21
263.21
  0
LINE
  8
L-1-1
 10
135.03
 20
271.38
 11
135.03
 21
263.21
  0
LINE
  8
L-1-1
 10
128.64
 20
276.87
 11
132.53
 21
276.04
  0
ARC
  8
L-1-1
 10
128.84
 20
278.14
 40
0.40
 50
90.00
 51
180.00
  0
LINE
  8
L-1-1
 10
128.44
 20
278.14
 11
128.44
 21
276.87
  0
LINE
  8
L-1-1
 10
128.44
 20
276.87
 11
128.64
 21
276.87
  0
LINE
  8
L-1-1
 10
135.03
 20
215.54
 11
135.03
 21
170.29
  0
LINE
  8
L-1-1
 10
128.64
 20
213.87
 11
132.53
 21
213.04
  0
LINE
  8
L-1-1
 10
128.44
 20
215.14
 11
128.44
 21
213.87
  0
LINE
  8
L-1-1
 10
128.44
 20
213.87
 11
128.64
 21
213.87
  0
LINE
  8
L-1-1
 10
129.03
 20
214.54
 11
123.38
 21
214.54
  0
ARC
  8
L-1-1
 10
128.84
 20
215.14
 40
0.40
 50
90.00
 51
180.00
  0
LINE
  8
L-1-1
 10
132.53
 20
215.54
 11
132.53
 21
170.29
  0
LINE
  8
L-1-1
 10
128.64
 20
169.54
 11
131.28
 21
170.11
  0
LINE
  8
L-1-1
 10
128.44
 20
168.27
 11
128.44
 21
169.54
  0
LINE
  8
L-1-1
 10
128.44
 20
169.54
 11
128.64
 21
169.54
  0
ARC
  8
L-1-1
 10
128.84
 20
168.27
 40
0.40
 50
180.00
 51
270.00
  0
LINE
  8
L-1-1
 10
129.11
 20
116.57
 11
138.44
 21
116.57
  0
LINE
  8
L-1-1
 10
138.44
 20
116.57
 11
138.44
 21
116.87
  0
LINE
  8
L-1-1
 10
138.44
 20
116.87
 11
129.11
 21
116.87
  0
LINE
  8
L-1-1
 10
129.11
 20
116.87
 11
129.11
 21
116.57
  0
LINE
  8
L-1-1
 10
132.53
 20
120.21
 11
132.53
 21
116.87
  0
LINE
  8
L-1-1
 10
132.69
 20
120.21
 11
132.69
 21
116.87
  0
LINE
  8
L-1-1
 10
134.86
 20
120.21
 11
134.86
 21
116.87
  0
LINE
  8
L-1-1
 10
135.03
 20
120.21
 11
135.03
 21
116.87
  0
LINE
  8
L-1-1
 10
135.03
 20
120.21
 11
128.44
 21
120.21
  0
LINE
  8
L-1-1
 10
132.53
 20
118.54
 11
128.44
 21
118.54
  0
LINE
  8
L-1-1
 10
129.40
 20
119.21
 11
123.38
 21
119.21
  0
LINE
  8
L-1-1
 10
128.44
 20
120.21
 11
128.44
 21
118.54
  0
LINE
  8
L-1-1
 10
130.44
 20
117.48
 11
130.44
 21
113.19
  0
LINE
  8
L-1-1
 10
137.11
 20
113.19
 11
137.11
 21
117.48
  0
LINE
  8
L-1-1
 10
356.11
 20
106.57
 11
356.11
 21
316.30
  0
LINE
  8
L-1-1
 10
133.78
 20
100.61
 11
133.78
 21
316.30
  0
LINE
  8
L-1-1
 10
362.78
 20
116.57
 11
362.78
 21
106.57
  0
LINE
  8
L-1-1
 10
349.44
 20
116.57
 11
349.44
 21
106.57
  0
LINE
  8
L-1-1
 10
349.44
 20
106.57
 11
362.78
 21
106.57
  0
LINE
  8
L-1-1
 10
127.11
 20
106.57
 11
127.11
 21
116.57
  0
LINE
  8
L-1-1
 10
140.44
 20
106.57
 11
140.44
 21
116.57
  0
LINE
  8
L-1-1
 10
127.11
 20
106.57
 11
140.44
 21
106.57
  0
LINE
  8
L-1-1
 10
358.58
 20
106.57
 11
362.78
 21
110.78
  0
LINE
  8
L-1-1
 10
358.10
 20
106.57
 11
362.78
 21
111.25
  0
LINE
  8
L-1-1
 10
357.63
 20
106.57
 11
362.78
 21
111.72
  0
LINE
  8
L-1-1
 10
350.56
 20
106.57
 11
360.56
 21
116.57
  0
LINE
  8
L-1-1
 10
350.09
 20
106.57
 11
360.09
 21
116.57
  0
LINE
  8
L-1-1
 10
349.62
 20
106.57
 11
359.62
 21
116.57
  0
LINE
  8
L-1-1
 10
135.30
 20
106.57
 11
140.44
 21
111.72
  0
LINE
  8
L-1-1
 10
135.77
 20
106.57
 11
140.44
 21
111.25
  0
LINE
  8
L-1-1
 10
136.24
 20
106.57
 11
140.44
 21
110.78
  0
LINE
  8
L-1-1
 10
127.29
 20
106.57
 11
137.29
 21
116.57
  0
LINE
  8
L-1-1
 10
127.76
 20
106.57
 11
137.76
 21
116.57
  0
LINE
  8
L-1-1
 10
128.23
 20
106.57
 11
138.23
 21
116.57
  0
LINE
  8
L-1-1
 10
434.28
 20
116.57
 11
57.23
 21
116.57
  0
LINE
  8
L-1-1
 10
129.05
 20
150.74
 11
81.45
 21
150.74
  0
LINE
  8
L-1-1
 10
130.90
 20
270.87
 11
80.47
 21
270.87
  0
LINE
  8
L-1-1
 10
136.31
 20
169.99
 11
136.31
 21
150.74
  0
LINE
  8
L-1-1
 10
131.28
 20
170.09
 11
131.28
 21
150.74
  0
LINE
  8
L-1-1
 10
131.48
 20
129.46
 11
131.48
 21
136.41
  0
LINE
  8
L-1-1
 10
131.28
 20
170.09
 11
131.48
 21
170.09
  0
LINE
  8
L-1-1
 10
131.28
 20
129.46
 11
131.48
 21
129.46
  0
LINE
  8
L-1-1
 10
133.13
 20
166.54
 11
134.43
 21
166.54
  0
LINE
  8
L-1-1
 10
134.43
 20
164.04
 11
133.13
 21
164.04
  0
LINE
  8
L-1-1
 10
133.78
 20
146.59
 11
133.78
 21
148.39
  0
CIRCLE
  8
L-1-1
 10
133.78
 20
147.49
 40
0.42
  0
CIRCLE
  8
L-1-1
 10
133.78
 20
139.74
 40
0.42
  0
CIRCLE
  8
L-1-1
 10
133.71
 20
130.96
 40
0.73
  0
LINE
  8
L-1-1
 10
133.71
 20
130.06
 11
133.71
 21
131.86
  0
CIRCLE
  8
L-1-1
 10
133.71
 20
130.96
 40
0.34
  0
CIRCLE
  8
L-1-1
 10
133.84
 20
168.62
 40
0.73
  0
LINE
  8
L-1-1
 10
138.48
 20
170.29
 11
131.48
 21
170.29
  0
LINE
  8
L-1-1
 10
138.48
 20
169.99
 11
131.48
 21
169.99
  0
LINE
  8
L-1-1
 10
138.48
 20
170.29
 11
138.48
 21
169.69
  0
LINE
  8
L-1-1
 10
131.48
 20
170.29
 11
131.48
 21
169.99
  0
LINE
  8
L-1-1
 10
131.48
 20
129.59
 11
131.48
 21
129.29
  0
LINE
  8
L-1-1
 10
134.69
 20
165.29
 11
133.88
 21
165.29
  0
LINE
  8
L-1-1
 10
134.43
 20
166.54
 11
134.43
 21
164.04
  0
LINE
  8
L-1-1
 10
134.43
 20
166.54
 11
134.23
 21
166.54
  0
LINE
  8
L-1-1
 10
134.43
 20
164.04
 11
134.23
 21
164.04
  0
LINE
  8
L-1-1
 10
132.86
 20
165.29
 11
133.67
 21
165.29
  0
LINE
  8
L-1-1
 10
133.13
 20
166.54
 11
133.13
 21
164.04
  0
LINE
  8
L-1-1
 10
133.33
 20
164.04
 11
133.13
 21
164.04
  0
LINE
  8
L-1-1
 10
133.33
 20
166.54
 11
133.13
 21
166.54
  0
LINE
  8
L-1-1
 10
136.31
 20
161.62
 11
136.74
 21
161.62
  0
LINE
  8
L-1-1
 10
136.74
 20
161.62
 11
136.74
 21
150.74
  0
LINE
  8
L-1-1
 10
132.74
 20
133.04
 11
132.74
 21
135.54
  0
LINE
  8
L-1-1
 10
134.81
 20
135.54
 11
134.81
 21
133.04
  0
CIRCLE
  8
L-1-1
 10
133.78
 20
134.29
 40
0.34
  0
LINE
  8
L-1-1
 10
134.81
 20
135.74
 11
132.74
 21
135.74
  0
LINE
  8
L-1-1
 10
132.74
 20
135.54
 11
132.74
 21
135.74
  0
LINE
  8
L-1-1
 10
134.81
 20
135.54
 11
134.81
 21
135.74
  0
LINE
  8
L-1-1
 10
134.81
 20
132.84
 11
132.74
 21
132.84
  0
LINE
  8
L-1-1
 10
132.74
 20
133.04
 11
132.74
 21
132.84
  0
LINE
  8
L-1-1
 10
134.81
 20
133.04
 11
134.81
 21
132.84
  0
LINE
  8
L-1-1
 10
136.74
 20
135.12
 11
136.31
 21
135.12
  0
LINE
  8
L-1-1
 10
136.74
 20
161.17
 11
139.68
 21
161.17
  0
LINE
  8
L-1-1
 10
137.41
 20
162.46
 11
139.34
 21
162.46
  0
LINE
  8
L-1-1
 10
138.21
 20
151.16
 11
139.74
 21
151.16
  0
LINE
  8
L-1-1
 10
140.08
 20
151.49
 11
140.08
 21
161.13
  0
LINE
  8
L-1-1
 10
140.08
 20
152.95
 11
142.28
 21
152.95
  0
LINE
  8
L-1-1
 10
136.74
 20
160.12
 11
136.74
 21
161.17
  0
LINE
  8
L-1-1
 10
136.74
 20
150.79
 11
136.74
 21
150.74
  0
LINE
  8
L-1-1
 10
137.08
 20
161.17
 11
137.08
 21
162.12
  0
LINE
  8
L-1-1
 10
139.68
 20
161.17
 11
139.68
 21
162.12
  0
LINE
  8
L-1-1
 10
139.68
 20
161.17
 11
142.28
 21
160.93
  0
ARC
  8
L-1-1
 10
137.41
 20
162.12
 40
0.33
 50
90.00
 51
180.00
  0
ARC
  8
L-1-1
 10
139.34
 20
162.12
 40
0.33
 50
0.00
 51
90.00
  0
LINE
  8
L-1-1
 10
137.44
 20
150.74
 11
137.44
 21
161.17
  0
ARC
  8
L-1-1
 10
139.74
 20
151.49
 40
0.33
 50
270.00
 51
0.00
  0
ARC
  8
L-1-1
 10
138.21
 20
150.66
 40
0.50
 50
90.00
 51
170.41
  0
LINE
  8
L-1-1
 10
136.74
 20
150.79
 11
136.74
 21
160.12
  0
LINE
  8
L-1-1
 10
131.48
 20
150.74
 11
131.48
 21
170.09
  0
LINE
  8
L-1-1
 10
131.28
 20
136.41
 11
131.28
 21
129.46
  0
LINE
  8
L-1-1
 10
136.31
 20
136.41
 11
136.31
 21
129.59
  0
LINE
  8
L-1-1
 10
136.74
 20
135.12
 11
137.41
 21
135.12
  0
LINE
  8
L-1-1
 10
159.68
 20
137.41
 11
159.68
 21
140.18
  0
ARC
  8
L-1-1
 10
159.34
 20
144.32
 40
0.33
 50
0.00
 51
90.00
  0
LINE
  8
L-1-1
 10
154.42
 20
137.44
 11
154.44
 21
137.44
  0
LINE
  8
L-1-1
 10
155.44
 20
144.66
 11
159.34
 21
144.66
  0
LINE
  8
L-1-1
 10
159.68
 20
141.59
 11
159.68
 21
144.32
  0
LINE
  8
L-1-1
 10
137.41
 20
136.41
 11
137.41
 21
135.12
  0
LINE
  8
L-1-1
 10
135.98
 20
129.29
 11
135.98
 21
129.09
  0
LINE
  8
L-1-1
 10
139.78
 20
177.69
 11
139.44
 21
177.69
  0
LINE
  8
L-1-1
 10
139.44
 20
177.69
 11
139.44
 21
168.36
  0
LINE
  8
L-1-1
 10
139.78
 20
177.69
 11
139.78
 21
167.02
  0
LINE
  8
L-1-1
 10
137.78
 20
168.36
 11
139.78
 21
168.36
  0
LINE
  8
L-1-1
 10
140.34
 20
167.69
 11
135.13
 21
167.69
  0
LINE
  8
L-1-1
 10
137.78
 20
167.02
 11
139.78
 21
167.02
  0
LINE
  8
L-1-1
 10
137.78
 20
169.69
 11
137.78
 21
166.02
  0
LINE
  8
L-1-1
 10
137.78
 20
166.02
 11
136.61
 21
166.02
  0
LINE
  8
L-1-1
 10
136.61
 20
169.69
 11
136.61
 21
165.69
  0
LINE
  8
L-1-1
 10
136.61
 20
165.69
 11
136.31
 21
165.69
  0
LINE
  8
L-1-1
 10
138.48
 20
169.69
 11
136.61
 21
169.69
  0
ARC
  8
L-1-1
 10
134.78
 20
147.41
 40
1.20
 50
270.00
 51
90.00
  0
LINE
  8
L-1-1
 10
132.78
 20
148.61
 11
134.78
 21
148.61
  0
ARC
  8
L-1-1
 10
132.78
 20
147.41
 40
1.20
 50
90.00
 51
270.00
  0
LINE
  8
L-1-1
 10
132.78
 20
146.21
 11
134.78
 21
146.21
  0
LINE
  8
L-1-1
 10
130.78
 20
136.91
 11
130.78
 21
150.24
  0
LINE
  8
L-1-1
 10
130.28
 20
136.41
 11
130.28
 21
150.74
  0
LINE
  8
L-1-1
 10
130.78
 20
149.74
 11
130.28
 21
149.74
  0
LINE
  8
L-1-1
 10
130.78
 20
150.24
 11
136.78
 21
150.24
  0
LINE
  8
L-1-1
 10
140.94
 20
150.74
 11
130.28
 21
150.74
  0
LINE
  8
L-1-1
 10
140.94
 20
149.74
 11
136.78
 21
149.74
  0
LINE
  8
L-1-1
 10
137.28
 20
137.41
 11
137.28
 21
149.74
  0
LINE
  8
L-1-1
 10
140.94
 20
147.57
 11
139.44
 21
147.57
  0
LINE
  8
L-1-1
 10
136.78
 20
136.91
 11
136.78
 21
150.24
  0
LINE
  8
L-1-1
 10
139.44
 20
137.41
 11
136.78
 21
137.41
  0
LINE
  8
L-1-1
 10
139.61
 20
136.41
 11
130.28
 21
136.41
  0
LINE
  8
L-1-1
 10
136.78
 20
136.91
 11
130.78
 21
136.91
  0
LINE
  8
L-1-1
 10
130.78
 20
137.41
 11
130.28
 21
137.41
  0
ARC
  8
L-1-1
 10
133.11
 20
139.74
 40
1.03
 50
90.00
 51
270.00
  0
LINE
  8
L-1-1
 10
134.44
 20
138.71
 11
133.11
 21
138.71
  0
ARC
  8
L-1-1
 10
134.44
 20
139.74
 40
1.03
 50
270.00
 51
90.00
  0
LINE
  8
L-1-1
 10
134.44
 20
140.77
 11
133.11
 21
140.77
  0
LINE
  8
L-1-1
 10
140.94
 20
150.74
 11
140.94
 21
147.57
  0
LINE
  8
L-1-1
 10
139.44
 20
149.74
 11
139.44
 21
136.41
  0
LINE
  8
L-1-1
 10
128.84
 20
120.41
 11
132.53
 21
120.41
  0
ARC
  8
L-1-1
 10
128.84
 20
120.61
 40
0.40
 50
180.00
 51
270.00
  0
LINE
  8
L-1-1
 10
128.44
 20
120.61
 11
128.44
 21
121.87
  0
LINE
  8
L-1-1
 10
128.64
 20
120.61
 11
128.64
 21
121.87
  0
ARC
  8
L-1-1
 10
128.84
 20
120.61
 40
0.20
 50
180.00
 51
270.00
  0
LINE
  8
L-1-1
 10
129.03
 20
121.21
 11
128.11
 21
121.21
  0
LINE
  8
L-1-1
 10
128.44
 20
121.87
 11
128.64
 21
121.87
  0
LINE
  8
L-1-1
 10
128.64
 20
121.87
 11
132.53
 21
122.71
  0
LINE
  8
L-1-1
 10
132.53
 20
129.29
 11
132.53
 21
120.21
  0
LINE
  8
L-1-1
 10
132.69
 20
129.29
 11
132.69
 21
120.21
  0
LINE
  8
L-1-1
 10
134.86
 20
129.29
 11
134.86
 21
120.21
  0
LINE
  8
L-1-1
 10
135.03
 20
129.29
 11
135.03
 21
120.21
  0
LINE
  8
L-1-1
 10
129.03
 20
168.87
 11
128.11
 21
168.87
  0
LINE
  8
L-1-1
 10
129.06
 20
166.87
 11
123.31
 21
166.87
  0
LINE
  8
L-1-1
 10
131.28
 20
167.87
 11
128.84
 21
167.87
  0
LINE
  8
L-1-1
 10
128.64
 20
166.21
 11
131.28
 21
165.64
  0
LINE
  8
L-1-1
 10
128.44
 20
167.47
 11
128.44
 21
166.21
  0
LINE
  8
L-1-1
 10
128.44
 20
166.21
 11
128.64
 21
166.21
  0
ARC
  8
L-1-1
 10
128.84
 20
167.47
 40
0.40
 50
90.00
 51
180.00
  0
LINE
  8
L-1-1
 10
142.28
 20
136.41
 11
142.28
 21
149.74
  0
LINE
  8
L-1-1
 10
143.28
 20
137.41
 11
143.28
 21
149.74
  0
LINE
  8
L-1-1
 10
140.94
 20
147.57
 11
142.28
 21
147.57
  0
LINE
  8
L-1-1
 10
154.44
 20
149.74
 11
154.44
 21
137.41
  0
LINE
  8
L-1-1
 10
155.44
 20
137.41
 11
155.44
 21
149.74
  0
LINE
  8
L-1-1
 10
169.44
 20
137.41
 11
169.44
 21
149.74
  0
LINE
  8
L-1-1
 10
170.44
 20
137.41
 11
170.44
 21
149.74
  0
LINE
  8
L-1-1
 10
183.44
 20
149.74
 11
183.44
 21
137.41
  0
LINE
  8
L-1-1
 10
186.44
 20
149.74
 11
186.44
 21
137.41
  0
LINE
  8
L-1-1
 10
200.36
 20
136.41
 11
200.36
 21
140.24
  0
LINE
  8
L-1-1
 10
214.53
 20
137.41
 11
214.53
 21
149.74
  0
LINE
  8
L-1-1
 10
215.36
 20
137.41
 11
215.36
 21
149.74
  0
LINE
  8
L-1-1
 10
229.53
 20
140.24
 11
229.53
 21
136.41
  0
LINE
  8
L-1-1
 10
260.36
 20
140.24
 11
260.36
 21
136.41
  0
LINE
  8
L-1-1
 10
274.53
 20
137.41
 11
274.53
 21
149.74
  0
LINE
  8
L-1-1
 10
275.36
 20
137.41
 11
275.36
 21
149.74
  0
LINE
  8
L-1-1
 10
289.53
 20
136.41
 11
289.53
 21
140.24
  0
LINE
  8
L-1-1
 10
303.44
 20
140.24
 11
303.44
 21
137.41
  0
LINE
  8
L-1-1
 10
306.44
 20
140.24
 11
306.44
 21
137.41
  0
LINE
  8
L-1-1
 10
346.61
 20
137.41
 11
304.94
 21
137.41
  0
LINE
  8
L-1-1
 10
346.61
 20
137.41
 11
346.61
 21
149.74
  0
LINE
  8
L-1-1
 10
347.61
 20
136.41
 11
347.61
 21
141.54
  0
LINE
  8
L-1-1
 10
347.61
 20
136.41
 11
304.94
 21
136.41
  0
LINE
  8
L-1-1
 10
348.94
 20
147.57
 11
347.61
 21
147.57
  0
LINE
  8
L-1-1
 10
335.44
 20
149.74
 11
335.44
 21
137.41
  0
LINE
  8
L-1-1
 10
334.44
 20
137.41
 11
334.44
 21
149.74
  0
LINE
  8
L-1-1
 10
319.44
 20
137.41
 11
319.44
 21
149.74
  0
LINE
  8
L-1-1
 10
320.44
 20
137.41
 11
320.44
 21
149.74
  0
LINE
  8
L-1-1
 10
183.44
 20
147.41
 11
186.44
 21
147.41
  0
LINE
  8
L-1-1
 10
184.94
 20
149.74
 11
184.94
 21
147.41
  0
LINE
  8
L-1-1
 10
184.94
 20
137.41
 11
142.28
 21
137.41
  0
LINE
  8
L-1-1
 10
184.94
 20
136.41
 11
142.28
 21
136.41
  0
LINE
  8
L-1-1
 10
304.94
 20
136.41
 11
244.94
 21
136.41
  0
LINE
  8
L-1-1
 10
304.94
 20
137.41
 11
292.03
 21
137.41
  0
LINE
  8
L-1-1
 10
244.94
 20
137.41
 11
232.03
 21
137.41
  0
LINE
  8
L-1-1
 10
244.94
 20
136.41
 11
184.94
 21
136.41
  0
LINE
  8
L-1-1
 10
167.93
 20
149.74
 11
155.44
 21
137.41
  0
LINE
  8
L-1-1
 10
169.35
 20
149.74
 11
156.87
 21
137.41
  0
LINE
  8
L-1-1
 10
213.00
 20
137.41
 11
202.64
 21
147.55
  0
LINE
  8
L-1-1
 10
214.43
 20
137.41
 11
203.05
 21
148.54
  0
LINE
  8
L-1-1
 10
215.62
 20
137.41
 11
226.88
 21
148.43
  0
LINE
  8
L-1-1
 10
217.05
 20
137.41
 11
227.29
 21
147.43
  0
LINE
  8
L-1-1
 10
272.84
 20
137.41
 11
262.59
 21
147.43
  0
LINE
  8
L-1-1
 10
274.27
 20
137.41
 11
263.01
 21
148.43
  0
LINE
  8
L-1-1
 10
275.45
 20
137.41
 11
286.83
 21
148.54
  0
LINE
  8
L-1-1
 10
276.88
 20
137.41
 11
287.24
 21
147.55
  0
LINE
  8
L-1-1
 10
320.53
 20
149.74
 11
333.02
 21
137.41
  0
LINE
  8
L-1-1
 10
321.96
 20
149.74
 11
334.44
 21
137.41
  0
LINE
  8
L-1-1
 10
140.94
 20
149.74
 11
155.53
 21
149.74
  0
LINE
  8
L-1-1
 10
155.44
 20
149.74
 11
170.53
 21
149.74
  0
LINE
  8
L-1-1
 10
170.44
 20
149.74
 11
184.94
 21
149.74
  0
LINE
  8
L-1-1
 10
184.94
 20
149.74
 11
197.86
 21
149.74
  0
LINE
  8
L-1-1
 10
203.55
 20
149.74
 11
229.53
 21
149.74
  0
LINE
  8
L-1-1
 10
232.03
 20
149.74
 11
244.94
 21
149.74
  0
LINE
  8
L-1-1
 10
263.55
 20
149.74
 11
286.33
 21
149.74
  0
LINE
  8
L-1-1
 10
292.03
 20
149.74
 11
304.94
 21
149.74
  0
LINE
  8
L-1-1
 10
304.94
 20
149.74
 11
334.44
 21
149.74
  0
LINE
  8
L-1-1
 10
347.44
 20
149.74
 11
348.94
 21
149.74
  0
LINE
  8
L-1-1
 10
347.61
 20
141.57
 11
347.61
 21
149.74
  0
LINE
  8
L-1-1
 10
334.36
 20
149.74
 11
347.61
 21
149.74
  0
LINE
  8
L-1-1
 10
304.94
 20
150.57
 11
304.94
 21
149.74
  0
LINE
  8
L-1-1
 10
244.94
 20
149.74
 11
257.86
 21
149.74
  0
LINE
  8
L-1-1
 10
244.94
 20
150.57
 11
244.94
 21
147.41
  0
LINE
  8
L-1-1
 10
197.86
 20
137.41
 11
184.94
 21
137.41
  0
LINE
  8
L-1-1
 10
183.44
 20
139.74
 11
186.44
 21
139.74
  0
LINE
  8
L-1-1
 10
184.94
 20
136.41
 11
184.94
 21
139.74
  0
LINE
  8
L-1-1
 10
229.53
 20
137.41
 11
200.36
 21
137.41
  0
LINE
  8
L-1-1
 10
246.44
 20
149.74
 11
246.44
 21
137.41
  0
LINE
  8
L-1-1
 10
243.44
 20
149.74
 11
243.44
 21
137.41
  0
LINE
  8
L-1-1
 10
246.44
 20
139.74
 11
243.44
 21
139.74
  0
LINE
  8
L-1-1
 10
244.94
 20
136.41
 11
244.94
 21
139.74
  0
LINE
  8
L-1-1
 10
246.44
 20
147.41
 11
243.44
 21
147.41
  0
LINE
  8
L-1-1
 10
256.81
 20
137.41
 11
244.94
 21
137.41
  0
LINE
  8
L-1-1
 10
303.44
 20
149.74
 11
303.44
 21
137.41
  0
LINE
  8
L-1-1
 10
306.44
 20
149.74
 11
306.44
 21
137.41
  0
LINE
  8
L-1-1
 10
303.44
 20
139.74
 11
306.44
 21
139.74
  0
LINE
  8
L-1-1
 10
304.94
 20
136.41
 11
304.94
 21
139.74
  0
LINE
  8
L-1-1
 10
303.44
 20
147.41
 11
306.44
 21
147.41
  0
LINE
  8
L-1-1
 10
304.94
 20
150.57
 11
304.94
 21
147.41
  0
LINE
  8
L-1-1
 10
289.53
 20
137.41
 11
260.36
 21
137.41
  0
LINE
  8
L-1-1
 10
350.44
 20
139.74
 11
347.61
 21
139.74
  0
LINE
  8
L-1-1
 10
139.44
 20
139.74
 11
142.28
 21
139.74
  0
LINE
  8
L-1-1
 10
348.94
 20
150.74
 11
292.03
 21
150.74
  0
LINE
  8
L-1-1
 10
184.94
 20
150.57
 11
184.94
 21
151.91
  0
LINE
  8
L-1-1
 10
244.94
 20
151.91
 11
244.94
 21
150.57
  0
LINE
  8
L-1-1
 10
304.94
 20
151.91
 11
304.94
 21
150.57
  0
LINE
  8
L-1-1
 10
200.36
 20
141.57
 11
200.36
 21
150.57
  0
LINE
  8
L-1-1
 10
229.53
 20
141.57
 11
229.53
 21
150.57
  0
LINE
  8
L-1-1
 10
260.36
 20
141.57
 11
260.36
 21
150.57
  0
LINE
  8
L-1-1
 10
289.53
 20
141.57
 11
289.53
 21
150.57
  0
LINE
  8
L-1-1
 10
303.44
 20
141.57
 11
303.44
 21
149.74
  0
LINE
  8
L-1-1
 10
306.44
 20
141.57
 11
306.44
 21
150.74
  0
LINE
  8
L-1-1
 10
197.86
 20
150.74
 11
140.94
 21
150.74
  0
LINE
  8
L-1-1
 10
244.94
 20
150.74
 11
203.97
 21
150.74
  0
LINE
  8
L-1-1
 10
289.53
 20
150.74
 11
260.36
 21
150.74
  0
LINE
  8
L-1-1
 10
348.94
 20
151.91
 11
348.94
 21
150.74
  0
LINE
  8
L-1-1
 10
257.86
 20
150.74
 11
244.94
 21
150.74
  0
LINE
  8
L-1-1
 10
309.88
 20
145.24
 11
309.88
 21
150.91
  0
LINE
  8
L-1-1
 10
309.04
 20
148.07
 11
309.04
 21
149.74
  0
LINE
  8
L-1-1
 10
310.71
 20
148.07
 11
310.71
 21
149.74
  0
ARC
  8
L-1-1
 10
309.88
 20
148.07
 40
0.83
 50
180.00
 51
0.00
  0
LINE
  8
L-1-1
 10
126.11
 20
118.54
 11
128.44
 21
118.54
  0
LINE
  8
L-1-1
 10
126.11
 20
119.87
 11
126.11
 21
118.54
  0
LINE
  8
L-1-1
 10
128.44
 20
119.87
 11
126.11
 21
119.87
  0
LINE
  8
L-1-1
 10
128.44
 20
167.54
 11
126.11
 21
167.54
  0
LINE
  8
L-1-1
 10
126.11
 20
166.21
 11
128.44
 21
166.21
  0
LINE
  8
L-1-1
 10
126.11
 20
167.54
 11
126.11
 21
166.21
  0
LINE
  8
L-1-1
 10
126.11
 20
213.87
 11
128.44
 21
213.87
  0
LINE
  8
L-1-1
 10
126.11
 20
215.21
 11
126.11
 21
213.87
  0
LINE
  8
L-1-1
 10
128.44
 20
215.21
 11
126.11
 21
215.21
  0
LINE
  8
L-1-1
 10
128.44
 20
262.87
 11
126.11
 21
262.87
  0
LINE
  8
L-1-1
 10
126.11
 20
261.54
 11
128.44
 21
261.54
  0
LINE
  8
L-1-1
 10
126.11
 20
262.87
 11
126.11
 21
261.54
  0
LINE
  8
L-1-1
 10
126.11
 20
309.21
 11
128.44
 21
309.21
  0
LINE
  8
L-1-1
 10
126.11
 20
310.54
 11
126.11
 21
309.21
  0
LINE
  8
L-1-1
 10
128.44
 20
310.54
 11
126.11
 21
310.54
  0
LINE
  8
L-1-1
 10
304.61
 20
192.07
 11
304.61
 21
192.63
  0
LINE
  8
L-1-1
 10
185.28
 20
192.07
 11
185.28
 21
192.63
  0
LINE
  8
L-1-1
 10
145.94
 20
181.17
 11
181.28
 21
181.17
  0
LINE
  8
L-1-1
 10
145.94
 20
182.07
 11
181.28
 21
182.07
  0
LINE
  8
L-1-1
 10
171.19
 20
150.74
 11
171.19
 21
181.17
  0
LINE
  8
L-1-1
 10
172.10
 20
150.74
 11
172.10
 21
181.17
  0
LINE
  8
L-1-1
 10
171.19
 20
167.07
 11
143.18
 21
167.07
  0
LINE
  8
L-1-1
 10
157.36
 20
167.07
 11
157.36
 21
155.41
  0
LINE
  8
L-1-1
 10
156.78
 20
155.41
 11
156.78
 21
167.07
  0
LINE
  8
L-1-1
 10
143.18
 20
167.80
 11
171.19
 21
167.80
  0
LINE
  8
L-1-1
 10
183.70
 20
155.41
 11
143.18
 21
155.41
  0
ARC
  8
L-1-1
 10
145.94
 20
178.41
 40
2.76
 50
90.00
 51
180.00
  0
ARC
  8
L-1-1
 10
145.94
 20
178.41
 40
3.67
 50
90.00
 51
180.00
  0
LINE
  8
L-1-1
 10
143.18
 20
150.74
 11
143.18
 21
178.41
  0
LINE
  8
L-1-1
 10
142.28
 20
150.74
 11
142.28
 21
178.41
  0
LINE
  8
L-1-1
 10
183.70
 20
152.07
 11
172.10
 21
152.07
  0
LINE
  8
L-1-1
 10
171.19
 20
152.07
 11
143.18
 21
152.07
  0
LINE
  8
L-1-1
 10
246.94
 20
181.15
 11
247.44
 21
181.65
  0
LINE
  8
L-1-1
 10
246.94
 20
181.15
 11
242.94
 21
181.15
  0
LINE
  8
L-1-1
 10
242.44
 20
182.32
 11
242.44
 21
181.65
  0
LINE
  8
L-1-1
 10
242.94
 20
181.15
 11
242.44
 21
181.65
  0
LINE
  8
L-1-1
 10
246.38
 20
182.24
 11
246.38
 21
182.32
  0
LINE
  8
L-1-1
 10
242.44
 20
182.32
 11
246.38
 21
182.32
  0
LINE
  8
L-1-1
 10
247.44
 20
181.65
 11
247.44
 21
182.17
  0
LINE
  8
L-1-1
 10
247.44
 20
182.17
 11
247.38
 21
182.24
  0
LINE
  8
L-1-1
 10
247.38
 20
182.24
 11
246.38
 21
182.24
  0
LINE
  8
L-1-1
 10
353.58
 20
169.99
 11
353.58
 21
150.74
  0
LINE
  8
L-1-1
 10
358.61
 20
170.09
 11
358.61
 21
150.74
  0
LINE
  8
L-1-1
 10
358.41
 20
129.46
 11
358.41
 21
136.41
  0
LINE
  8
L-1-1
 10
358.61
 20
170.09
 11
358.41
 21
170.09
  0
LINE
  8
L-1-1
 10
358.61
 20
129.46
 11
358.41
 21
129.46
  0
LINE
  8
L-1-1
 10
356.76
 20
166.54
 11
355.46
 21
166.54
  0
LINE
  8
L-1-1
 10
355.46
 20
164.04
 11
356.76
 21
164.04
  0
CIRCLE
  8
L-1-1
 10
356.11
 20
147.49
 40
0.42
  0
CIRCLE
  8
L-1-1
 10
356.11
 20
139.74
 40
0.42
  0
CIRCLE
  8
L-1-1
 10
356.18
 20
130.96
 40
0.73
  0
CIRCLE
  8
L-1-1
 10
356.18
 20
130.96
 40
0.34
  0
CIRCLE
  8
L-1-1
 10
356.04
 20
168.62
 40
0.73
  0
LINE
  8
L-1-1
 10
351.41
 20
170.29
 11
358.41
 21
170.29
  0
LINE
  8
L-1-1
 10
351.41
 20
169.99
 11
358.41
 21
169.99
  0
LINE
  8
L-1-1
 10
351.41
 20
170.29
 11
351.41
 21
169.69
  0
LINE
  8
L-1-1
 10
358.41
 20
170.29
 11
358.41
 21
169.99
  0
LINE
  8
L-1-1
 10
350.58
 20
129.59
 11
358.41
 21
129.59
  0
LINE
  8
L-1-1
 10
350.58
 20
129.29
 11
358.41
 21
129.29
  0
LINE
  8
L-1-1
 10
350.58
 20
129.59
 11
350.58
 21
129.09
  0
LINE
  8
L-1-1
 10
358.41
 20
129.59
 11
358.41
 21
129.29
  0
LINE
  8
L-1-1
 10
355.46
 20
166.54
 11
355.46
 21
164.04
  0
LINE
  8
L-1-1
 10
355.46
 20
166.54
 11
355.66
 21
166.54
  0
LINE
  8
L-1-1
 10
355.46
 20
164.04
 11
355.66
 21
164.04
  0
LINE
  8
L-1-1
 10
356.76
 20
166.54
 11
356.76
 21
164.04
  0
LINE
  8
L-1-1
 10
356.56
 20
164.04
 11
356.76
 21
164.04
  0
LINE
  8
L-1-1
 10
356.56
 20
166.54
 11
356.76
 21
166.54
  0
LINE
  8
L-1-1
 10
353.58
 20
161.62
 11
353.14
 21
161.62
  0
LINE
  8
L-1-1
 10
353.14
 20
161.62
 11
353.14
 21
150.74
  0
LINE
  8
L-1-1
 10
357.14
 20
133.04
 11
357.14
 21
135.54
  0
LINE
  8
L-1-1
 10
355.08
 20
135.54
 11
355.08
 21
133.04
  0
CIRCLE
  8
L-1-1
 10
356.11
 20
134.29
 40
0.34
  0
LINE
  8
L-1-1
 10
355.08
 20
135.74
 11
357.14
 21
135.74
  0
LINE
  8
L-1-1
 10
357.14
 20
135.54
 11
357.14
 21
135.74
  0
LINE
  8
L-1-1
 10
355.08
 20
135.54
 11
355.08
 21
135.74
  0
LINE
  8
L-1-1
 10
355.08
 20
132.84
 11
357.14
 21
132.84
  0
LINE
  8
L-1-1
 10
357.14
 20
133.04
 11
357.14
 21
132.84
  0
LINE
  8
L-1-1
 10
355.08
 20
133.04
 11
355.08
 21
132.84
  0
LINE
  8
L-1-1
 10
353.14
 20
135.12
 11
353.58
 21
135.12
  0
LINE
  8
L-1-1
 10
353.14
 20
161.17
 11
350.21
 21
161.17
  0
LINE
  8
L-1-1
 10
352.48
 20
162.46
 11
350.54
 21
162.46
  0
LINE
  8
L-1-1
 10
351.68
 20
151.16
 11
350.14
 21
151.16
  0
LINE
  8
L-1-1
 10
349.81
 20
151.49
 11
349.81
 21
156.95
  0
LINE
  8
L-1-1
 10
349.81
 20
152.95
 11
348.48
 21
152.95
  0
LINE
  8
L-1-1
 10
353.14
 20
160.12
 11
353.14
 21
161.17
  0
LINE
  8
L-1-1
 10
353.14
 20
150.79
 11
353.14
 21
150.74
  0
LINE
  8
L-1-1
 10
352.81
 20
161.17
 11
352.81
 21
162.12
  0
LINE
  8
L-1-1
 10
350.21
 20
161.17
 11
350.21
 21
162.12
  0
LINE
  8
L-1-1
 10
350.21
 20
161.17
 11
348.51
 21
161.01
  0
ARC
  8
L-1-1
 10
352.48
 20
162.12
 40
0.33
 50
0.00
 51
90.00
  0
ARC
  8
L-1-1
 10
350.54
 20
162.12
 40
0.33
 50
90.00
 51
180.00
  0
LINE
  8
L-1-1
 10
352.44
 20
150.74
 11
352.44
 21
161.17
  0
ARC
  8
L-1-1
 10
350.14
 20
151.49
 40
0.33
 50
180.00
 51
270.00
  0
ARC
  8
L-1-1
 10
351.68
 20
150.66
 40
0.50
 50
9.59
 51
90.00
  0
LINE
  8
L-1-1
 10
353.14
 20
150.79
 11
353.14
 21
160.12
  0
LINE
  8
L-1-1
 10
353.14
 20
136.29
 11
353.14
 21
136.41
  0
LINE
  8
L-1-1
 10
353.14
 20
136.41
 11
353.14
 21
135.12
  0
LINE
  8
L-1-1
 10
358.41
 20
150.74
 11
358.41
 21
170.09
  0
LINE
  8
L-1-1
 10
358.61
 20
136.41
 11
358.61
 21
129.46
  0
LINE
  8
L-1-1
 10
353.58
 20
136.41
 11
353.58
 21
129.59
  0
LINE
  8
L-1-1
 10
353.14
 20
135.12
 11
352.48
 21
135.12
  0
LINE
  8
L-1-1
 10
352.19
 20
136.41
 11
352.48
 21
136.12
  0
LINE
  8
L-1-1
 10
348.94
 20
139.74
 11
348.94
 21
136.41
  0
LINE
  8
L-1-1
 10
330.21
 20
137.41
 11
330.21
 21
140.18
  0
ARC
  8
L-1-1
 10
330.54
 20
144.32
 40
0.33
 50
90.00
 51
180.00
  0
LINE
  8
L-1-1
 10
335.47
 20
137.44
 11
335.44
 21
137.44
  0
LINE
  8
L-1-1
 10
334.44
 20
144.66
 11
330.54
 21
144.66
  0
LINE
  8
L-1-1
 10
330.21
 20
141.59
 11
330.21
 21
144.32
  0
LINE
  8
L-1-1
 10
352.48
 20
136.41
 11
352.48
 21
135.12
  0
LINE
  8
L-1-1
 10
351.58
 20
127.79
 11
352.91
 21
127.79
  0
LINE
  8
L-1-1
 10
352.24
 20
130.19
 11
352.24
 21
126.95
  0
LINE
  8
L-1-1
 10
351.41
 20
127.96
 11
351.41
 21
129.09
  0
LINE
  8
L-1-1
 10
353.08
 20
127.96
 11
353.08
 21
129.09
  0
LINE
  8
L-1-1
 10
350.58
 20
129.09
 11
353.91
 21
129.09
  0
LINE
  8
L-1-1
 10
353.91
 20
129.29
 11
353.91
 21
129.09
  0
ARC
  8
L-1-1
 10
352.91
 20
127.96
 40
0.17
 50
270.00
 51
0.00
  0
ARC
  8
L-1-1
 10
351.58
 20
127.96
 40
0.17
 50
180.00
 51
270.00
  0
LINE
  8
L-1-1
 10
351.41
 20
169.69
 11
353.28
 21
169.69
  0
LINE
  8
L-1-1
 10
353.28
 20
165.69
 11
353.58
 21
165.69
  0
LINE
  8
L-1-1
 10
353.28
 20
169.69
 11
353.28
 21
165.69
  0
LINE
  8
L-1-1
 10
352.11
 20
169.69
 11
352.11
 21
166.02
  0
LINE
  8
L-1-1
 10
349.54
 20
167.69
 11
354.75
 21
167.69
  0
LINE
  8
L-1-1
 10
352.11
 20
166.02
 11
353.28
 21
166.02
  0
LINE
  8
L-1-1
 10
352.11
 20
167.02
 11
350.11
 21
167.02
  0
LINE
  8
L-1-1
 10
352.11
 20
168.36
 11
350.11
 21
168.36
  0
LINE
  8
L-1-1
 10
350.11
 20
177.69
 11
350.11
 21
167.02
  0
LINE
  8
L-1-1
 10
350.44
 20
177.69
 11
350.44
 21
168.36
  0
LINE
  8
L-1-1
 10
350.11
 20
177.69
 11
350.44
 21
177.69
  0
LINE
  8
L-1-1
 10
361.11
 20
162.16
 11
361.11
 21
164.49
  0
LINE
  8
L-1-1
 10
358.61
 20
169.16
 11
360.61
 21
169.16
  0
LINE
  8
L-1-1
 10
358.61
 20
165.82
 11
360.61
 21
165.82
  0
LINE
  8
L-1-1
 10
360.61
 20
164.99
 11
358.61
 21
164.99
  0
LINE
  8
L-1-1
 10
360.61
 20
161.66
 11
358.61
 21
161.66
  0
LINE
  8
L-1-1
 10
361.11
 20
166.32
 11
361.11
 21
168.66
  0
ARC
  8
L-1-1
 10
360.61
 20
162.16
 40
0.50
 50
270.00
 51
0.00
  0
ARC
  8
L-1-1
 10
360.61
 20
164.49
 40
0.50
 50
0.00
 51
90.00
  0
ARC
  8
L-1-1
 10
360.61
 20
166.32
 40
0.50
 50
270.00
 51
0.00
  0
ARC
  8
L-1-1
 10
360.61
 20
168.66
 40
0.50
 50
0.00
 51
90.00
  0
LINE
  8
L-1-1
 10
139.31
 20
129.59
 11
131.48
 21
129.59
  0
LINE
  8
L-1-1
 10
139.31
 20
129.29
 11
131.48
 21
129.29
  0
LINE
  8
L-1-1
 10
139.31
 20
129.59
 11
139.31
 21
129.09
  0
LINE
  8
L-1-1
 10
139.31
 20
129.09
 11
135.98
 21
129.09
  0
LINE
  8
L-1-1
 10
136.81
 20
127.96
 11
136.81
 21
129.09
  0
ARC
  8
L-1-1
 10
136.98
 20
127.96
 40
0.17
 50
180.00
 51
270.00
  0
LINE
  8
L-1-1
 10
137.64
 20
130.19
 11
137.64
 21
126.95
  0
LINE
  8
L-1-1
 10
138.31
 20
127.79
 11
136.98
 21
127.79
  0
LINE
  8
L-1-1
 10
138.48
 20
127.96
 11
138.48
 21
129.09
  0
ARC
  8
L-1-1
 10
138.31
 20
127.96
 40
0.17
 50
270.00
 51
0.00
  0
LINE
  8
L-1-1
 10
140.94
 20
139.74
 11
140.94
 21
136.41
  0
LINE
  8
L-1-1
 10
366.61
 20
116.57
 11
366.61
 21
116.77
  0
LINE
  8
L-1-1
 10
363.28
 20
116.77
 11
366.61
 21
116.77
  0
LINE
  8
L-1-1
 10
363.28
 20
116.77
 11
363.28
 21
116.57
  0
LINE
  8
L-1-1
 10
364.13
 20
116.77
 11
364.13
 21
316.30
  0
CIRCLE
  8
L-1-1
 10
364.94
 20
119.21
 40
0.81
  0
CIRCLE
  8
L-1-1
 10
364.94
 20
166.87
 40
0.81
  0
CIRCLE
  8
L-1-1
 10
364.94
 20
214.54
 40
0.81
  0
CIRCLE
  8
L-1-1
 10
364.94
 20
262.21
 40
0.81
  0
CIRCLE
  8
L-1-1
 10
364.94
 20
309.87
 40
0.81
  0
LINE
  8
L-1-1
 10
365.75
 20
116.77
 11
365.75
 21
316.30
  0
LINE
  8
L-1-1
 10
364.94
 20
116.06
 11
364.94
 21
316.30
  0
LINE
  8
L-1-1
 10
426.61
 20
116.57
 11
426.61
 21
116.77
  0
LINE
  8
L-1-1
 10
423.28
 20
116.77
 11
426.61
 21
116.77
  0
LINE
  8
L-1-1
 10
423.28
 20
116.77
 11
423.28
 21
116.57
  0
LINE
  8
L-1-1
 10
424.13
 20
116.77
 11
424.13
 21
316.30
  0
CIRCLE
  8
L-1-1
 10
424.94
 20
119.21
 40
0.81
  0
CIRCLE
  8
L-1-1
 10
424.94
 20
166.87
 40
0.81
  0
CIRCLE
  8
L-1-1
 10
424.94
 20
214.54
 40
0.81
  0
CIRCLE
  8
L-1-1
 10
424.94
 20
262.21
 40
0.81
  0
CIRCLE
  8
L-1-1
 10
424.94
 20
309.87
 40
0.81
  0
LINE
  8
L-1-1
 10
425.75
 20
116.77
 11
425.75
 21
316.30
  0
LINE
  8
L-1-1
 10
424.94
 20
116.06
 11
424.94
 21
316.30
  0
LINE
  8
L-1-1
 10
424.94
 20
126.57
 11
364.94
 21
166.57
  0
LINE
  8
L-1-1
 10
364.94
 20
126.57
 11
424.94
 21
166.57
  0
LINE
  8
L-1-1
 10
364.94
 20
176.57
 11
424.94
 21
176.57
  0
LINE
  8
L-1-1
 10
424.94
 20
186.57
 11
364.94
 21
226.57
  0
LINE
  8
L-1-1
 10
424.94
 20
226.57
 11
364.94
 21
186.57
  0
LINE
  8
L-1-1
 10
424.94
 20
236.57
 11
364.94
 21
236.57
  0
LINE
  8
L-1-1
 10
424.94
 20
246.57
 11
364.94
 21
286.57
  0
LINE
  8
L-1-1
 10
364.94
 20
246.57
 11
424.94
 21
286.57
  0
LINE
  8
L-1-1
 10
424.94
 20
296.57
 11
364.94
 21
296.57
  0
CIRCLE
  8
L-1-1
 10
364.94
 20
277.54
 40
0.81
  0
ARC
  8
L-1-1
 10
355.11
 20
147.41
 40
1.20
 50
90.00
 51
270.00
  0
LINE
  8
L-1-1
 10
357.11
 20
148.61
 11
355.11
 21
148.61
  0
ARC
  8
L-1-1
 10
357.11
 20
147.41
 40
1.20
 50
270.00
 51
90.00
  0
LINE
  8
L-1-1
 10
357.11
 20
146.21
 11
355.11
 21
146.21
  0
LINE
  8
L-1-1
 10
359.11
 20
136.91
 11
359.11
 21
150.24
  0
LINE
  8
L-1-1
 10
359.61
 20
136.41
 11
359.61
 21
150.74
  0
LINE
  8
L-1-1
 10
359.11
 20
149.74
 11
359.61
 21
149.74
  0
LINE
  8
L-1-1
 10
359.11
 20
150.24
 11
353.11
 21
150.24
  0
LINE
  8
L-1-1
 10
348.94
 20
150.74
 11
359.61
 21
150.74
  0
LINE
  8
L-1-1
 10
348.94
 20
149.74
 11
353.11
 21
149.74
  0
LINE
  8
L-1-1
 10
352.61
 20
137.41
 11
352.61
 21
149.74
  0
LINE
  8
L-1-1
 10
348.94
 20
147.57
 11
350.44
 21
147.57
  0
LINE
  8
L-1-1
 10
353.11
 20
136.91
 11
353.11
 21
150.24
  0
LINE
  8
L-1-1
 10
347.61
 20
137.41
 11
353.11
 21
137.41
  0
LINE
  8
L-1-1
 10
347.61
 20
136.41
 11
359.61
 21
136.41
  0
LINE
  8
L-1-1
 10
353.11
 20
136.91
 11
359.11
 21
136.91
  0
LINE
  8
L-1-1
 10
359.11
 20
137.41
 11
359.61
 21
137.41
  0
ARC
  8
L-1-1
 10
356.78
 20
139.74
 40
1.03
 50
270.00
 51
90.00
  0
LINE
  8
L-1-1
 10
355.44
 20
138.71
 11
356.78
 21
138.71
  0
ARC
  8
L-1-1
 10
355.44
 20
139.74
 40
1.03
 50
90.00
 51
270.00
  0
LINE
  8
L-1-1
 10
355.44
 20
140.77
 11
356.78
 21
140.77
  0
LINE
  8
L-1-1
 10
348.94
 20
150.74
 11
348.94
 21
147.57
  0
LINE
  8
L-1-1
 10
350.44
 20
149.74
 11
350.44
 21
137.41
  0
LINE
  8
L-1-1
 10
139.44
 20
137.41
 11
136.78
 21
137.41
  0
LINE
  8
L-1-1
 10
142.28
 20
136.41
 11
130.28
 21
136.41
  0
LINE
  8
L-1-1
 10
354.86
 20
215.54
 11
354.86
 21
170.29
  0
LINE
  8
L-1-1
 10
361.24
 20
213.87
 11
357.36
 21
213.04
  0
LINE
  8
L-1-1
 10
361.44
 20
215.14
 11
361.44
 21
213.87
  0
LINE
  8
L-1-1
 10
361.44
 20
213.87
 11
361.24
 21
213.87
  0
LINE
  8
L-1-1
 10
360.86
 20
214.54
 11
366.28
 21
214.54
  0
ARC
  8
L-1-1
 10
361.04
 20
215.14
 40
0.40
 50
0.00
 51
90.00
  0
LINE
  8
L-1-1
 10
357.36
 20
215.54
 11
357.36
 21
170.29
  0
LINE
  8
L-1-1
 10
361.24
 20
169.54
 11
358.61
 21
170.11
  0
LINE
  8
L-1-1
 10
361.44
 20
168.27
 11
361.44
 21
169.54
  0
LINE
  8
L-1-1
 10
361.44
 20
169.54
 11
361.24
 21
169.54
  0
ARC
  8
L-1-1
 10
361.04
 20
168.27
 40
0.40
 50
270.00
 51
0.00
  0
ARC
  8
L-1-1
 10
361.04
 20
120.61
 40
0.40
 50
270.00
 51
0.00
  0
LINE
  8
L-1-1
 10
361.44
 20
120.61
 11
361.44
 21
121.87
  0
LINE
  8
L-1-1
 10
360.86
 20
121.21
 11
361.78
 21
121.21
  0
LINE
  8
L-1-1
 10
361.44
 20
121.87
 11
361.24
 21
121.87
  0
LINE
  8
L-1-1
 10
361.24
 20
121.87
 11
357.36
 21
122.71
  0
LINE
  8
L-1-1
 10
357.36
 20
129.29
 11
357.36
 21
120.21
  0
LINE
  8
L-1-1
 10
357.19
 20
129.29
 11
357.19
 21
120.21
  0
LINE
  8
L-1-1
 10
355.03
 20
129.29
 11
355.03
 21
120.21
  0
LINE
  8
L-1-1
 10
354.86
 20
129.29
 11
354.86
 21
120.21
  0
LINE
  8
L-1-1
 10
360.86
 20
168.87
 11
361.78
 21
168.87
  0
LINE
  8
L-1-1
 10
358.61
 20
167.87
 11
361.04
 21
167.87
  0
ARC
  8
L-1-1
 10
361.04
 20
167.47
 40
0.40
 50
0.00
 51
90.00
  0
LINE
  8
L-1-1
 10
361.44
 20
167.47
 11
361.44
 21
166.21
  0
LINE
  8
L-1-1
 10
361.44
 20
166.21
 11
361.24
 21
166.21
  0
LINE
  8
L-1-1
 10
361.24
 20
166.21
 11
358.61
 21
165.64
  0
LINE
  8
L-1-1
 10
352.24
 20
164.40
 11
353.58
 21
164.40
  0
LINE
  8
L-1-1
 10
351.30
 20
169.57
 11
352.24
 21
164.40
  0
LINE
  8
L-1-1
 10
349.47
 20
170.44
 11
348.51
 21
168.54
  0
LINE
  8
L-1-1
 10
349.47
 20
170.44
 11
353.58
 21
170.44
  0
LINE
  8
L-1-1
 10
348.51
 20
153.10
 11
353.58
 21
153.10
  0
LINE
  8
L-1-1
 10
351.30
 20
170.40
 11
351.30
 21
169.57
  0
LINE
  8
L-1-1
 10
351.41
 20
169.56
 11
351.41
 21
169.99
  0
LINE
  8
L-1-1
 10
351.30
 20
169.56
 11
351.41
 21
169.56
  0
LINE
  8
L-1-1
 10
353.88
 20
170.40
 11
351.31
 21
170.40
  0
LINE
  8
L-1-1
 10
353.58
 20
170.44
 11
353.58
 21
170.40
  0
LINE
  8
L-1-1
 10
353.88
 20
170.29
 11
353.88
 21
170.40
  0
LINE
  8
L-1-1
 10
360.78
 20
116.57
 11
351.44
 21
116.57
  0
LINE
  8
L-1-1
 10
351.44
 20
116.57
 11
351.44
 21
116.87
  0
LINE
  8
L-1-1
 10
351.44
 20
116.87
 11
360.78
 21
116.87
  0
LINE
  8
L-1-1
 10
360.78
 20
116.87
 11
360.78
 21
116.57
  0
LINE
  8
L-1-1
 10
357.36
 20
120.21
 11
357.36
 21
116.87
  0
LINE
  8
L-1-1
 10
357.19
 20
120.21
 11
357.19
 21
116.87
  0
LINE
  8
L-1-1
 10
355.03
 20
120.21
 11
355.03
 21
116.87
  0
LINE
  8
L-1-1
 10
354.86
 20
120.21
 11
354.86
 21
116.87
  0
LINE
  8
L-1-1
 10
354.86
 20
120.21
 11
361.44
 21
120.21
  0
LINE
  8
L-1-1
 10
357.36
 20
118.54
 11
361.44
 21
118.54
  0
LINE
  8
L-1-1
 10
360.48
 20
119.21
 11
366.28
 21
119.21
  0
LINE
  8
L-1-1
 10
361.44
 20
120.21
 11
361.44
 21
118.54
  0
LINE
  8
L-1-1
 10
359.44
 20
117.48
 11
359.44
 21
113.19
  0
LINE
  8
L-1-1
 10
352.78
 20
113.19
 11
352.78
 21
117.48
  0
LINE
  8
L-1-1
 10
360.48
 20
166.87
 11
366.28
 21
166.87
  0
LINE
  8
L-1-1
 10
361.80
 20
117.87
 11
361.80
 21
118.54
  0
LINE
  8
L-1-1
 10
361.80
 20
117.87
 11
363.42
 21
117.87
  0
LINE
  8
L-1-1
 10
363.42
 20
117.87
 11
363.42
 21
118.54
  0
LINE
  8
L-1-1
 10
363.42
 20
119.87
 11
363.42
 21
166.21
  0
LINE
  8
L-1-1
 10
361.80
 20
119.87
 11
361.80
 21
166.21
  0
LINE
  8
L-1-1
 10
361.80
 20
167.54
 11
361.80
 21
213.87
  0
LINE
  8
L-1-1
 10
363.42
 20
167.54
 11
363.42
 21
213.87
  0
LINE
  8
L-1-1
 10
362.61
 20
116.57
 11
362.61
 21
316.30
  0
LINE
  8
L-1-1
 10
361.80
 20
215.21
 11
361.80
 21
261.54
  0
LINE
  8
L-1-1
 10
363.42
 20
215.21
 11
363.42
 21
261.54
  0
LINE
  8
L-1-1
 10
361.80
 20
262.87
 11
361.80
 21
309.21
  0
LINE
  8
L-1-1
 10
363.42
 20
262.87
 11
363.42
 21
309.21
  0
LINE
  8
L-1-1
 10
361.80
 20
310.54
 11
361.80
 21
312.21
  0
LINE
  8
L-1-1
 10
361.80
 20
312.21
 11
363.42
 21
312.21
  0
LINE
  8
L-1-1
 10
363.42
 20
310.54
 11
363.42
 21
312.21
  0
LINE
  8
L-1-1
 10
363.78
 20
118.54
 11
361.44
 21
118.54
  0
LINE
  8
L-1-1
 10
363.78
 20
119.87
 11
363.78
 21
118.54
  0
LINE
  8
L-1-1
 10
361.44
 20
119.87
 11
363.78
 21
119.87
  0
LINE
  8
L-1-1
 10
361.44
 20
167.54
 11
363.78
 21
167.54
  0
LINE
  8
L-1-1
 10
363.78
 20
166.21
 11
361.44
 21
166.21
  0
LINE
  8
L-1-1
 10
363.78
 20
167.54
 11
363.78
 21
166.21
  0
LINE
  8
L-1-1
 10
361.04
 20
215.54
 11
354.86
 21
215.54
  0
LINE
  8
L-1-1
 10
357.36
 20
263.21
 11
357.36
 21
215.54
  0
LINE
  8
L-1-1
 10
354.86
 20
263.21
 11
354.86
 21
215.54
  0
ARC
  8
L-1-1
 10
361.04
 20
215.94
 40
0.40
 50
270.00
 51
0.00
  0
LINE
  8
L-1-1
 10
361.44
 20
215.94
 11
361.44
 21
217.21
  0
LINE
  8
L-1-1
 10
360.86
 20
216.54
 11
361.78
 21
216.54
  0
LINE
  8
L-1-1
 10
361.24
 20
217.21
 11
357.36
 21
218.04
  0
LINE
  8
L-1-1
 10
361.44
 20
217.21
 11
361.24
 21
217.21
  0
LINE
  8
L-1-1
 10
361.04
 20
263.21
 11
354.86
 21
263.21
  0
ARC
  8
L-1-1
 10
361.04
 20
262.81
 40
0.40
 50
0.00
 51
90.00
  0
LINE
  8
L-1-1
 10
361.44
 20
262.81
 11
361.44
 21
261.54
  0
LINE
  8
L-1-1
 10
361.24
 20
261.54
 11
357.36
 21
260.71
  0
LINE
  8
L-1-1
 10
361.44
 20
261.54
 11
361.24
 21
261.54
  0
LINE
  8
L-1-1
 10
363.78
 20
213.87
 11
361.44
 21
213.87
  0
LINE
  8
L-1-1
 10
363.78
 20
215.21
 11
363.78
 21
213.87
  0
LINE
  8
L-1-1
 10
361.44
 20
215.21
 11
363.78
 21
215.21
  0
LINE
  8
L-1-1
 10
361.04
 20
263.21
 11
354.86
 21
263.21
  0
ARC
  8
L-1-1
 10
361.04
 20
263.61
 40
0.40
 50
270.00
 51
0.00
  0
LINE
  8
L-1-1
 10
361.44
 20
263.61
 11
361.44
 21
264.87
  0
LINE
  8
L-1-1
 10
360.86
 20
264.21
 11
361.78
 21
264.21
  0
LINE
  8
L-1-1
 10
361.24
 20
264.87
 11
357.36
 21
265.71
  0
LINE
  8
L-1-1
 10
361.44
 20
264.87
 11
361.24
 21
264.87
  0
LINE
  8
L-1-1
 10
360.86
 20
262.21
 11
366.02
 21
262.21
  0
LINE
  8
L-1-1
 10
360.86
 20
277.54
 11
366.02
 21
277.54
  0
LINE
  8
L-1-1
 10
357.36
 20
278.54
 11
357.36
 21
273.54
  0
LINE
  8
L-1-1
 10
354.86
 20
278.54
 11
354.86
 21
273.28
  0
LINE
  8
L-1-1
 10
357.36
 20
271.57
 11
357.36
 21
263.21
  0
LINE
  8
L-1-1
 10
354.86
 20
271.38
 11
354.86
 21
263.21
  0
LINE
  8
L-1-1
 10
361.24
 20
276.87
 11
357.36
 21
276.04
  0
ARC
  8
L-1-1
 10
361.04
 20
278.14
 40
0.40
 50
0.00
 51
90.00
  0
LINE
  8
L-1-1
 10
361.44
 20
278.14
 11
361.44
 21
276.87
  0
LINE
  8
L-1-1
 10
361.44
 20
276.87
 11
361.24
 21
276.87
  0
LINE
  8
L-1-1
 10
361.04
 20
278.54
 11
354.86
 21
278.54
  0
LINE
  8
L-1-1
 10
354.86
 20
310.87
 11
354.86
 21
278.54
  0
LINE
  8
L-1-1
 10
357.36
 20
310.87
 11
357.36
 21
278.54
  0
ARC
  8
L-1-1
 10
361.04
 20
278.94
 40
0.40
 50
270.00
 51
0.00
  0
LINE
  8
L-1-1
 10
361.44
 20
278.94
 11
361.44
 21
280.21
  0
LINE
  8
L-1-1
 10
360.86
 20
279.54
 11
361.78
 21
279.54
  0
LINE
  8
L-1-1
 10
361.24
 20
280.21
 11
357.36
 21
281.04
  0
LINE
  8
L-1-1
 10
361.44
 20
280.21
 11
361.24
 21
280.21
  0
LINE
  8
L-1-1
 10
361.04
 20
310.87
 11
354.86
 21
310.87
  0
ARC
  8
L-1-1
 10
361.04
 20
310.47
 40
0.40
 50
0.00
 51
90.00
  0
LINE
  8
L-1-1
 10
361.44
 20
310.47
 11
361.44
 21
309.21
  0
LINE
  8
L-1-1
 10
361.24
 20
309.21
 11
357.36
 21
308.37
  0
LINE
  8
L-1-1
 10
361.44
 20
309.21
 11
361.24
 21
309.21
  0
LINE
  8
L-1-1
 10
360.86
 20
309.87
 11
366.28
 21
309.87
  0
LINE
  8
L-1-1
 10
363.78
 20
309.21
 11
361.44
 21
309.21
  0
LINE
  8
L-1-1
 10
363.78
 20
310.54
 11
363.78
 21
309.21
  0
LINE
  8
L-1-1
 10
361.44
 20
310.54
 11
363.78
 21
310.54
  0
LINE
  8
L-1-1
 10
361.44
 20
262.87
 11
363.78
 21
262.87
  0
LINE
  8
L-1-1
 10
363.78
 20
261.54
 11
361.44
 21
261.54
  0
LINE
  8
L-1-1
 10
363.78
 20
262.87
 11
363.78
 21
261.54
  0
LINE
  8
L-1-1
 10
361.44
 20
278.21
 11
363.78
 21
278.21
  0
LINE
  8
L-1-1
 10
363.78
 20
278.21
 11
363.78
 21
276.87
  0
LINE
  8
L-1-1
 10
363.78
 20
276.87
 11
361.44
 21
276.87
  0
LINE
  8
L-1-1
 10
244.94
 20
331.22
 11
244.94
 21
365.55
  0
LINE
  8
L-1-1
 10
184.94
 20
364.64
 11
184.94
 21
332.12
  0
LINE
  8
L-1-1
 10
304.94
 20
364.64
 11
304.94
 21
332.12
  0
LINE
  8
L-1-1
 10
348.94
 20
331.72
 11
247.44
 21
331.72
  0
LINE
  8
L-1-1
 10
140.94
 20
363.72
 11
308.00
 21
363.72
  0
LINE
  8
L-1-1
 10
140.94
 20
333.05
 11
308.00
 21
333.05
  0
LINE
  8
L-1-1
 10
140.94
 20
365.05
 11
140.94
 21
348.38
  0
LINE
  8
L-1-1
 10
140.94
 20
348.38
 11
140.94
 21
331.72
  0
LINE
  8
L-1-1
 10
348.94
 20
365.05
 11
348.94
 21
348.38
  0
LINE
  8
L-1-1
 10
348.94
 20
348.38
 11
348.94
 21
331.72
  0
LINE
  8
L-1-1
 10
348.94
 20
365.05
 11
247.44
 21
365.05
  0
LINE
  8
L-1-1
 10
140.94
 20
365.05
 11
242.44
 21
365.05
  0
LINE
  8
L-1-1
 10
242.44
 20
331.72
 11
140.94
 21
331.72
  0
LINE
  8
L-1-1
 10
242.44
 20
331.22
 11
242.44
 21
333.05
  0
LINE
  8
L-1-1
 10
247.44
 20
331.22
 11
247.44
 21
333.05
  0
LINE
  8
L-1-1
 10
242.44
 20
331.22
 11
247.44
 21
331.22
  0
LINE
  8
L-1-1
 10
242.44
 20
365.55
 11
247.44
 21
365.55
  0
LINE
  8
L-1-1
 10
242.44
 20
365.55
 11
242.44
 21
363.72
  0
LINE
  8
L-1-1
 10
247.44
 20
365.55
 11
247.44
 21
363.72
  0
LINE
  8
L-1-1
 10
267.66
 20
347.84
 11
267.82
 21
347.69
  0
LINE
  8
L-1-1
 10
256.27
 20
347.69
 11
256.42
 21
347.84
  0
ARC
  8
L-1-1
 10
135.91
 20
356.27
 40
0.20
 50
0.00
 51
90.00
  0
LINE
  8
L-1-1
 10
136.31
 20
341.83
 11
136.31
 21
341.92
  0
LINE
  8
L-1-1
 10
136.11
 20
341.83
 11
136.11
 21
341.92
  0
ARC
  8
L-1-1
 10
135.91
 20
341.83
 40
0.20
 50
270.00
 51
0.00
  0
LINE
  8
L-1-1
 10
135.91
 20
356.47
 11
131.68
 21
356.47
  0
LINE
  8
L-1-1
 10
131.28
 20
357.47
 11
131.28
 21
356.87
  0
ARC
  8
L-1-1
 10
131.68
 20
356.87
 40
0.40
 50
180.00
 51
270.00
  0
LINE
  8
L-1-1
 10
131.28
 20
341.23
 11
131.28
 21
340.63
  0
LINE
  8
L-1-1
 10
135.91
 20
341.63
 11
131.68
 21
341.63
  0
ARC
  8
L-1-1
 10
131.68
 20
341.23
 40
0.40
 50
90.00
 51
180.00
  0
LINE
  8
L-1-1
 10
131.48
 20
357.47
 11
131.28
 21
357.47
  0
LINE
  8
L-1-1
 10
131.48
 20
340.63
 11
131.28
 21
340.63
  0
LINE
  8
L-1-1
 10
133.78
 20
358.17
 11
133.78
 21
340.22
  0
ARC
  8
L-1-1
 10
135.91
 20
356.27
 40
0.40
 50
0.00
 51
90.00
  0
LINE
  8
L-1-1
 10
131.48
 20
340.63
 11
131.48
 21
341.23
  0
LINE
  8
L-1-1
 10
135.91
 20
341.43
 11
131.68
 21
341.43
  0
ARC
  8
L-1-1
 10
131.68
 20
341.23
 40
0.20
 50
90.00
 51
180.00
  0
LINE
  8
L-1-1
 10
135.91
 20
356.67
 11
131.68
 21
356.67
  0
LINE
  8
L-1-1
 10
131.48
 20
357.47
 11
131.48
 21
356.87
  0
ARC
  8
L-1-1
 10
131.68
 20
356.87
 40
0.20
 50
180.00
 51
270.00
  0
ARC
  8
L-1-1
 10
135.91
 20
341.83
 40
0.40
 50
270.00
 51
0.00
  0
LINE
  8
L-1-1
 10
136.31
 20
341.83
 11
136.31
 21
341.92
  0
LINE
  8
L-1-1
 10
131.48
 20
357.47
 11
136.31
 21
358.97
  0
LINE
  8
L-1-1
 10
136.31
 20
339.13
 11
131.48
 21
340.63
  0
ARC
  8
L-1-1
 10
136.81
 20
340.72
 40
1.67
 50
252.69
 51
0.00
  0
ARC
  8
L-1-1
 10
136.81
 20
357.38
 40
1.67
 50
0.00
 51
107.31
  0
LINE
  8
L-1-1
 10
138.48
 20
340.72
 11
138.48
 21
341.42
  0
LINE
  8
L-1-1
 10
244.94
 20
348.38
 11
54.88
 21
348.38
  0
LINE
  8
L-1-1
 10
138.48
 20
355.35
 11
138.48
 21
357.38
  0
LINE
  8
L-1-1
 10
136.11
 20
343.58
 11
136.11
 21
353.18
  0
LINE
  8
L-1-1
 10
136.11
 20
354.85
 11
136.11
 21
356.27
  0
LINE
  8
L-1-1
 10
136.31
 20
354.85
 11
136.31
 21
356.27
  0
LINE
  8
L-1-1
 10
132.03
 20
346.22
 11
135.23
 21
346.22
  0
LINE
  8
L-1-1
 10
135.03
 20
343.72
 11
135.03
 21
346.22
  0
LINE
  8
L-1-1
 10
135.23
 20
343.72
 11
135.23
 21
346.22
  0
LINE
  8
L-1-1
 10
135.03
 20
343.72
 11
135.03
 21
342.38
  0
LINE
  8
L-1-1
 10
134.76
 20
343.31
 11
134.83
 21
342.50
  0
LINE
  8
L-1-1
 10
135.53
 20
345.88
 11
135.53
 21
343.88
  0
LINE
  8
L-1-1
 10
135.53
 20
345.88
 11
135.23
 21
345.88
  0
LINE
  8
L-1-1
 10
135.53
 20
343.88
 11
135.23
 21
343.88
  0
LINE
  8
L-1-1
 10
135.23
 20
343.72
 11
132.33
 21
343.72
  0
LINE
  8
L-1-1
 10
133.05
 20
343.55
 11
134.50
 21
343.55
  0
ARC
  8
L-1-1
 10
134.50
 20
343.28
 40
0.27
 50
5.00
 51
90.00
  0
LINE
  8
L-1-1
 10
134.97
 20
342.38
 11
135.03
 21
342.38
  0
LINE
  8
L-1-1
 10
132.79
 20
343.31
 11
132.72
 21
342.50
  0
ARC
  8
L-1-1
 10
134.97
 20
342.52
 40
0.13
 50
185.00
 51
270.00
  0
ARC
  8
L-1-1
 10
133.05
 20
343.28
 40
0.27
 50
90.00
 51
175.00
  0
ARC
  8
L-1-1
 10
132.59
 20
342.52
 40
0.13
 50
270.00
 51
355.00
  0
LINE
  8
L-1-1
 10
128.44
 20
342.38
 11
132.59
 21
342.38
  0
LINE
  8
L-1-1
 10
132.53
 20
342.38
 11
132.53
 21
343.72
  0
LINE
  8
L-1-1
 10
132.33
 20
343.72
 11
132.33
 21
346.22
  0
LINE
  8
L-1-1
 10
132.53
 20
346.22
 11
132.53
 21
343.72
  0
ARC
  8
L-1-1
 10
132.03
 20
346.55
 40
0.33
 50
180.00
 51
270.00
  0
LINE
  8
L-1-1
 10
131.69
 20
352.72
 11
131.69
 21
346.55
  0
LINE
  8
L-1-1
 10
128.44
 20
342.38
 11
128.44
 21
355.72
  0
LINE
  8
L-1-1
 10
132.59
 20
355.72
 11
128.44
 21
355.72
  0
LINE
  8
L-1-1
 10
132.53
 20
354.38
 11
132.53
 21
355.72
  0
LINE
  8
L-1-1
 10
132.53
 20
354.38
 11
135.03
 21
354.38
  0
LINE
  8
L-1-1
 10
134.69
 20
353.05
 11
132.03
 21
353.05
  0
ARC
  8
L-1-1
 10
132.03
 20
352.72
 40
0.33
 50
90.00
 51
180.00
  0
ARC
  8
L-1-1
 10
134.69
 20
353.38
 40
0.33
 50
270.00
 51
0.00
  0
LINE
  8
L-1-1
 10
135.03
 20
354.38
 11
135.03
 21
353.38
  0
LINE
  8
L-1-1
 10
135.03
 20
355.72
 11
135.03
 21
354.38
  0
LINE
  8
L-1-1
 10
134.76
 20
354.79
 11
134.83
 21
355.59
  0
LINE
  8
L-1-1
 10
135.03
 20
355.72
 11
134.97
 21
355.72
  0
ARC
  8
L-1-1
 10
134.97
 20
355.58
 40
0.13
 50
90.00
 51
175.00
  0
ARC
  8
L-1-1
 10
134.50
 20
354.82
 40
0.27
 50
270.00
 51
355.00
  0
LINE
  8
L-1-1
 10
134.50
 20
354.55
 11
133.05
 21
354.55
  0
ARC
  8
L-1-1
 10
133.05
 20
354.82
 40
0.27
 50
185.00
 51
270.00
  0
LINE
  8
L-1-1
 10
132.79
 20
354.79
 11
132.72
 21
355.59
  0
ARC
  8
L-1-1
 10
132.59
 20
355.58
 40
0.13
 50
5.00
 51
90.00
  0
LINE
  8
L-1-1
 10
135.98
 20
354.85
 11
135.98
 21
353.18
  0
LINE
  8
L-1-1
 10
136.31
 20
353.18
 11
136.31
 21
355.35
  0
LINE
  8
L-1-1
 10
136.31
 20
354.85
 11
135.98
 21
354.85
  0
LINE
  8
L-1-1
 10
135.98
 20
353.18
 11
139.31
 21
353.18
  0
LINE
  8
L-1-1
 10
139.31
 20
343.58
 11
139.31
 21
353.18
  0
LINE
  8
L-1-1
 10
136.31
 20
355.35
 11
140.94
 21
355.35
  0
LINE
  8
L-1-1
 10
135.98
 20
343.58
 11
139.31
 21
343.58
  0
LINE
  8
L-1-1
 10
136.31
 20
343.58
 11
136.31
 21
341.42
  0
LINE
  8
L-1-1
 10
135.98
 20
343.58
 11
135.98
 21
341.92
  0
LINE
  8
L-1-1
 10
136.31
 20
341.42
 11
140.94
 21
341.42
  0
LINE
  8
L-1-1
 10
135.98
 20
341.92
 11
136.31
 21
341.92
  0
ARC
  8
L-1-1
 10
353.98
 20
356.27
 40
0.20
 50
90.00
 51
180.00
  0
LINE
  8
L-1-1
 10
353.78
 20
341.83
 11
353.78
 21
341.92
  0
ARC
  8
L-1-1
 10
353.98
 20
341.83
 40
0.20
 50
180.00
 51
270.00
  0
LINE
  8
L-1-1
 10
353.98
 20
356.47
 11
358.21
 21
356.47
  0
LINE
  8
L-1-1
 10
358.61
 20
357.47
 11
358.61
 21
356.87
  0
ARC
  8
L-1-1
 10
358.21
 20
356.87
 40
0.40
 50
270.00
 51
0.00
  0
LINE
  8
L-1-1
 10
358.61
 20
341.23
 11
358.61
 21
340.63
  0
LINE
  8
L-1-1
 10
353.98
 20
341.63
 11
358.21
 21
341.63
  0
ARC
  8
L-1-1
 10
358.21
 20
341.23
 40
0.40
 50
0.00
 51
90.00
  0
LINE
  8
L-1-1
 10
358.41
 20
357.47
 11
358.61
 21
357.47
  0
LINE
  8
L-1-1
 10
358.41
 20
340.63
 11
358.61
 21
340.63
  0
ARC
  8
L-1-1
 10
353.98
 20
356.27
 40
0.40
 50
90.00
 51
180.00
  0
LINE
  8
L-1-1
 10
358.41
 20
340.63
 11
358.41
 21
341.23
  0
LINE
  8
L-1-1
 10
353.98
 20
341.43
 11
358.21
 21
341.43
  0
ARC
  8
L-1-1
 10
358.21
 20
341.23
 40
0.20
 50
0.00
 51
90.00
  0
LINE
  8
L-1-1
 10
353.98
 20
356.67
 11
358.21
 21
356.67
  0
LINE
  8
L-1-1
 10
358.41
 20
357.47
 11
358.41
 21
356.87
  0
ARC
  8
L-1-1
 10
358.21
 20
356.87
 40
0.20
 50
270.00
 51
0.00
  0
ARC
  8
L-1-1
 10
353.98
 20
341.83
 40
0.40
 50
180.00
 51
270.00
  0
LINE
  8
L-1-1
 10
358.41
 20
357.47
 11
353.57
 21
358.97
  0
LINE
  8
L-1-1
 10
353.57
 20
339.13
 11
358.41
 21
340.63
  0
ARC
  8
L-1-1
 10
353.08
 20
340.72
 40
1.67
 50
180.00
 51
287.31
  0
ARC
  8
L-1-1
 10
353.08
 20
357.38
 40
1.67
 50
72.69
 51
180.00
  0
LINE
  8
L-1-1
 10
351.41
 20
340.72
 11
351.41
 21
341.42
  0
LINE
  8
L-1-1
 10
244.94
 20
348.38
 11
439.44
 21
348.38
  0
LINE
  8
L-1-1
 10
353.58
 20
355.35
 11
353.58
 21
356.27
  0
LINE
  8
L-1-1
 10
353.78
 20
354.85
 11
353.78
 21
356.27
  0
LINE
  8
L-1-1
 10
351.41
 20
355.35
 11
351.41
 21
357.38
  0
LINE
  8
L-1-1
 10
353.78
 20
343.58
 11
353.78
 21
353.18
  0
LINE
  8
L-1-1
 10
353.58
 20
355.35
 11
353.58
 21
356.27
  0
LINE
  8
L-1-1
 10
356.11
 20
358.17
 11
356.11
 21
340.22
  0
LINE
  8
L-1-1
 10
353.91
 20
354.85
 11
353.91
 21
353.18
  0
LINE
  8
L-1-1
 10
353.58
 20
353.18
 11
353.58
 21
355.35
  0
LINE
  8
L-1-1
 10
353.58
 20
354.85
 11
353.91
 21
354.85
  0
LINE
  8
L-1-1
 10
353.91
 20
353.18
 11
350.58
 21
353.18
  0
LINE
  8
L-1-1
 10
350.58
 20
343.58
 11
350.58
 21
353.18
  0
LINE
  8
L-1-1
 10
353.91
 20
343.58
 11
350.58
 21
343.58
  0
LINE
  8
L-1-1
 10
353.58
 20
343.58
 11
353.58
 21
341.42
  0
LINE
  8
L-1-1
 10
353.91
 20
343.58
 11
353.91
 21
341.92
  0
LINE
  8
L-1-1
 10
353.58
 20
341.92
 11
353.91
 21
341.92
  0
LINE
  8
L-1-1
 10
353.58
 20
355.35
 11
348.94
 21
355.35
  0
LINE
  8
L-1-1
 10
353.58
 20
341.42
 11
348.94
 21
341.42
  0
LINE
  8
L-1-1
 10
357.86
 20
346.22
 11
354.66
 21
346.22
  0
LINE
  8
L-1-1
 10
354.86
 20
343.72
 11
354.86
 21
346.22
  0
LINE
  8
L-1-1
 10
354.66
 20
343.72
 11
354.66
 21
346.22
  0
LINE
  8
L-1-1
 10
354.86
 20
343.72
 11
354.86
 21
342.38
  0
LINE
  8
L-1-1
 10
355.12
 20
343.31
 11
355.05
 21
342.50
  0
LINE
  8
L-1-1
 10
354.36
 20
345.88
 11
354.36
 21
343.88
  0
LINE
  8
L-1-1
 10
354.36
 20
345.88
 11
354.66
 21
345.88
  0
LINE
  8
L-1-1
 10
354.36
 20
343.88
 11
354.66
 21
343.88
  0
LINE
  8
L-1-1
 10
354.66
 20
343.72
 11
357.56
 21
343.72
  0
LINE
  8
L-1-1
 10
356.83
 20
343.55
 11
355.39
 21
343.55
  0
ARC
  8
L-1-1
 10
355.39
 20
343.28
 40
0.27
 50
90.00
 51
175.00
  0
LINE
  8
L-1-1
 10
354.92
 20
342.38
 11
354.86
 21
342.38
  0
LINE
  8
L-1-1
 10
357.10
 20
343.31
 11
357.17
 21
342.50
  0
ARC
  8
L-1-1
 10
354.92
 20
342.52
 40
0.13
 50
270.00
 51
355.00
  0
ARC
  8
L-1-1
 10
356.83
 20
343.28
 40
0.27
 50
5.00
 51
90.00
  0
ARC
  8
L-1-1
 10
357.30
 20
342.52
 40
0.13
 50
185.00
 51
270.00
  0
LINE
  8
L-1-1
 10
361.44
 20
342.38
 11
357.30
 21
342.38
  0
LINE
  8
L-1-1
 10
357.36
 20
342.38
 11
357.36
 21
343.72
  0
LINE
  8
L-1-1
 10
357.56
 20
343.72
 11
357.56
 21
346.22
  0
LINE
  8
L-1-1
 10
357.36
 20
346.22
 11
357.36
 21
343.72
  0
ARC
  8
L-1-1
 10
357.86
 20
346.55
 40
0.33
 50
270.00
 51
0.00
  0
LINE
  8
L-1-1
 10
358.19
 20
352.72
 11
358.19
 21
346.55
  0
LINE
  8
L-1-1
 10
361.44
 20
342.38
 11
361.44
 21
355.72
  0
LINE
  8
L-1-1
 10
357.30
 20
355.72
 11
361.44
 21
355.72
  0
LINE
  8
L-1-1
 10
357.36
 20
354.38
 11
357.36
 21
355.72
  0
LINE
  8
L-1-1
 10
357.36
 20
354.38
 11
354.86
 21
354.38
  0
LINE
  8
L-1-1
 10
355.19
 20
353.05
 11
357.86
 21
353.05
  0
ARC
  8
L-1-1
 10
357.86
 20
352.72
 40
0.33
 50
0.00
 51
90.00
  0
ARC
  8
L-1-1
 10
355.19
 20
353.38
 40
0.33
 50
180.00
 51
270.00
  0
LINE
  8
L-1-1
 10
354.86
 20
354.38
 11
354.86
 21
353.38
  0
LINE
  8
L-1-1
 10
354.86
 20
355.72
 11
354.86
 21
354.38
  0
LINE
  8
L-1-1
 10
355.12
 20
354.79
 11
355.05
 21
355.59
  0
LINE
  8
L-1-1
 10
354.86
 20
355.72
 11
354.92
 21
355.72
  0
ARC
  8
L-1-1
 10
354.92
 20
355.58
 40
0.13
 50
5.00
 51
90.00
  0
ARC
  8
L-1-1
 10
355.39
 20
354.82
 40
0.27
 50
185.00
 51
270.00
  0
LINE
  8
L-1-1
 10
355.39
 20
354.55
 11
356.83
 21
354.55
  0
ARC
  8
L-1-1
 10
356.83
 20
354.82
 40
0.27
 50
270.00
 51
355.00
  0
LINE
  8
L-1-1
 10
357.10
 20
354.79
 11
357.17
 21
355.59
  0
ARC
  8
L-1-1
 10
357.30
 20
355.58
 40
0.13
 50
90.00
 51
175.00
  0
LINE
  8
L-1-1
 10
162.74
 20
341.09
 11
156.42
 21
334.77
  0
LINE
  8
L-1-1
 10
162.74
 20
345.56
 11
154.33
 21
335.98
  0
LINE
  8
L-1-1
 10
160.69
 20
346.81
 11
152.24
 21
337.19
  0
LINE
  8
L-1-1
 10
158.60
 20
348.02
 11
151.19
 21
339.45
  0
LINE
  8
L-1-1
 10
155.25
 20
347.97
 11
151.19
 21
342.75
  0
LINE
  8
L-1-1
 10
155.10
 20
335.54
 11
151.19
 21
339.44
  0
LINE
  8
L-1-1
 10
158.56
 20
335.38
 11
151.19
 21
342.74
  0
LINE
  8
L-1-1
 10
160.65
 20
336.59
 11
152.20
 21
346.21
  0
LINE
  8
L-1-1
 10
162.74
 20
337.80
 11
154.29
 21
347.41
  0
LINE
  8
L-1-1
 10
162.74
 20
341.10
 11
156.38
 21
348.62
  0
LINE
  8
L-1-1
 10
292.11
 20
342.24
 11
285.79
 21
335.92
  0
LINE
  8
L-1-1
 10
292.11
 20
346.70
 11
283.70
 21
337.13
  0
LINE
  8
L-1-1
 10
290.06
 20
347.95
 11
281.61
 21
338.33
  0
LINE
  8
L-1-1
 10
287.97
 20
349.16
 11
280.56
 21
340.59
  0
LINE
  8
L-1-1
 10
284.62
 20
349.11
 11
280.56
 21
345.06
  0
LINE
  8
L-1-1
 10
284.47
 20
336.68
 11
280.56
 21
340.59
  0
LINE
  8
L-1-1
 10
287.93
 20
336.52
 11
280.56
 21
345.05
  0
LINE
  8
L-1-1
 10
290.02
 20
337.73
 11
281.57
 21
347.35
  0
LINE
  8
L-1-1
 10
292.11
 20
338.94
 11
283.66
 21
348.56
  0
LINE
  8
L-1-1
 10
292.11
 20
342.24
 11
285.75
 21
350.93
  0
LINE
  8
L-1-1
 10
228.34
 20
355.00
 11
222.03
 21
347.51
  0
LINE
  8
L-1-1
 10
228.34
 20
358.30
 11
219.93
 21
348.72
  0
LINE
  8
L-1-1
 10
226.29
 20
359.55
 11
217.84
 21
351.10
  0
LINE
  8
L-1-1
 10
224.20
 20
360.76
 11
216.80
 21
353.35
  0
LINE
  8
L-1-1
 10
220.85
 20
360.71
 11
216.80
 21
356.65
  0
LINE
  8
L-1-1
 10
220.70
 20
348.28
 11
216.80
 21
353.35
  0
LINE
  8
L-1-1
 10
224.16
 20
348.12
 11
216.80
 21
356.65
  0
LINE
  8
L-1-1
 10
226.25
 20
349.33
 11
217.80
 21
358.95
  0
LINE
  8
L-1-1
 10
228.34
 20
351.70
 11
219.89
 21
360.15
  0
LINE
  8
L-1-1
 10
228.34
 20
355.00
 11
221.98
 21
361.36
  0
LINE
  8
L-1-1
 10
311.41
 20
209.94
 11
318.61
 21
209.94
  0
LINE
  8
L-1-1
 10
308.42
 20
181.89
 11
319.68
 21
181.89
  0
LINE
  8
L-1-1
 10
311.18
 20
209.03
 11
318.84
 21
209.03
  0
LINE
  8
L-1-1
 10
308.42
 20
206.27
 11
308.42
 21
155.77
  0
ARC
  8
L-1-1
 10
311.18
 20
206.27
 40
2.77
 50
90.00
 51
180.00
  0
ARC
  8
L-1-1
 10
318.84
 20
206.27
 40
2.77
 50
0.00
 51
90.00
  0
ARC
  8
L-1-1
 10
318.61
 20
206.04
 40
3.90
 50
0.00
 51
90.00
  0
ARC
  8
L-1-1
 10
311.41
 20
206.04
 40
3.90
 50
90.00
 51
180.00
  0
LINE
  8
L-1-1
 10
308.42
 20
166.25
 11
321.60
 21
166.25
  0
LINE
  8
L-1-1
 10
308.42
 20
180.99
 11
319.68
 21
180.99
  0
LINE
  8
L-1-1
 10
321.60
 20
206.27
 11
321.60
 21
184.11
  0
LINE
  8
L-1-1
 10
322.51
 20
206.04
 11
322.51
 21
183.96
  0
LINE
  8
L-1-1
 10
308.42
 20
166.97
 11
321.60
 21
166.97
  0
LINE
  8
L-1-1
 10
307.96
 20
155.77
 11
322.06
 21
155.77
  0
LINE
  8
L-1-1
 10
318.72
 20
209.49
 11
311.30
 21
209.49
  0
LINE
  8
L-1-1
 10
307.96
 20
206.15
 11
307.96
 21
152.44
  0
ARC
  8
L-1-1
 10
311.30
 20
206.15
 40
3.33
 50
90.00
 51
180.00
  0
ARC
  8
L-1-1
 10
318.72
 20
206.15
 40
3.33
 50
0.00
 51
90.00
  0
LINE
  8
L-1-1
 10
322.06
 20
152.44
 11
322.06
 21
167.41
  0
LINE
  8
L-1-1
 10
322.06
 20
155.77
 11
322.06
 21
152.44
  0
LINE
  8
L-1-1
 10
322.51
 20
152.44
 11
307.51
 21
152.44
  0
LINE
  8
L-1-1
 10
308.42
 20
155.77
 11
308.42
 21
152.44
  0
LINE
  8
L-1-1
 10
307.96
 20
155.77
 11
307.96
 21
152.44
  0
LINE
  8
L-1-1
 10
321.60
 20
181.44
 11
308.42
 21
181.44
  0
LINE
  8
L-1-1
 10
321.60
 20
166.61
 11
308.42
 21
166.61
  0
LINE
  8
L-1-1
 10
306.68
 20
178.59
 11
308.34
 21
178.59
  0
LINE
  8
L-1-1
 10
306.68
 20
180.29
 11
308.34
 21
180.29
  0
LINE
  8
L-1-1
 10
306.68
 20
156.62
 11
308.34
 21
156.62
  0
LINE
  8
L-1-1
 10
306.68
 20
154.92
 11
308.34
 21
154.92
  0
LINE
  8
L-1-1
 10
306.68
 20
156.62
 11
306.68
 21
154.92
  0
LINE
  8
L-1-1
 10
308.34
 20
156.62
 11
308.34
 21
154.92
  0
LINE
  8
L-1-1
 10
306.68
 20
180.29
 11
306.68
 21
178.59
  0
LINE
  8
L-1-1
 10
308.34
 20
180.32
 11
308.34
 21
178.62
  0
LINE
  8
L-1-1
 10
308.34
 20
201.95
 11
308.34
 21
203.65
  0
LINE
  8
L-1-1
 10
306.68
 20
201.92
 11
306.68
 21
203.62
  0
LINE
  8
L-1-1
 10
306.68
 20
203.62
 11
308.34
 21
203.62
  0
LINE
  8
L-1-1
 10
308.34
 20
201.92
 11
306.68
 21
201.92
  0
LINE
  8
L-1-1
 10
322.06
 20
155.44
 11
307.96
 21
155.44
  0
LINE
  8
L-1-1
 10
322.51
 20
184.11
 11
319.84
 21
184.11
  0
LINE
  8
L-1-1
 10
319.68
 20
179.94
 11
319.68
 21
183.94
  0
LINE
  8
L-1-1
 10
321.60
 20
179.77
 11
321.60
 21
178.95
  0
LINE
  8
L-1-1
 10
322.51
 20
179.92
 11
322.51
 21
178.95
  0
LINE
  8
L-1-1
 10
319.84
 20
183.96
 11
322.51
 21
183.96
  0
LINE
  8
L-1-1
 10
319.83
 20
179.94
 11
319.83
 21
183.94
  0
ARC
  8
L-1-1
 10
319.84
 20
183.94
 40
0.02
 50
90.00
 51
180.00
  0
ARC
  8
L-1-1
 10
319.84
 20
183.94
 40
0.17
 50
90.00
 51
180.00
  0
LINE
  8
L-1-1
 10
322.51
 20
179.77
 11
319.84
 21
179.77
  0
LINE
  8
L-1-1
 10
322.51
 20
179.92
 11
319.84
 21
179.92
  0
ARC
  8
L-1-1
 10
319.84
 20
179.94
 40
0.17
 50
180.00
 51
270.00
  0
ARC
  8
L-1-1
 10
319.84
 20
179.94
 40
0.02
 50
180.00
 51
270.00
  0
LINE
  8
L-1-1
 10
307.51
 20
206.27
 11
307.51
 21
152.44
  0
LINE
  8
L-1-1
 10
321.56
 20
196.44
 11
306.99
 21
196.44
  0
LINE
  8
L-1-1
 10
321.60
 20
196.08
 11
308.42
 21
196.08
  0
LINE
  8
L-1-1
 10
321.60
 20
196.80
 11
308.42
 21
196.80
  0
LINE
  8
L-1-1
 10
308.78
 20
179.44
 11
306.03
 21
179.44
  0
LINE
  8
L-1-1
 10
309.11
 20
202.77
 11
305.87
 21
202.77
  0
LINE
  8
L-1-1
 10
308.78
 20
155.77
 11
305.20
 21
155.77
  0
LINE
  8
L-1-1
 10
322.06
 20
178.95
 11
322.06
 21
206.15
  0
LINE
  8
L-1-1
 10
321.60
 20
167.41
 11
321.60
 21
152.44
  0
LINE
  8
L-1-1
 10
322.51
 20
167.41
 11
322.51
 21
152.44
  0
LINE
  8
L-1-1
 10
347.94
 20
213.27
 11
344.61
 21
213.27
  0
LINE
  8
L-1-1
 10
344.61
 20
212.14
 11
310.28
 21
212.14
  0
LINE
  8
L-1-1
 10
307.51
 20
209.37
 11
307.51
 21
151.91
  0
LINE
  8
L-1-1
 10
306.38
 20
209.37
 11
306.38
 21
151.91
  0
LINE
  8
L-1-1
 10
348.51
 20
209.37
 11
348.51
 21
151.91
  0
LINE
  8
L-1-1
 10
347.38
 20
209.37
 11
347.38
 21
155.77
  0
ARC
  8
L-1-1
 10
310.28
 20
209.37
 40
3.90
 50
90.00
 51
180.00
  0
ARC
  8
L-1-1
 10
344.61
 20
209.37
 40
3.90
 50
0.00
 51
90.00
  0
ARC
  8
L-1-1
 10
310.28
 20
209.37
 40
2.77
 50
90.00
 51
180.00
  0
ARC
  8
L-1-1
 10
344.61
 20
209.37
 40
2.77
 50
0.00
 51
90.00
  0
LINE
  8
L-1-1
 10
323.62
 20
196.89
 11
347.38
 21
196.89
  0
LINE
  8
L-1-1
 10
323.62
 20
195.99
 11
347.38
 21
195.99
  0
LINE
  8
L-1-1
 10
347.94
 20
152.44
 11
322.71
 21
152.44
  0
LINE
  8
L-1-1
 10
322.71
 20
212.14
 11
322.71
 21
178.95
  0
LINE
  8
L-1-1
 10
323.62
 20
212.14
 11
323.62
 21
178.95
  0
LINE
  8
L-1-1
 10
323.62
 20
181.50
 11
347.38
 21
181.50
  0
LINE
  8
L-1-1
 10
323.62
 20
180.60
 11
347.38
 21
180.60
  0
LINE
  8
L-1-1
 10
323.62
 20
166.97
 11
347.38
 21
166.97
  0
LINE
  8
L-1-1
 10
323.62
 20
166.25
 11
347.38
 21
166.25
  0
LINE
  8
L-1-1
 10
335.41
 20
212.14
 11
335.41
 21
196.89
  0
LINE
  8
L-1-1
 10
336.14
 20
212.14
 11
336.14
 21
196.89
  0
LINE
  8
L-1-1
 10
335.41
 20
180.60
 11
335.41
 21
178.95
  0
LINE
  8
L-1-1
 10
336.14
 20
180.60
 11
336.14
 21
178.95
  0
LINE
  8
L-1-1
 10
335.41
 20
166.25
 11
335.41
 21
155.77
  0
LINE
  8
L-1-1
 10
336.14
 20
166.25
 11
336.14
 21
155.77
  0
LINE
  8
L-1-1
 10
347.94
 20
214.41
 11
306.94
 21
214.41
  0
ARC
  8
L-1-1
 10
306.94
 20
213.84
 40
0.57
 50
90.00
 51
270.00
  0
ARC
  8
L-1-1
 10
347.94
 20
213.84
 40
0.57
 50
270.00
 51
90.00
  0
LINE
  8
L-1-1
 10
347.94
 20
147.98
 11
347.94
 21
209.37
  0
LINE
  8
L-1-1
 10
306.94
 20
147.98
 11
306.94
 21
209.37
  0
LINE
  8
L-1-1
 10
344.61
 20
212.71
 11
310.28
 21
212.71
  0
ARC
  8
L-1-1
 10
344.61
 20
209.37
 40
3.33
 50
0.00
 51
90.00
  0
ARC
  8
L-1-1
 10
310.28
 20
209.37
 40
3.33
 50
90.00
 51
180.00
  0
LINE
  8
L-1-1
 10
347.94
 20
213.27
 11
306.94
 21
213.27
  0
LINE
  8
L-1-1
 10
310.28
 20
213.27
 11
309.94
 21
213.27
  0
LINE
  8
L-1-1
 10
322.88
 20
196.44
 11
347.38
 21
196.44
  0
LINE
  8
L-1-1
 10
323.16
 20
152.44
 11
323.16
 21
167.41
  0
LINE
  8
L-1-1
 10
347.38
 20
152.44
 11
347.38
 21
151.91
  0
LINE
  8
L-4-1
 10
347.38
 20
155.77
 11
347.38
 21
152.44
  0
LINE
  8
L-1-1
 10
347.94
 20
155.77
 11
347.94
 21
152.44
  0
LINE
  8
L-4-1
 10
323.16
 20
155.77
 11
323.16
 21
152.44
  0
LINE
  8
L-1-1
 10
323.16
 20
155.77
 11
347.94
 21
155.77
  0
LINE
  8
L-1-1
 10
323.62
 20
181.05
 11
347.38
 21
181.05
  0
LINE
  8
L-1-1
 10
323.62
 20
166.61
 11
347.38
 21
166.61
  0
LINE
  8
L-4-1
 10
307.20
 20
208.27
 11
306.48
 21
208.27
  0
LINE
  8
L-4-1
 10
307.20
 20
206.61
 11
306.48
 21
206.61
  0
LINE
  8
L-1-1
 10
306.84
 20
208.85
 11
306.84
 21
206.21
  0
LINE
  8
L-4-1
 10
307.20
 20
208.27
 11
307.20
 21
206.61
  0
LINE
  8
L-4-1
 10
306.48
 20
208.27
 11
306.48
 21
206.61
  0
LINE
  8
L-1-1
 10
307.21
 20
173.61
 11
306.17
 21
173.61
  0
LINE
  8
L-4-1
 10
307.04
 20
173.94
 11
306.84
 21
173.94
  0
LINE
  8
L-4-1
 10
307.04
 20
173.27
 11
306.84
 21
173.27
  0
LINE
  8
L-4-1
 10
307.04
 20
173.94
 11
307.04
 21
173.27
  0
LINE
  8
L-4-1
 10
306.84
 20
173.94
 11
306.84
 21
173.27
  0
LINE
  8
L-1-1
 10
335.78
 20
180.77
 11
335.78
 21
191.88
  0
LINE
  8
L-1-1
 10
335.78
 20
179.87
 11
335.78
 21
178.95
  0
LINE
  8
L-1-1
 10
335.78
 20
166.61
 11
335.78
 21
155.46
  0
LINE
  8
L-1-1
 10
314.11
 20
210.76
 11
314.11
 21
215.23
  0
LINE
  8
L-1-1
 10
340.78
 20
210.95
 11
340.78
 21
214.91
  0
LINE
  8
L-1-1
 10
335.78
 20
191.95
 11
335.78
 21
212.84
  0
LINE
  8
L-1-1
 10
336.14
 20
195.99
 11
336.14
 21
181.50
  0
LINE
  8
L-1-1
 10
335.41
 20
195.99
 11
335.41
 21
181.50
  0
LINE
  8
L-1-1
 10
322.71
 20
167.41
 11
322.71
 21
152.44
  0
LINE
  8
L-1-1
 10
323.62
 20
167.41
 11
323.62
 21
152.44
  0
LINE
  8
L-1-1
 10
335.41
 20
167.41
 11
335.41
 21
166.97
  0
LINE
  8
L-1-1
 10
336.14
 20
167.41
 11
336.14
 21
166.97
  0
LINE
  8
L-1-1
 10
323.16
 20
178.95
 11
323.16
 21
215.27
  0
LINE
  8
L-1-1
 10
335.78
 20
167.41
 11
335.78
 21
166.50
  0
LINE
  8
L-1-1
 10
184.74
 20
147.41
 11
184.74
 21
139.74
  0
LINE
  8
L-1-1
 10
185.14
 20
147.41
 11
185.14
 21
139.74
  0
LINE
  8
L-1-1
 10
183.44
 20
139.74
 11
170.44
 21
149.74
  0
LINE
  8
L-1-1
 10
183.44
 20
141.00
 11
172.08
 21
149.74
  0
LINE
  8
L-1-1
 10
186.44
 20
139.74
 11
197.86
 21
148.52
  0
LINE
  8
L-1-1
 10
186.44
 20
141.00
 11
197.80
 21
149.74
  0
LINE
  8
L-1-1
 10
245.14
 20
147.41
 11
245.14
 21
139.74
  0
LINE
  8
L-1-1
 10
244.74
 20
147.41
 11
244.74
 21
139.74
  0
LINE
  8
L-1-1
 10
246.44
 20
139.74
 11
257.86
 21
148.52
  0
LINE
  8
L-1-1
 10
246.44
 20
141.00
 11
257.80
 21
149.74
  0
LINE
  8
L-1-1
 10
243.44
 20
139.74
 11
232.03
 21
148.52
  0
LINE
  8
L-1-1
 10
243.44
 20
141.00
 11
232.08
 21
149.74
  0
LINE
  8
L-1-1
 10
304.74
 20
147.41
 11
304.74
 21
139.74
  0
LINE
  8
L-1-1
 10
305.14
 20
147.41
 11
305.14
 21
139.74
  0
LINE
  8
L-1-1
 10
303.44
 20
141.00
 11
292.08
 21
149.74
  0
LINE
  8
L-1-1
 10
306.44
 20
141.00
 11
317.80
 21
149.74
  0
LINE
  8
L-1-1
 10
306.44
 20
139.74
 11
319.44
 21
149.74
  0
LINE
  8
L-1-1
 10
303.44
 20
139.74
 11
292.03
 21
148.52
  0
LINE
  8
L-1-1
 10
349.11
 20
147.41
 11
349.11
 21
139.74
  0
LINE
  8
L-1-1
 10
348.71
 20
147.41
 11
348.71
 21
139.74
  0
LINE
  8
L-1-1
 10
140.78
 20
147.41
 11
140.78
 21
139.74
  0
LINE
  8
L-1-1
 10
141.18
 20
147.41
 11
141.18
 21
139.74
  0
CIRCLE
  8
L-1-1
 10
143.08
 20
181.55
 40
0.57
  0
CIRCLE
  8
L-1-1
 10
143.08
 20
181.55
 40
0.46
  0
LINE
  8
L-1-1
 10
140.51
 20
181.55
 11
145.65
 21
181.55
  0
LINE
  8
L-1-1
 10
143.08
 20
178.98
 11
143.08
 21
184.11
  0
CIRCLE
  8
L-1-1
 10
346.80
 20
181.55
 40
0.57
  0
CIRCLE
  8
L-1-1
 10
346.80
 20
181.55
 40
0.46
  0
LINE
  8
L-1-1
 10
349.37
 20
181.55
 11
344.24
 21
181.55
  0
LINE
  8
L-1-1
 10
346.80
 20
178.98
 11
346.80
 21
184.11
  0
LINE
  8
L-1-1
 10
145.61
 20
146.41
 11
143.28
 21
146.41
  0
LINE
  8
L-1-1
 10
143.28
 20
140.74
 11
145.61
 21
140.74
  0
LINE
  8
L-1-1
 10
146.61
 20
137.41
 11
146.61
 21
139.74
  0
LINE
  8
L-1-1
 10
146.61
 20
147.41
 11
146.61
 21
149.74
  0
LINE
  8
L-1-1
 10
146.61
 20
139.74
 11
145.61
 21
140.74
  0
LINE
  8
L-1-1
 10
145.61
 20
146.41
 11
146.61
 21
147.41
  0
LINE
  8
L-4-1
 10
304.62
 20
187.09
 11
304.62
 21
183.09
  0
LINE
  8
L-4-1
 10
305.98
 20
187.09
 11
305.98
 21
183.09
  0
LINE
  8
L-4-1
 10
304.70
 20
183.09
 11
304.70
 21
187.09
  0
LINE
  8
L-4-1
 10
305.90
 20
183.09
 11
305.90
 21
187.09
  0
LINE
  8
L-1-1
 10
307.46
 20
186.76
 11
307.46
 21
183.42
  0
LINE
  8
L-1-1
 10
304.12
 20
183.09
 11
307.12
 21
183.09
  0
LINE
  8
L-1-1
 10
307.12
 20
187.09
 11
307.46
 21
186.76
  0
LINE
  8
L-1-1
 10
307.46
 20
183.42
 11
307.12
 21
183.09
  0
LINE
  8
L-1-1
 10
307.25
 20
186.26
 11
306.63
 21
186.26
  0
LINE
  8
L-1-1
 10
306.94
 20
185.95
 11
306.94
 21
186.57
  0
LINE
  8
L-1-1
 10
303.79
 20
187.09
 11
307.12
 21
187.09
  0
LINE
  8
L-1-1
 10
303.79
 20
183.42
 11
303.79
 21
187.09
  0
LINE
  8
L-1-1
 10
303.79
 20
183.42
 11
304.12
 21
183.09
  0
CIRCLE
  8
L-1-1
 10
304.12
 20
186.84
 40
0.08
  0
CIRCLE
  8
L-1-1
 10
305.29
 20
186.84
 40
0.08
  0
LINE
  8
L-1-1
 10
305.07
 20
186.84
 11
305.51
 21
186.84
  0
LINE
  8
L-1-1
 10
305.29
 20
186.62
 11
305.29
 21
187.06
  0
LINE
  8
L-1-1
 10
303.91
 20
186.84
 11
304.34
 21
186.84
  0
LINE
  8
L-1-1
 10
304.12
 20
186.62
 11
304.12
 21
187.06
  0
LINE
  8
L-1-1
 10
307.25
 20
184.26
 11
306.63
 21
184.26
  0
LINE
  8
L-1-1
 10
306.94
 20
184.57
 11
306.94
 21
183.95
  0
CIRCLE
  8
L-1-1
 10
306.94
 20
186.26
 40
0.15
  0
CIRCLE
  8
L-1-1
 10
306.94
 20
184.26
 40
0.15
  0
LINE
  8
L-1-1
 10
305.31
 20
183.09
 11
305.31
 21
187.09
  0
LINE
  8
L-1-1
 10
304.39
 20
183.92
 11
306.08
 21
183.92
  0
LINE
  8
L-1-1
 10
347.73
 20
186.13
 11
347.94
 21
186.01
  0
LINE
  8
L-1-1
 10
348.16
 20
186.13
 11
347.94
 21
186.01
  0
LINE
  8
L-1-1
 10
347.73
 20
186.13
 11
347.73
 21
186.38
  0
LINE
  8
L-1-1
 10
347.94
 20
186.51
 11
347.73
 21
186.38
  0
LINE
  8
L-1-1
 10
347.94
 20
186.51
 11
348.16
 21
186.38
  0
LINE
  8
L-1-1
 10
348.16
 20
186.13
 11
348.16
 21
186.38
  0
CIRCLE
  8
L-1-1
 10
347.94
 20
186.26
 40
0.11
  0
CIRCLE
  8
L-1-1
 10
347.94
 20
186.26
 40
0.13
  0
CIRCLE
  8
L-1-1
 10
347.94
 20
186.26
 40
0.22
  0
LINE
  8
L-1-1
 10
347.73
 20
184.13
 11
347.94
 21
184.01
  0
LINE
  8
L-1-1
 10
348.16
 20
184.13
 11
347.94
 21
184.01
  0
LINE
  8
L-1-1
 10
347.73
 20
184.13
 11
347.73
 21
184.38
  0
LINE
  8
L-1-1
 10
347.94
 20
184.51
 11
347.73
 21
184.38
  0
LINE
  8
L-1-1
 10
347.94
 20
184.51
 11
348.16
 21
184.38
  0
LINE
  8
L-1-1
 10
348.16
 20
184.13
 11
348.16
 21
184.38
  0
CIRCLE
  8
L-1-1
 10
347.94
 20
184.26
 40
0.11
  0
CIRCLE
  8
L-1-1
 10
347.94
 20
184.26
 40
0.13
  0
CIRCLE
  8
L-1-1
 10
347.94
 20
184.26
 40
0.22
  0
LINE
  8
L-1-1
 10
318.72
 20
155.44
 11
322.06
 21
157.37
  0
LINE
  8
L-1-1
 10
315.39
 20
155.44
 11
322.06
 21
159.29
  0
LINE
  8
L-1-1
 10
312.06
 20
155.44
 11
322.06
 21
161.21
  0
LINE
  8
L-1-1
 10
308.72
 20
155.44
 11
322.06
 21
163.14
  0
LINE
  8
L-1-1
 10
307.96
 20
156.93
 11
322.06
 21
165.06
  0
LINE
  8
L-1-1
 10
307.96
 20
158.85
 11
322.06
 21
166.99
  0
LINE
  8
L-1-1
 10
307.96
 20
160.78
 11
319.46
 21
167.41
  0
LINE
  8
L-1-1
 10
307.96
 20
162.70
 11
316.13
 21
167.41
  0
LINE
  8
L-1-1
 10
307.96
 20
164.62
 11
313.10
 21
167.59
  0
LINE
  8
L-1-1
 10
307.96
 20
166.55
 11
313.10
 21
169.52
  0
LINE
  8
L-1-1
 10
307.96
 20
168.47
 11
313.10
 21
171.44
  0
LINE
  8
L-1-1
 10
307.96
 20
170.40
 11
313.10
 21
173.36
  0
LINE
  8
L-1-1
 10
307.96
 20
172.32
 11
313.10
 21
175.29
  0
LINE
  8
L-1-1
 10
307.96
 20
174.25
 11
313.10
 21
177.21
  0
LINE
  8
L-1-1
 10
307.96
 20
176.17
 11
319.68
 21
182.93
  0
LINE
  8
L-1-1
 10
321.71
 20
184.11
 11
322.06
 21
184.31
  0
LINE
  8
L-1-1
 10
307.96
 20
178.10
 11
322.06
 21
186.23
  0
LINE
  8
L-1-1
 10
307.96
 20
180.02
 11
322.06
 21
188.16
  0
LINE
  8
L-1-1
 10
307.96
 20
181.95
 11
322.06
 21
190.08
  0
LINE
  8
L-1-1
 10
307.96
 20
183.87
 11
322.06
 21
192.01
  0
LINE
  8
L-1-1
 10
307.96
 20
185.79
 11
322.06
 21
193.93
  0
LINE
  8
L-1-1
 10
307.96
 20
187.72
 11
322.06
 21
195.86
  0
LINE
  8
L-1-1
 10
307.96
 20
189.64
 11
322.06
 21
197.78
  0
LINE
  8
L-1-1
 10
307.96
 20
191.57
 11
322.06
 21
199.70
  0
LINE
  8
L-1-1
 10
307.96
 20
193.49
 11
322.06
 21
201.63
  0
LINE
  8
L-1-1
 10
307.96
 20
195.42
 11
322.06
 21
203.55
  0
LINE
  8
L-1-1
 10
307.96
 20
197.34
 11
322.06
 21
205.48
  0
LINE
  8
L-1-1
 10
307.96
 20
199.27
 11
321.86
 21
207.29
  0
LINE
  8
L-1-1
 10
307.96
 20
201.19
 11
320.91
 21
208.67
  0
LINE
  8
L-1-1
 10
307.96
 20
203.11
 11
318.98
 21
209.48
  0
LINE
  8
L-1-1
 10
307.96
 20
205.04
 11
315.67
 21
209.49
  0
LINE
  8
L-1-1
 10
308.08
 20
207.03
 11
312.33
 21
209.49
  0
LINE
  8
L-1-1
 10
319.43
 20
178.95
 11
320.87
 21
179.77
  0
LINE
  8
L-1-1
 10
316.10
 20
178.95
 11
319.68
 21
181.01
  0
LINE
  8
L-1-1
 10
344.61
 20
155.44
 11
347.94
 21
157.37
  0
LINE
  8
L-1-1
 10
341.28
 20
155.44
 11
347.94
 21
159.29
  0
LINE
  8
L-1-1
 10
337.94
 20
155.44
 11
347.94
 21
161.21
  0
LINE
  8
L-1-1
 10
334.61
 20
155.44
 11
347.94
 21
163.14
  0
LINE
  8
L-1-1
 10
331.28
 20
155.44
 11
347.94
 21
165.06
  0
LINE
  8
L-1-1
 10
327.94
 20
155.44
 11
347.94
 21
166.99
  0
LINE
  8
L-1-1
 10
324.61
 20
155.44
 11
347.94
 21
168.91
  0
LINE
  8
L-1-1
 10
323.16
 20
156.53
 11
347.94
 21
170.84
  0
LINE
  8
L-1-1
 10
323.16
 20
158.45
 11
338.68
 21
167.41
  0
LINE
  8
L-1-1
 10
323.16
 20
160.38
 11
335.35
 21
167.41
  0
LINE
  8
L-1-1
 10
323.16
 20
162.30
 11
332.01
 21
167.41
  0
LINE
  8
L-1-1
 10
323.16
 20
164.23
 11
328.68
 21
167.41
  0
LINE
  8
L-1-1
 10
323.16
 20
166.15
 11
325.35
 21
167.41
  0
LINE
  8
L-1-1
 10
340.87
 20
178.30
 11
347.94
 21
182.38
  0
LINE
  8
L-1-1
 10
338.65
 20
178.95
 11
347.94
 21
184.31
  0
LINE
  8
L-1-1
 10
335.32
 20
178.95
 11
347.94
 21
186.23
  0
LINE
  8
L-1-1
 10
331.99
 20
178.95
 11
347.94
 21
188.16
  0
LINE
  8
L-1-1
 10
328.65
 20
178.95
 11
347.94
 21
190.08
  0
LINE
  8
L-1-1
 10
325.32
 20
178.95
 11
347.94
 21
192.01
  0
LINE
  8
L-1-1
 10
323.16
 20
179.62
 11
347.94
 21
193.93
  0
LINE
  8
L-1-1
 10
323.16
 20
181.55
 11
347.94
 21
195.86
  0
LINE
  8
L-1-1
 10
323.16
 20
183.47
 11
347.94
 21
197.78
  0
LINE
  8
L-1-1
 10
323.16
 20
185.40
 11
347.94
 21
199.70
  0
LINE
  8
L-1-1
 10
323.16
 20
187.32
 11
347.94
 21
201.63
  0
LINE
  8
L-1-1
 10
323.16
 20
189.25
 11
347.94
 21
203.55
  0
LINE
  8
L-1-1
 10
323.16
 20
191.17
 11
347.94
 21
205.48
  0
LINE
  8
L-1-1
 10
323.16
 20
193.10
 11
347.94
 21
207.40
  0
LINE
  8
L-1-1
 10
323.16
 20
195.02
 11
347.94
 21
209.33
  0
LINE
  8
L-1-1
 10
323.16
 20
196.94
 11
347.52
 21
211.01
  0
LINE
  8
L-1-1
 10
323.16
 20
198.87
 11
346.32
 21
212.24
  0
LINE
  8
L-1-1
 10
323.16
 20
200.79
 11
343.80
 21
212.71
  0
LINE
  8
L-1-1
 10
323.16
 20
202.72
 11
340.46
 21
212.71
  0
LINE
  8
L-1-1
 10
323.16
 20
204.64
 11
337.13
 21
212.71
  0
LINE
  8
L-1-1
 10
323.16
 20
206.57
 11
333.80
 21
212.71
  0
LINE
  8
L-1-1
 10
323.16
 20
208.49
 11
330.46
 21
212.71
  0
LINE
  8
L-1-1
 10
323.16
 20
210.42
 11
327.13
 21
212.71
  0
LINE
  8
L-1-1
 10
323.16
 20
212.34
 11
323.80
 21
212.71
  0
LINE
  8
L-1-1
 10
340.87
 20
168.68
 11
347.94
 21
172.76
  0
LINE
  8
L-1-1
 10
340.87
 20
170.60
 11
347.94
 21
174.69
  0
LINE
  8
L-1-1
 10
340.87
 20
172.53
 11
347.94
 21
176.61
  0
LINE
  8
L-1-1
 10
340.87
 20
174.45
 11
347.94
 21
178.53
  0
LINE
  8
L-1-1
 10
340.87
 20
176.38
 11
347.94
 21
180.46
  0
LINE
  8
L-1-1
 10
307.96
 20
157.37
 11
311.30
 21
155.44
  0
LINE
  8
L-1-1
 10
307.96
 20
159.29
 11
314.63
 21
155.44
  0
LINE
  8
L-1-1
 10
307.96
 20
161.21
 11
317.96
 21
155.44
  0
LINE
  8
L-1-1
 10
307.96
 20
163.14
 11
321.30
 21
155.44
  0
LINE
  8
L-1-1
 10
307.96
 20
165.06
 11
322.06
 21
156.93
  0
LINE
  8
L-1-1
 10
307.96
 20
166.99
 11
322.06
 21
158.85
  0
LINE
  8
L-1-1
 10
307.96
 20
168.91
 11
322.06
 21
160.78
  0
LINE
  8
L-1-1
 10
307.96
 20
170.84
 11
313.10
 21
167.87
  0
LINE
  8
L-1-1
 10
307.96
 20
172.76
 11
313.10
 21
169.79
  0
LINE
  8
L-1-1
 10
307.96
 20
174.69
 11
313.10
 21
171.72
  0
LINE
  8
L-1-1
 10
307.96
 20
176.61
 11
313.10
 21
173.64
  0
LINE
  8
L-1-1
 10
307.96
 20
178.53
 11
313.10
 21
175.57
  0
LINE
  8
L-1-1
 10
307.96
 20
180.46
 11
313.10
 21
177.49
  0
LINE
  8
L-1-1
 10
307.96
 20
182.38
 11
313.92
 21
178.95
  0
LINE
  8
L-1-1
 10
307.96
 20
184.31
 11
317.25
 21
178.95
  0
LINE
  8
L-1-1
 10
307.96
 20
186.23
 11
320.59
 21
178.95
  0
LINE
  8
L-1-1
 10
307.96
 20
188.16
 11
319.68
 21
181.39
  0
LINE
  8
L-1-1
 10
307.96
 20
190.08
 11
319.68
 21
183.32
  0
LINE
  8
L-1-1
 10
307.96
 20
192.01
 11
321.64
 21
184.11
  0
LINE
  8
L-1-1
 10
307.96
 20
193.93
 11
322.06
 21
185.79
  0
LINE
  8
L-1-1
 10
307.96
 20
195.86
 11
322.06
 21
187.72
  0
LINE
  8
L-1-1
 10
307.96
 20
197.78
 11
322.06
 21
189.64
  0
LINE
  8
L-1-1
 10
307.96
 20
199.70
 11
322.06
 21
191.57
  0
LINE
  8
L-1-1
 10
307.96
 20
201.63
 11
322.06
 21
193.49
  0
LINE
  8
L-1-1
 10
307.96
 20
203.55
 11
322.06
 21
195.42
  0
LINE
  8
L-1-1
 10
307.96
 20
205.48
 11
322.06
 21
197.34
  0
LINE
  8
L-1-1
 10
308.16
 20
207.29
 11
322.06
 21
199.27
  0
LINE
  8
L-1-1
 10
309.11
 20
208.67
 11
322.06
 21
201.19
  0
LINE
  8
L-1-1
 10
311.04
 20
209.48
 11
322.06
 21
203.11
  0
LINE
  8
L-1-1
 10
314.35
 20
209.49
 11
322.06
 21
205.04
  0
LINE
  8
L-1-1
 10
317.68
 20
209.49
 11
321.94
 21
207.03
  0
LINE
  8
L-1-1
 10
313.89
 20
167.41
 11
322.06
 21
162.70
  0
LINE
  8
L-1-1
 10
317.23
 20
167.41
 11
322.06
 21
164.62
  0
LINE
  8
L-1-1
 10
320.56
 20
167.41
 11
322.06
 21
166.55
  0
LINE
  8
L-1-1
 10
323.16
 20
157.37
 11
326.50
 21
155.44
  0
LINE
  8
L-1-1
 10
323.16
 20
159.29
 11
329.83
 21
155.44
  0
LINE
  8
L-1-1
 10
323.16
 20
161.21
 11
333.16
 21
155.44
  0
LINE
  8
L-1-1
 10
323.16
 20
163.14
 11
336.50
 21
155.44
  0
LINE
  8
L-1-1
 10
323.16
 20
165.06
 11
339.83
 21
155.44
  0
LINE
  8
L-1-1
 10
323.16
 20
166.99
 11
343.16
 21
155.44
  0
LINE
  8
L-1-1
 10
325.76
 20
167.41
 11
346.50
 21
155.44
  0
LINE
  8
L-1-1
 10
329.09
 20
167.41
 11
347.94
 21
156.53
  0
LINE
  8
L-1-1
 10
332.43
 20
167.41
 11
347.94
 21
158.45
  0
LINE
  8
L-1-1
 10
335.76
 20
167.41
 11
347.94
 21
160.38
  0
LINE
  8
L-1-1
 10
339.09
 20
167.41
 11
347.94
 21
162.30
  0
LINE
  8
L-1-1
 10
340.87
 20
168.31
 11
347.94
 21
164.23
  0
LINE
  8
L-1-1
 10
323.16
 20
180.46
 11
325.79
 21
178.95
  0
LINE
  8
L-1-1
 10
323.16
 20
182.38
 11
329.12
 21
178.95
  0
LINE
  8
L-1-1
 10
323.16
 20
184.31
 11
332.45
 21
178.95
  0
LINE
  8
L-1-1
 10
323.16
 20
186.23
 11
335.79
 21
178.95
  0
LINE
  8
L-1-1
 10
323.16
 20
188.16
 11
339.12
 21
178.95
  0
LINE
  8
L-1-1
 10
323.16
 20
190.08
 11
347.94
 21
175.78
  0
LINE
  8
L-1-1
 10
323.16
 20
192.01
 11
347.94
 21
177.70
  0
LINE
  8
L-1-1
 10
323.16
 20
193.93
 11
347.94
 21
179.62
  0
LINE
  8
L-1-1
 10
323.16
 20
195.86
 11
347.94
 21
181.55
  0
LINE
  8
L-1-1
 10
323.16
 20
197.78
 11
347.94
 21
183.47
  0
LINE
  8
L-1-1
 10
323.16
 20
199.70
 11
347.94
 21
185.40
  0
LINE
  8
L-1-1
 10
323.16
 20
201.63
 11
347.94
 21
187.32
  0
LINE
  8
L-1-1
 10
323.16
 20
203.55
 11
347.94
 21
189.25
  0
LINE
  8
L-1-1
 10
323.16
 20
205.48
 11
347.94
 21
191.17
  0
LINE
  8
L-1-1
 10
323.16
 20
207.40
 11
347.94
 21
193.10
  0
LINE
  8
L-1-1
 10
323.16
 20
209.33
 11
347.94
 21
195.02
  0
LINE
  8
L-1-1
 10
323.16
 20
211.25
 11
347.94
 21
196.94
  0
LINE
  8
L-1-1
 10
323.97
 20
212.71
 11
347.94
 21
198.87
  0
LINE
  8
L-1-1
 10
327.31
 20
212.71
 11
347.94
 21
200.79
  0
LINE
  8
L-1-1
 10
330.64
 20
212.71
 11
347.94
 21
202.72
  0
LINE
  8
L-1-1
 10
333.97
 20
212.71
 11
347.94
 21
204.64
  0
LINE
  8
L-1-1
 10
337.31
 20
212.71
 11
347.94
 21
206.57
  0
LINE
  8
L-1-1
 10
340.64
 20
212.71
 11
347.94
 21
208.49
  0
LINE
  8
L-1-1
 10
343.97
 20
212.71
 11
347.73
 21
210.54
  0
LINE
  8
L-1-1
 10
340.87
 20
170.23
 11
347.94
 21
166.15
  0
LINE
  8
L-1-1
 10
340.87
 20
172.16
 11
347.94
 21
168.08
  0
LINE
  8
L-1-1
 10
340.87
 20
174.08
 11
347.94
 21
170.00
  0
LINE
  8
L-1-1
 10
340.87
 20
176.01
 11
347.94
 21
171.93
  0
LINE
  8
L-1-1
 10
340.87
 20
177.93
 11
347.94
 21
173.85
  0
LINE
  8
L-1-1
 10
287.73
 20
152.57
 11
292.15
 21
152.57
  0
LINE
  8
L-1-1
 10
289.53
 20
155.41
 11
289.53
 21
139.84
  0
LINE
  8
L-1-1
 10
290.78
 20
150.37
 11
290.78
 21
154.78
  0
CIRCLE
  8
L-1-1
 10
290.78
 20
152.57
 40
1.17
  0
LINE
  8
L-1-1
 10
292.03
 20
155.41
 11
292.03
 21
136.41
  0
LINE
  8
L-1-1
 10
290.36
 20
158.74
 11
290.36
 21
181.33
  0
LINE
  8
L-1-1
 10
291.19
 20
158.74
 11
290.36
 21
158.74
  0
LINE
  8
L-1-1
 10
290.36
 20
158.74
 11
289.53
 21
155.41
  0
LINE
  8
L-1-1
 10
291.19
 20
158.74
 11
292.03
 21
155.41
  0
LINE
  8
L-1-1
 10
291.19
 20
158.74
 11
291.19
 21
181.33
  0
LINE
  8
L-1-1
 10
290.36
 20
181.33
 11
291.19
 21
181.33
  0
ARC
  8
L-1-1
 10
301.28
 20
178.41
 40
2.76
 50
0.00
 51
90.00
  0
ARC
  8
L-1-1
 10
301.28
 20
178.41
 40
3.67
 50
0.00
 51
90.00
  0
LINE
  8
L-1-1
 10
304.04
 20
152.07
 11
304.04
 21
178.41
  0
LINE
  8
L-1-1
 10
289.44
 20
182.07
 11
301.28
 21
182.07
  0
LINE
  8
L-1-1
 10
291.19
 20
167.80
 11
304.04
 21
167.80
  0
LINE
  8
L-1-1
 10
304.04
 20
167.07
 11
291.19
 21
167.07
  0
LINE
  8
L-1-1
 10
291.19
 20
181.17
 11
301.28
 21
181.17
  0
LINE
  8
L-1-1
 10
297.33
 20
155.41
 11
297.33
 21
167.07
  0
LINE
  8
L-1-1
 10
297.90
 20
155.41
 11
297.90
 21
167.07
  0
LINE
  8
L-1-1
 10
304.94
 20
152.07
 11
304.94
 21
178.41
  0
LINE
  8
L-1-1
 10
304.04
 20
155.41
 11
292.03
 21
155.41
  0
LINE
  8
L-1-1
 10
292.03
 20
152.07
 11
348.94
 21
152.07
  0
LINE
  8
L-1-1
 10
289.53
 20
155.41
 11
260.36
 21
155.41
  0
LINE
  8
L-1-1
 10
260.36
 20
152.07
 11
289.53
 21
152.07
  0
LINE
  8
L-1-1
 10
290.36
 20
167.80
 11
259.53
 21
167.80
  0
LINE
  8
L-1-1
 10
245.85
 20
167.07
 11
258.69
 21
167.07
  0
LINE
  8
L-1-1
 10
289.53
 20
142.07
 11
285.36
 21
152.07
  0
LINE
  8
L-1-1
 10
266.90
 20
155.41
 11
266.90
 21
167.07
  0
LINE
  8
L-1-1
 10
267.48
 20
155.41
 11
267.48
 21
167.07
  0
LINE
  8
L-1-1
 10
274.65
 20
155.41
 11
274.65
 21
167.07
  0
LINE
  8
L-1-1
 10
275.23
 20
155.41
 11
275.23
 21
167.07
  0
LINE
  8
L-1-1
 10
282.40
 20
155.41
 11
282.40
 21
167.07
  0
LINE
  8
L-1-1
 10
282.98
 20
155.41
 11
282.98
 21
167.07
  0
LINE
  8
L-1-1
 10
260.36
 20
142.07
 11
264.53
 21
152.07
  0
LINE
  8
L-1-1
 10
246.18
 20
152.07
 11
246.18
 21
178.41
  0
LINE
  8
L-1-1
 10
245.28
 20
152.07
 11
245.28
 21
178.41
  0
LINE
  8
L-1-1
 10
257.86
 20
155.41
 11
245.85
 21
155.41
  0
LINE
  8
L-1-1
 10
251.98
 20
155.41
 11
251.98
 21
167.07
  0
LINE
  8
L-1-1
 10
252.56
 20
155.41
 11
252.56
 21
167.07
  0
LINE
  8
L-1-1
 10
289.44
 20
182.07
 11
248.94
 21
182.07
  0
LINE
  8
L-1-1
 10
290.36
 20
181.17
 11
259.53
 21
181.17
  0
LINE
  8
L-1-1
 10
258.69
 20
181.17
 11
248.94
 21
181.17
  0
LINE
  8
L-1-1
 10
259.53
 20
158.74
 11
259.53
 21
181.33
  0
LINE
  8
L-1-1
 10
258.69
 20
158.74
 11
258.69
 21
181.33
  0
LINE
  8
L-1-1
 10
259.53
 20
181.33
 11
258.69
 21
181.33
  0
ARC
  8
L-1-1
 10
248.94
 20
178.41
 40
3.67
 50
90.00
 51
180.00
  0
ARC
  8
L-1-1
 10
248.94
 20
178.41
 40
2.76
 50
90.00
 51
180.00
  0
LINE
  8
L-1-1
 10
244.94
 20
152.07
 11
257.86
 21
152.07
  0
LINE
  8
L-1-1
 10
258.69
 20
167.80
 11
245.85
 21
167.80
  0
LINE
  8
L-1-1
 10
259.53
 20
167.07
 11
290.36
 21
167.07
  0
LINE
  8
L-1-1
 10
262.15
 20
152.07
 11
257.73
 21
152.07
  0
LINE
  8
L-1-1
 10
260.36
 20
155.41
 11
260.36
 21
139.84
  0
LINE
  8
L-1-1
 10
259.11
 20
149.87
 11
259.11
 21
154.28
  0
CIRCLE
  8
L-1-1
 10
259.11
 20
152.07
 40
1.17
  0
LINE
  8
L-1-1
 10
257.86
 20
155.41
 11
257.86
 21
136.41
  0
LINE
  8
L-1-1
 10
258.69
 20
158.74
 11
259.53
 21
158.74
  0
LINE
  8
L-1-1
 10
259.53
 20
158.74
 11
260.36
 21
155.41
  0
LINE
  8
L-1-1
 10
258.69
 20
158.74
 11
257.86
 21
155.41
  0
LINE
  8
L-1-1
 10
202.15
 20
152.57
 11
197.73
 21
152.57
  0
LINE
  8
L-1-1
 10
200.36
 20
155.41
 11
200.36
 21
139.84
  0
LINE
  8
L-1-1
 10
199.11
 20
150.37
 11
199.11
 21
154.78
  0
CIRCLE
  8
L-1-1
 10
199.11
 20
152.57
 40
1.17
  0
LINE
  8
L-1-1
 10
197.86
 20
155.41
 11
197.86
 21
136.41
  0
LINE
  8
L-1-1
 10
199.53
 20
158.74
 11
199.53
 21
181.33
  0
LINE
  8
L-1-1
 10
198.69
 20
158.74
 11
199.53
 21
158.74
  0
LINE
  8
L-1-1
 10
199.53
 20
158.74
 11
200.36
 21
155.41
  0
LINE
  8
L-1-1
 10
198.69
 20
158.74
 11
197.86
 21
155.41
  0
LINE
  8
L-1-1
 10
198.69
 20
158.74
 11
198.69
 21
181.33
  0
LINE
  8
L-1-1
 10
199.53
 20
181.33
 11
198.69
 21
181.33
  0
ARC
  8
L-1-1
 10
188.61
 20
178.41
 40
2.76
 50
90.00
 51
180.00
  0
ARC
  8
L-1-1
 10
188.61
 20
178.41
 40
3.67
 50
90.00
 51
180.00
  0
LINE
  8
L-1-1
 10
185.85
 20
150.74
 11
185.85
 21
178.41
  0
LINE
  8
L-1-1
 10
200.44
 20
182.07
 11
188.61
 21
182.07
  0
LINE
  8
L-1-1
 10
198.69
 20
167.80
 11
185.85
 21
167.80
  0
LINE
  8
L-1-1
 10
185.85
 20
167.07
 11
198.69
 21
167.07
  0
LINE
  8
L-1-1
 10
198.69
 20
181.17
 11
188.61
 21
181.17
  0
LINE
  8
L-1-1
 10
192.56
 20
155.41
 11
192.56
 21
167.07
  0
LINE
  8
L-1-1
 10
191.98
 20
155.41
 11
191.98
 21
167.07
  0
LINE
  8
L-1-1
 10
184.61
 20
150.74
 11
184.61
 21
178.41
  0
LINE
  8
L-1-1
 10
185.85
 20
155.41
 11
197.86
 21
155.41
  0
LINE
  8
L-1-1
 10
197.86
 20
152.07
 11
185.85
 21
152.07
  0
LINE
  8
L-1-1
 10
200.36
 20
155.41
 11
229.53
 21
155.41
  0
LINE
  8
L-1-1
 10
229.53
 20
152.07
 11
200.36
 21
152.07
  0
LINE
  8
L-1-1
 10
199.53
 20
167.80
 11
230.36
 21
167.80
  0
LINE
  8
L-1-1
 10
244.04
 20
167.07
 11
231.19
 21
167.07
  0
LINE
  8
L-1-1
 10
200.36
 20
142.07
 11
204.53
 21
152.07
  0
LINE
  8
L-1-1
 10
222.98
 20
155.41
 11
222.98
 21
167.07
  0
LINE
  8
L-1-1
 10
222.40
 20
155.41
 11
222.40
 21
167.07
  0
LINE
  8
L-1-1
 10
215.23
 20
155.41
 11
215.23
 21
167.07
  0
LINE
  8
L-1-1
 10
214.65
 20
155.41
 11
214.65
 21
167.07
  0
LINE
  8
L-1-1
 10
207.48
 20
155.41
 11
207.48
 21
167.07
  0
LINE
  8
L-1-1
 10
206.90
 20
155.41
 11
206.90
 21
167.07
  0
LINE
  8
L-1-1
 10
229.53
 20
142.07
 11
225.36
 21
152.07
  0
LINE
  8
L-1-1
 10
243.70
 20
152.07
 11
243.70
 21
178.41
  0
LINE
  8
L-1-1
 10
244.61
 20
152.07
 11
244.61
 21
178.41
  0
LINE
  8
L-1-1
 10
232.03
 20
155.41
 11
244.04
 21
155.41
  0
LINE
  8
L-1-1
 10
237.90
 20
155.41
 11
237.90
 21
167.07
  0
LINE
  8
L-1-1
 10
237.33
 20
155.41
 11
237.33
 21
167.07
  0
LINE
  8
L-1-1
 10
200.44
 20
182.07
 11
240.94
 21
182.07
  0
LINE
  8
L-1-1
 10
199.53
 20
181.17
 11
230.36
 21
181.17
  0
LINE
  8
L-1-1
 10
231.19
 20
181.17
 11
240.94
 21
181.17
  0
LINE
  8
L-1-1
 10
230.36
 20
158.74
 11
230.36
 21
181.33
  0
LINE
  8
L-1-1
 10
231.19
 20
158.74
 11
231.19
 21
181.33
  0
LINE
  8
L-1-1
 10
230.36
 20
181.33
 11
231.19
 21
181.33
  0
ARC
  8
L-1-1
 10
240.94
 20
178.41
 40
3.67
 50
0.00
 51
90.00
  0
ARC
  8
L-1-1
 10
240.94
 20
178.41
 40
2.76
 50
0.00
 51
90.00
  0
LINE
  8
L-1-1
 10
244.94
 20
152.07
 11
232.03
 21
152.07
  0
LINE
  8
L-1-1
 10
231.19
 20
167.80
 11
244.04
 21
167.80
  0
LINE
  8
L-1-1
 10
230.36
 20
167.07
 11
199.53
 21
167.07
  0
LINE
  8
L-1-1
 10
227.73
 20
152.07
 11
232.15
 21
152.07
  0
LINE
  8
L-1-1
 10
229.53
 20
155.41
 11
229.53
 21
139.84
  0
LINE
  8
L-1-1
 10
230.78
 20
149.87
 11
230.78
 21
154.28
  0
CIRCLE
  8
L-1-1
 10
230.78
 20
152.07
 40
1.17
  0
LINE
  8
L-1-1
 10
232.03
 20
155.41
 11
232.03
 21
136.41
  0
LINE
  8
L-1-1
 10
231.19
 20
158.74
 11
230.36
 21
158.74
  0
LINE
  8
L-1-1
 10
230.36
 20
158.74
 11
229.53
 21
155.41
  0
LINE
  8
L-1-1
 10
231.19
 20
158.74
 11
232.03
 21
155.41
  0
ARC
  8
L-1-1
 10
180.94
 20
178.41
 40
2.76
 50
0.00
 51
90.00
  0
ARC
  8
L-1-1
 10
180.94
 20
178.41
 40
3.67
 50
0.00
 51
90.00
  0
LINE
  8
L-1-1
 10
183.70
 20
150.74
 11
183.70
 21
178.41
  0
LINE
  8
L-1-1
 10
184.94
 20
150.74
 11
184.94
 21
178.41
  0
LINE
  8
L-1-1
 10
172.10
 20
167.80
 11
183.70
 21
167.80
  0
LINE
  8
L-1-1
 10
183.70
 20
167.07
 11
172.10
 21
167.07
  0
LINE
  8
L-1-1
 10
177.33
 20
155.41
 11
177.33
 21
167.07
  0
LINE
  8
L-1-1
 10
177.90
 20
155.41
 11
177.90
 21
167.07
  0
LINE
  8
L-1-1
 10
165.06
 20
155.41
 11
165.06
 21
167.07
  0
LINE
  8
L-1-1
 10
164.48
 20
155.41
 11
164.48
 21
167.07
  0
LINE
  8
L-1-1
 10
148.51
 20
155.41
 11
148.51
 21
167.07
  0
LINE
  8
L-1-1
 10
149.09
 20
155.41
 11
149.09
 21
167.07
  0
LINE
  8
L-1-1
 10
327.44
 20
330.63
 11
327.44
 21
346.91
  0
LINE
  8
L-1-1
 10
347.94
 20
336.80
 11
347.94
 21
359.97
  0
LINE
  8
L-1-1
 10
310.28
 20
332.88
 11
344.61
 21
332.88
  0
LINE
  8
L-1-1
 10
306.94
 20
336.80
 11
306.94
 21
359.97
  0
LINE
  8
L-1-1
 10
310.28
 20
363.88
 11
344.61
 21
363.88
  0
ARC
  8
L-1-1
 10
310.28
 20
336.22
 40
3.33
 50
180.00
 51
270.00
  0
ARC
  8
L-1-1
 10
344.61
 20
336.22
 40
3.33
 50
270.00
 51
0.00
  0
ARC
  8
L-1-1
 10
344.61
 20
360.55
 40
3.33
 50
0.00
 51
90.00
  0
ARC
  8
L-1-1
 10
310.28
 20
360.55
 40
3.33
 50
90.00
 51
180.00
  0
LINE
  8
L-1-1
 10
344.61
 20
363.32
 11
310.28
 21
363.32
  0
LINE
  8
L-1-1
 10
344.61
 20
364.45
 11
310.28
 21
364.45
  0
LINE
  8
L-1-1
 10
344.61
 20
332.32
 11
310.28
 21
332.32
  0
LINE
  8
L-1-1
 10
344.61
 20
333.45
 11
310.28
 21
333.45
  0
LINE
  8
L-1-1
 10
347.38
 20
336.80
 11
347.38
 21
359.97
  0
LINE
  8
L-1-1
 10
348.51
 20
336.80
 11
348.51
 21
359.97
  0
LINE
  8
L-1-1
 10
306.38
 20
336.80
 11
306.38
 21
359.97
  0
LINE
  8
L-1-1
 10
307.51
 20
336.80
 11
307.51
 21
359.97
  0
ARC
  8
L-1-1
 10
310.28
 20
360.55
 40
3.90
 50
90.00
 51
180.00
  0
ARC
  8
L-1-1
 10
310.28
 20
336.22
 40
3.90
 50
180.00
 51
270.00
  0
ARC
  8
L-1-1
 10
344.61
 20
336.22
 40
3.90
 50
270.00
 51
0.00
  0
ARC
  8
L-1-1
 10
344.61
 20
360.55
 40
3.90
 50
0.00
 51
90.00
  0
ARC
  8
L-1-1
 10
344.61
 20
360.55
 40
2.77
 50
0.00
 51
90.00
  0
ARC
  8
L-1-1
 10
344.61
 20
336.22
 40
2.77
 50
270.00
 51
0.00
  0
ARC
  8
L-1-1
 10
310.28
 20
360.55
 40
2.77
 50
90.00
 51
180.00
  0
ARC
  8
L-1-1
 10
310.28
 20
336.22
 40
2.77
 50
180.00
 51
270.00
  0
LINE
  8
L-1-1
 10
349.91
 20
345.52
 11
304.44
 21
345.52
  0
LINE
  8
L-1-1
 10
349.91
 20
351.25
 11
304.44
 21
351.25
  0
LINE
  8
L-1-1
 10
307.51
 20
351.82
 11
347.38
 21
351.82
  0
LINE
  8
L-1-1
 10
307.51
 20
350.68
 11
347.38
 21
350.68
  0
LINE
  8
L-1-1
 10
347.38
 20
344.95
 11
307.51
 21
344.95
  0
LINE
  8
L-1-1
 10
347.38
 20
346.08
 11
307.51
 21
346.08
  0
LINE
  8
L-1-1
 10
320.78
 20
330.63
 11
320.78
 21
345.52
  0
LINE
  8
L-1-1
 10
334.11
 20
330.63
 11
334.11
 21
338.63
  0
LINE
  8
L-1-1
 10
320.21
 20
333.45
 11
320.21
 21
338.63
  0
LINE
  8
L-1-1
 10
321.34
 20
333.45
 11
321.34
 21
338.63
  0
LINE
  8
L-1-1
 10
334.68
 20
333.45
 11
334.68
 21
338.63
  0
LINE
  8
L-1-1
 10
333.54
 20
333.45
 11
333.54
 21
338.63
  0
LINE
  8
L-4-1
 10
333.62
 20
333.45
 11
333.62
 21
338.63
  0
LINE
  8
L-4-1
 10
334.60
 20
333.45
 11
334.60
 21
338.63
  0
LINE
  8
L-1-1
 10
320.21
 20
351.82
 11
320.21
 21
357.00
  0
LINE
  8
L-1-1
 10
321.34
 20
351.82
 11
321.34
 21
357.00
  0
LINE
  8
L-1-1
 10
333.54
 20
351.82
 11
333.54
 21
357.00
  0
LINE
  8
L-4-1
 10
333.62
 20
351.82
 11
333.62
 21
357.00
  0
LINE
  8
L-4-1
 10
334.60
 20
351.82
 11
334.60
 21
357.00
  0
LINE
  8
L-1-1
 10
334.68
 20
351.82
 11
334.68
 21
357.00
  0
CIRCLE
  8
L-1-1
 10
311.11
 20
363.88
 40
0.20
  0
LINE
  8
L-1-1
 10
311.11
 20
362.35
 11
311.11
 21
365.42
  0
CIRCLE
  8
L-1-1
 10
343.78
 20
363.88
 40
0.20
  0
LINE
  8
L-1-1
 10
343.78
 20
362.35
 11
343.78
 21
365.42
  0
CIRCLE
  8
L-1-1
 10
311.11
 20
332.88
 40
0.20
  0
LINE
  8
L-1-1
 10
311.11
 20
334.42
 11
311.11
 21
331.35
  0
CIRCLE
  8
L-1-1
 10
343.78
 20
332.88
 40
0.20
  0
LINE
  8
L-1-1
 10
343.78
 20
334.42
 11
343.78
 21
331.35
  0
LINE
  8
L-1-1
 10
327.44
 20
359.54
 11
327.44
 21
365.77
  0
LINE
  8
L-1-1
 10
349.91
 20
357.57
 11
304.44
 21
356.98
  0
LINE
  8
L-1-1
 10
307.51
 20
357.00
 11
347.38
 21
357.00
  0
LINE
  8
L-1-1
 10
307.51
 20
358.13
 11
347.38
 21
358.13
  0
LINE
  8
L-1-1
 10
349.91
 20
339.20
 11
304.44
 21
339.78
  0
LINE
  8
L-1-1
 10
347.38
 20
339.77
 11
307.51
 21
339.77
  0
LINE
  8
L-1-1
 10
347.38
 20
338.63
 11
307.51
 21
338.63
  0
LINE
  8
L-1-1
 10
320.21
 20
358.13
 11
320.21
 21
363.32
  0
LINE
  8
L-1-1
 10
321.34
 20
358.13
 11
321.34
 21
363.32
  0
LINE
  8
L-1-1
 10
333.54
 20
358.13
 11
333.54
 21
363.32
  0
LINE
  8
L-4-1
 10
333.62
 20
358.13
 11
333.62
 21
363.32
  0
LINE
  8
L-4-1
 10
334.60
 20
358.13
 11
334.60
 21
363.32
  0
LINE
  8
L-1-1
 10
334.68
 20
358.13
 11
334.68
 21
363.32
  0
LINE
  8
L-1-1
 10
320.21
 20
339.77
 11
320.21
 21
344.95
  0
LINE
  8
L-1-1
 10
321.34
 20
339.77
 11
321.34
 21
344.95
  0
LINE
  8
L-1-1
 10
333.54
 20
339.77
 11
333.54
 21
344.95
  0
LINE
  8
L-4-1
 10
333.62
 20
339.77
 11
333.62
 21
344.95
  0
LINE
  8
L-1-1
 10
334.11
 20
339.77
 11
334.11
 21
345.52
  0
LINE
  8
L-1-1
 10
334.68
 20
339.77
 11
334.68
 21
344.95
  0
LINE
  8
L-4-1
 10
334.60
 20
339.77
 11
334.60
 21
344.95
  0
LINE
  8
L-1-1
 10
320.78
 20
351.25
 11
320.78
 21
365.77
  0
LINE
  8
L-1-1
 10
334.11
 20
351.25
 11
334.11
 21
365.77
  0
LINE
  8
L-1-1
 10
307.05
 20
335.39
 11
311.38
 21
332.88
  0
LINE
  8
L-1-1
 10
306.94
 20
338.34
 11
315.38
 21
332.88
  0
LINE
  8
L-1-1
 10
306.94
 20
340.65
 11
319.38
 21
332.88
  0
LINE
  8
L-1-1
 10
306.94
 20
343.54
 11
323.38
 21
332.88
  0
LINE
  8
L-1-1
 10
306.94
 20
345.85
 11
318.44
 21
338.63
  0
LINE
  8
L-1-1
 10
306.94
 20
348.16
 11
317.49
 21
341.49
  0
LINE
  8
L-1-1
 10
306.94
 20
350.47
 11
317.49
 21
344.38
  0
LINE
  8
L-1-1
 10
306.94
 20
352.78
 11
313.44
 21
349.03
  0
LINE
  8
L-1-1
 10
306.94
 20
355.67
 11
315.44
 21
350.18
  0
LINE
  8
L-1-1
 10
306.94
 20
357.98
 11
318.47
 21
350.74
  0
LINE
  8
L-1-1
 10
306.96
 20
360.87
 11
322.35
 21
350.81
  0
LINE
  8
L-1-1
 10
307.75
 20
362.72
 11
326.73
 21
350.59
  0
LINE
  8
L-1-1
 10
309.79
 20
363.85
 11
330.64
 21
350.64
  0
LINE
  8
L-1-1
 10
313.73
 20
363.88
 11
335.44
 21
350.18
  0
LINE
  8
L-1-1
 10
317.73
 20
363.88
 11
347.94
 21
345.27
  0
LINE
  8
L-1-1
 10
321.73
 20
363.88
 11
347.94
 21
347.58
  0
LINE
  8
L-1-1
 10
325.73
 20
363.88
 11
347.94
 21
349.89
  0
LINE
  8
L-1-1
 10
329.73
 20
363.88
 11
347.94
 21
352.20
  0
LINE
  8
L-1-1
 10
335.73
 20
363.88
 11
347.94
 21
356.25
  0
LINE
  8
L-1-1
 10
339.73
 20
363.88
 11
347.94
 21
358.56
  0
LINE
  8
L-1-1
 10
344.28
 20
363.57
 11
347.79
 21
361.54
  0
LINE
  8
L-1-1
 10
326.88
 20
345.89
 11
346.44
 21
333.43
  0
LINE
  8
L-1-1
 10
330.84
 20
345.91
 11
347.71
 21
335.00
  0
LINE
  8
L-1-1
 10
334.93
 20
345.86
 11
347.94
 21
337.76
  0
LINE
  8
L-1-1
 10
338.04
 20
346.37
 11
347.94
 21
340.07
  0
LINE
  8
L-1-1
 10
319.79
 20
340.16
 11
331.38
 21
332.88
  0
LINE
  8
L-1-1
 10
319.94
 20
342.96
 11
335.38
 21
332.88
  0
LINE
  8
L-1-1
 10
320.44
 20
337.47
 11
327.38
 21
332.88
  0
LINE
  8
L-1-1
 10
323.18
 20
345.72
 11
343.28
 21
332.94
  0
LINE
  8
L-1-1
 10
319.44
 20
345.56
 11
339.38
 21
332.88
  0
LINE
  8
L-1-1
 10
339.44
 20
347.87
 11
347.94
 21
342.96
  0
LINE
  8
L-1-1
 10
344.28
 20
333.33
 11
347.84
 21
335.39
  0
LINE
  8
L-1-1
 10
339.50
 20
332.88
 11
347.94
 21
338.34
  0
LINE
  8
L-1-1
 10
335.50
 20
332.88
 11
347.94
 21
340.65
  0
LINE
  8
L-1-1
 10
331.50
 20
332.88
 11
347.94
 21
343.54
  0
LINE
  8
L-1-1
 10
327.50
 20
332.88
 11
347.94
 21
345.85
  0
LINE
  8
L-1-1
 10
323.50
 20
332.88
 11
347.94
 21
348.16
  0
LINE
  8
L-1-1
 10
319.50
 20
332.88
 11
347.94
 21
350.47
  0
LINE
  8
L-1-1
 10
315.50
 20
332.88
 11
336.66
 21
346.26
  0
LINE
  8
L-1-1
 10
311.61
 20
332.94
 11
318.44
 21
337.47
  0
LINE
  8
L-1-1
 10
308.45
 20
333.43
 11
317.44
 21
339.21
  0
LINE
  8
L-1-1
 10
307.17
 20
335.00
 11
317.49
 21
341.54
  0
LINE
  8
L-1-1
 10
306.94
 20
337.76
 11
317.49
 21
344.43
  0
LINE
  8
L-1-1
 10
306.94
 20
340.07
 11
316.15
 21
345.97
  0
LINE
  8
L-1-1
 10
306.94
 20
342.96
 11
313.42
 21
346.70
  0
LINE
  8
L-1-1
 10
306.94
 20
345.27
 11
337.15
 21
363.88
  0
LINE
  8
L-1-1
 10
306.94
 20
347.58
 11
333.15
 21
363.88
  0
LINE
  8
L-1-1
 10
306.94
 20
349.89
 11
329.15
 21
363.88
  0
LINE
  8
L-1-1
 10
306.94
 20
352.20
 11
325.15
 21
363.88
  0
LINE
  8
L-1-1
 10
306.94
 20
355.09
 11
321.15
 21
363.88
  0
LINE
  8
L-1-1
 10
306.94
 20
357.40
 11
317.15
 21
363.88
  0
LINE
  8
L-1-1
 10
306.94
 20
359.71
 11
313.15
 21
363.88
  0
LINE
  8
L-1-1
 10
336.14
 20
350.59
 11
347.94
 21
357.98
  0
LINE
  8
L-1-1
 10
332.25
 20
350.64
 11
347.93
 21
360.87
  0
LINE
  8
L-1-1
 10
328.50
 20
350.79
 11
347.14
 21
362.72
  0
LINE
  8
L-1-1
 10
319.94
 20
340.65
 11
328.59
 21
346.22
  0
LINE
  8
L-1-1
 10
319.94
 20
343.54
 11
324.37
 21
346.10
  0
LINE
  8
L-1-1
 10
317.74
 20
344.58
 11
320.59
 21
346.22
  0
LINE
  8
L-1-1
 10
321.44
 20
339.21
 11
332.62
 21
346.24
  0
LINE
  8
L-1-1
 10
324.53
 20
350.81
 11
345.09
 21
363.85
  0
LINE
  8
L-1-1
 10
319.44
 20
350.18
 11
341.15
 21
363.88
  0
LINE
  8
L-1-1
 10
341.44
 20
349.03
 11
347.94
 21
352.78
  0
LINE
  8
L-1-1
 10
339.44
 20
350.18
 11
347.94
 21
355.67
  0
LINE
  8
L-1-1
 10
305.30
 20
364.89
 11
305.30
 21
331.13
  0
LINE
  8
L-1-1
 10
305.75
 20
333.58
 11
305.75
 21
360.92
  0
LINE
  8
L-1-1
 10
304.85
 20
333.58
 11
304.85
 21
360.92
  0
LINE
  8
L-1-1
 10
305.69
 20
333.58
 11
305.69
 21
360.92
  0
LINE
  8
L-1-1
 10
304.91
 20
363.55
 11
304.91
 21
361.18
  0
LINE
  8
L-1-1
 10
305.75
 20
363.55
 11
305.58
 21
363.55
  0
LINE
  8
L-1-1
 10
303.63
 20
333.05
 11
306.27
 21
333.05
  0
LINE
  8
L-1-1
 10
304.82
 20
333.72
 11
304.85
 21
333.72
  0
LINE
  8
L-1-1
 10
304.82
 20
332.55
 11
305.78
 21
332.55
  0
LINE
  8
L-1-1
 10
304.80
 20
333.22
 11
305.80
 21
333.22
  0
LINE
  8
L-1-1
 10
304.80
 20
332.87
 11
305.80
 21
332.87
  0
LINE
  8
L-1-1
 10
304.85
 20
333.58
 11
305.75
 21
333.58
  0
LINE
  8
L-1-1
 10
304.80
 20
333.70
 11
304.80
 21
333.22
  0
LINE
  8
L-1-1
 10
305.80
 20
333.70
 11
305.80
 21
333.22
  0
ARC
  8
L-1-1
 10
304.82
 20
332.57
 40
0.02
 50
180.00
 51
270.00
  0
ARC
  8
L-1-1
 10
305.78
 20
332.57
 40
0.02
 50
270.00
 51
0.00
  0
ARC
  8
L-1-1
 10
305.78
 20
333.70
 40
0.02
 50
0.00
 51
90.00
  0
ARC
  8
L-1-1
 10
304.82
 20
333.70
 40
0.02
 50
90.00
 51
180.00
  0
LINE
  8
L-1-1
 10
305.75
 20
333.72
 11
305.78
 21
333.72
  0
LINE
  8
L-1-1
 10
304.04
 20
361.05
 11
306.16
 21
361.05
  0
LINE
  8
L-1-1
 10
304.85
 20
359.07
 11
304.91
 21
359.07
  0
LINE
  8
L-1-1
 10
304.85
 20
361.20
 11
304.91
 21
361.20
  0
LINE
  8
L-1-1
 10
305.69
 20
359.07
 11
305.75
 21
359.07
  0
LINE
  8
L-1-1
 10
305.69
 20
361.20
 11
305.75
 21
361.20
  0
LINE
  8
L-1-1
 10
305.02
 20
363.55
 11
304.85
 21
363.55
  0
LINE
  8
L-1-1
 10
305.75
 20
361.18
 11
305.75
 21
363.55
  0
LINE
  8
L-1-1
 10
305.69
 20
361.18
 11
305.69
 21
363.55
  0
LINE
  8
L-1-1
 10
304.91
 20
360.92
 11
304.91
 21
333.58
  0
LINE
  8
L-1-1
 10
304.85
 20
361.18
 11
304.85
 21
363.55
  0
LINE
  8
L-1-1
 10
305.80
 20
332.88
 11
305.80
 21
332.57
  0
LINE
  8
L-1-1
 10
304.80
 20
332.88
 11
304.80
 21
332.57
  0
LINE
  8
L-1-1
 10
307.46
 20
333.54
 11
307.46
 21
333.46
  0
LINE
  8
L-1-1
 10
307.46
 20
332.30
 11
307.46
 21
332.23
  0
LINE
  8
L-1-1
 10
307.46
 20
332.23
 11
303.79
 21
332.23
  0
LINE
  8
L-1-1
 10
307.58
 20
332.88
 11
306.31
 21
332.88
  0
LINE
  8
L-1-1
 10
306.94
 20
334.16
 11
306.94
 21
331.97
  0
CIRCLE
  8
L-1-1
 10
306.94
 20
332.88
 40
0.57
  0
LINE
  8
L-1-1
 10
304.70
 20
333.82
 11
304.85
 21
333.82
  0
LINE
  8
L-1-1
 10
304.62
 20
333.89
 11
304.85
 21
333.89
  0
LINE
  8
L-1-1
 10
304.62
 20
332.30
 11
304.62
 21
333.89
  0
LINE
  8
L-1-1
 10
303.79
 20
332.23
 11
303.79
 21
332.30
  0
LINE
  8
L-1-1
 10
307.46
 20
333.46
 11
305.98
 21
333.46
  0
LINE
  8
L-1-1
 10
307.46
 20
333.54
 11
305.98
 21
333.54
  0
LINE
  8
L-1-1
 10
307.46
 20
332.30
 11
303.79
 21
332.30
  0
LINE
  8
L-1-1
 10
304.70
 20
332.30
 11
304.70
 21
333.89
  0
LINE
  8
L-1-1
 10
305.90
 20
333.82
 11
305.75
 21
333.82
  0
LINE
  8
L-1-1
 10
305.98
 20
333.89
 11
305.75
 21
333.89
  0
LINE
  8
L-1-1
 10
305.98
 20
332.30
 11
305.98
 21
333.89
  0
LINE
  8
L-1-1
 10
305.90
 20
332.30
 11
305.90
 21
333.89
  0
LINE
  8
L-1-1
 10
304.62
 20
332.70
 11
304.62
 21
332.88
  0
LINE
  8
L-1-1
 10
304.62
 20
333.22
 11
304.62
 21
333.40
  0
LINE
  8
L-1-1
 10
306.85
 20
362.70
 11
307.04
 21
362.70
  0
LINE
  8
L-1-1
 10
307.19
 20
364.54
 11
307.19
 21
364.70
  0
LINE
  8
L-1-1
 10
307.16
 20
364.72
 11
306.73
 21
364.72
  0
LINE
  8
L-1-1
 10
306.69
 20
364.70
 11
306.69
 21
364.54
  0
LINE
  8
L-1-1
 10
307.07
 20
364.70
 11
307.07
 21
364.54
  0
LINE
  8
L-1-1
 10
306.82
 20
364.70
 11
306.82
 21
364.54
  0
LINE
  8
L-1-1
 10
307.08
 20
364.52
 11
307.08
 21
363.17
  0
LINE
  8
L-1-1
 10
306.81
 20
364.52
 11
306.81
 21
363.17
  0
LINE
  8
L-1-1
 10
307.16
 20
364.72
 11
307.19
 21
364.70
  0
LINE
  8
L-1-1
 10
306.73
 20
364.72
 11
306.69
 21
364.70
  0
ARC
  8
L-1-1
 10
306.76
 20
364.61
 40
0.11
 50
55.62
 51
90.00
  0
ARC
  8
L-1-1
 10
307.13
 20
364.61
 40
0.11
 50
90.00
 51
124.38
  0
ARC
  8
L-1-1
 10
306.94
 20
364.31
 40
0.41
 50
72.41
 51
107.59
  0
ARC
  8
L-1-1
 10
307.09
 20
364.52
 40
0.01
 50
90.00
 51
180.00
  0
ARC
  8
L-1-1
 10
306.80
 20
364.52
 40
0.01
 50
0.00
 51
90.00
  0
LINE
  8
L-1-1
 10
306.81
 20
362.74
 11
307.08
 21
362.74
  0
LINE
  8
L-1-1
 10
307.08
 20
362.74
 11
307.04
 21
362.70
  0
LINE
  8
L-1-1
 10
306.81
 20
362.74
 11
306.85
 21
362.70
  0
LINE
  8
L-1-1
 10
307.08
 20
363.27
 11
306.81
 21
363.27
  0
LINE
  8
L-1-1
 10
307.05
 20
363.27
 11
307.05
 21
363.17
  0
LINE
  8
L-1-1
 10
306.83
 20
363.27
 11
306.83
 21
363.17
  0
LINE
  8
L-1-1
 10
307.05
 20
363.27
 11
307.08
 21
363.35
  0
LINE
  8
L-1-1
 10
306.83
 20
363.27
 11
306.81
 21
363.35
  0
LINE
  8
L-1-1
 10
307.08
 20
362.96
 11
307.08
 21
362.74
  0
LINE
  8
L-1-1
 10
306.81
 20
362.96
 11
306.81
 21
362.74
  0
LINE
  8
L-1-1
 10
307.05
 20
362.96
 11
307.05
 21
362.72
  0
LINE
  8
L-1-1
 10
306.83
 20
362.96
 11
306.83
 21
362.72
  0
LINE
  8
L-1-1
 10
307.23
 20
363.23
 11
307.23
 21
363.17
  0
LINE
  8
L-1-1
 10
307.23
 20
363.17
 11
306.66
 21
363.17
  0
LINE
  8
L-1-1
 10
306.66
 20
363.17
 11
306.66
 21
363.23
  0
LINE
  8
L-1-1
 10
307.09
 20
363.17
 11
307.09
 21
363.23
  0
LINE
  8
L-1-1
 10
306.79
 20
363.17
 11
306.79
 21
363.23
  0
LINE
  8
L-1-1
 10
307.19
 20
363.17
 11
307.19
 21
362.98
  0
LINE
  8
L-1-1
 10
307.16
 20
362.96
 11
306.73
 21
362.96
  0
LINE
  8
L-1-1
 10
306.69
 20
362.98
 11
306.69
 21
363.17
  0
LINE
  8
L-1-1
 10
306.82
 20
362.98
 11
306.82
 21
363.17
  0
LINE
  8
L-1-1
 10
307.07
 20
362.98
 11
307.07
 21
363.17
  0
LINE
  8
L-1-1
 10
306.69
 20
362.98
 11
306.73
 21
362.96
  0
LINE
  8
L-1-1
 10
307.16
 20
362.96
 11
307.19
 21
362.98
  0
ARC
  8
L-1-1
 10
306.76
 20
363.07
 40
0.11
 50
270.00
 51
304.38
  0
ARC
  8
L-1-1
 10
306.94
 20
363.37
 40
0.41
 50
252.41
 51
287.59
  0
ARC
  8
L-1-1
 10
307.13
 20
363.07
 40
0.11
 50
235.62
 51
270.00
  0
LINE
  8
L-1-1
 10
307.47
 20
363.23
 11
307.47
 21
363.30
  0
LINE
  8
L-1-1
 10
307.47
 20
363.23
 11
307.08
 21
363.23
  0
ARC
  8
L-1-1
 10
306.40
 20
363.33
 40
0.10
 50
180.00
 51
270.00
  0
LINE
  8
L-1-1
 10
307.47
 20
363.30
 11
307.08
 21
363.30
  0
ARC
  8
L-1-1
 10
306.39
 20
363.32
 40
0.02
 50
180.00
 51
270.00
  0
LINE
  8
L-1-1
 10
307.47
 20
364.46
 11
307.47
 21
364.54
  0
LINE
  8
L-1-1
 10
307.47
 20
364.46
 11
305.58
 21
364.46
  0
ARC
  8
L-1-1
 10
304.56
 20
364.44
 40
0.02
 50
90.00
 51
180.00
  0
LINE
  8
L-1-1
 10
306.30
 20
363.32
 11
306.30
 21
364.46
  0
LINE
  8
L-1-1
 10
306.38
 20
363.32
 11
306.38
 21
364.46
  0
LINE
  8
L-1-1
 10
307.47
 20
364.54
 11
305.58
 21
364.54
  0
ARC
  8
L-1-1
 10
304.57
 20
364.44
 40
0.10
 50
90.00
 51
180.00
  0
LINE
  8
L-1-1
 10
304.54
 20
364.38
 11
304.63
 21
364.46
  0
LINE
  8
L-1-1
 10
304.54
 20
363.20
 11
304.47
 21
363.20
  0
LINE
  8
L-1-1
 10
304.54
 20
364.45
 11
304.54
 21
363.20
  0
LINE
  8
L-1-1
 10
304.47
 20
364.44
 11
304.47
 21
363.20
  0
LINE
  8
L-1-1
 10
306.30
 20
363.39
 11
305.75
 21
363.39
  0
LINE
  8
L-1-1
 10
307.58
 20
363.88
 11
306.31
 21
363.88
  0
LINE
  8
L-1-1
 10
306.94
 20
362.64
 11
306.94
 21
364.98
  0
LINE
  8
L-1-1
 10
307.09
 20
363.23
 11
307.09
 21
363.30
  0
LINE
  8
L-1-1
 10
306.79
 20
363.23
 11
306.79
 21
363.30
  0
LINE
  8
L-4-1
 10
307.09
 20
364.46
 11
307.09
 21
364.54
  0
CIRCLE
  8
L-1-1
 10
306.94
 20
363.88
 40
0.57
  0
LINE
  8
L-4-1
 10
306.79
 20
364.46
 11
306.79
 21
364.54
  0
LINE
  8
L-1-1
 10
305.60
 20
364.46
 11
305.60
 21
364.54
  0
LINE
  8
L-1-1
 10
305.00
 20
364.46
 11
305.00
 21
364.54
  0
LINE
  8
L-1-1
 10
305.02
 20
364.46
 11
304.56
 21
364.46
  0
LINE
  8
L-1-1
 10
305.02
 20
364.54
 11
304.57
 21
364.54
  0
LINE
  8
L-1-1
 10
306.81
 20
363.30
 11
306.39
 21
363.30
  0
LINE
  8
L-1-1
 10
306.81
 20
363.23
 11
306.40
 21
363.23
  0
LINE
  8
L-1-1
 10
304.85
 20
363.39
 11
304.54
 21
363.39
  0
LINE
  8
L-1-1
 10
304.73
 20
357.53
 11
304.73
 21
361.55
  0
LINE
  8
L-1-1
 10
305.87
 20
357.53
 11
305.87
 21
361.55
  0
LINE
  8
L-1-1
 10
305.87
 20
361.55
 11
305.75
 21
361.55
  0
LINE
  8
L-1-1
 10
304.47
 20
357.38
 11
304.85
 21
357.38
  0
LINE
  8
L-1-1
 10
305.79
 20
357.53
 11
305.79
 21
360.92
  0
LINE
  8
L-1-1
 10
304.81
 20
357.53
 11
304.81
 21
360.92
  0
LINE
  8
L-1-1
 10
304.47
 20
357.38
 11
304.47
 21
357.53
  0
LINE
  8
L-1-1
 10
306.13
 20
357.38
 11
306.13
 21
357.53
  0
LINE
  8
L-1-1
 10
306.13
 20
357.53
 11
305.75
 21
357.53
  0
LINE
  8
L-1-1
 10
304.73
 20
361.20
 11
304.81
 21
361.20
  0
LINE
  8
L-1-1
 10
304.73
 20
360.90
 11
304.81
 21
360.90
  0
LINE
  8
L-1-1
 10
305.79
 20
360.90
 11
305.87
 21
360.90
  0
LINE
  8
L-1-1
 10
305.79
 20
361.20
 11
305.87
 21
361.20
  0
LINE
  8
L-1-1
 10
304.85
 20
361.55
 11
304.73
 21
361.55
  0
LINE
  8
L-1-1
 10
305.79
 20
361.18
 11
305.79
 21
361.55
  0
LINE
  8
L-1-1
 10
304.81
 20
361.18
 11
304.81
 21
361.55
  0
LINE
  8
L-1-1
 10
304.85
 20
357.53
 11
304.47
 21
357.53
  0
LINE
  8
L-1-1
 10
305.75
 20
357.38
 11
306.13
 21
357.38
  0
LINE
  8
L-1-1
 10
305.87
 20
360.80
 11
306.03
 21
360.80
  0
LINE
  8
L-1-1
 10
306.05
 20
360.83
 11
306.05
 21
361.27
  0
LINE
  8
L-1-1
 10
306.03
 20
361.30
 11
305.87
 21
361.30
  0
LINE
  8
L-1-1
 10
306.03
 20
360.92
 11
305.87
 21
360.92
  0
LINE
  8
L-1-1
 10
306.03
 20
361.17
 11
305.87
 21
361.17
  0
LINE
  8
L-1-1
 10
305.85
 20
360.92
 11
304.73
 21
360.92
  0
LINE
  8
L-1-1
 10
305.85
 20
361.18
 11
304.73
 21
361.18
  0
LINE
  8
L-1-1
 10
306.05
 20
360.83
 11
306.03
 21
360.80
  0
LINE
  8
L-1-1
 10
306.05
 20
361.27
 11
306.03
 21
361.30
  0
ARC
  8
L-1-1
 10
305.94
 20
361.24
 40
0.11
 50
325.62
 51
0.00
  0
ARC
  8
L-1-1
 10
305.94
 20
360.86
 40
0.11
 50
0.00
 51
34.38
  0
ARC
  8
L-1-1
 10
305.64
 20
361.05
 40
0.41
 50
342.41
 51
17.59
  0
ARC
  8
L-1-1
 10
305.85
 20
360.90
 40
0.01
 50
0.00
 51
90.00
  0
ARC
  8
L-1-1
 10
305.85
 20
361.20
 40
0.01
 50
270.00
 51
0.00
  0
LINE
  8
L-1-1
 10
305.18
 20
364.70
 11
305.42
 21
364.70
  0
LINE
  8
L-1-1
 10
305.67
 20
363.02
 11
305.67
 21
362.72
  0
LINE
  8
L-1-1
 10
305.53
 20
360.53
 11
305.07
 21
360.53
  0
LINE
  8
L-1-1
 10
304.93
 20
362.72
 11
304.93
 21
363.02
  0
LINE
  8
L-1-1
 10
304.95
 20
362.70
 11
305.65
 21
362.70
  0
LINE
  8
L-1-1
 10
304.95
 20
363.03
 11
305.65
 21
363.03
  0
LINE
  8
L-1-1
 10
305.58
 20
363.03
 11
305.58
 21
364.53
  0
LINE
  8
L-1-1
 10
305.55
 20
360.55
 11
305.55
 21
360.92
  0
LINE
  8
L-1-1
 10
305.05
 20
360.55
 11
305.05
 21
360.92
  0
LINE
  8
L-1-1
 10
305.02
 20
363.03
 11
305.02
 21
364.53
  0
ARC
  8
L-1-1
 10
304.95
 20
363.02
 40
0.02
 50
90.00
 51
180.00
  0
ARC
  8
L-1-1
 10
305.65
 20
363.02
 40
0.02
 50
0.00
 51
90.00
  0
ARC
  8
L-1-1
 10
305.65
 20
362.72
 40
0.02
 50
270.00
 51
0.00
  0
ARC
  8
L-1-1
 10
304.95
 20
362.72
 40
0.02
 50
180.00
 51
270.00
  0
ARC
  8
L-1-1
 10
305.53
 20
360.55
 40
0.02
 50
270.00
 51
0.00
  0
ARC
  8
L-1-1
 10
305.07
 20
360.55
 40
0.02
 50
180.00
 51
270.00
  0
ARC
  8
L-1-1
 10
305.18
 20
364.53
 40
0.17
 50
90.00
 51
180.00
  0
ARC
  8
L-1-1
 10
305.42
 20
364.53
 40
0.17
 50
0.00
 51
90.00
  0
LINE
  8
L-1-1
 10
305.05
 20
360.88
 11
305.55
 21
360.88
  0
LINE
  8
L-4-1
 10
305.05
 20
361.18
 11
305.55
 21
361.18
  0
LINE
  8
L-1-1
 10
305.55
 20
361.18
 11
305.55
 21
362.70
  0
LINE
  8
L-1-1
 10
305.05
 20
361.18
 11
305.05
 21
362.70
  0
LINE
  8
L-1-1
 10
305.61
 20
361.01
 11
305.61
 21
362.84
  0
CIRCLE
  8
L-1-1
 10
304.99
 20
361.22
 40
0.03
  0
LINE
  8
L-1-1
 10
304.99
 20
361.12
 11
304.99
 21
362.84
  0
CIRCLE
  8
L-1-1
 10
305.61
 20
361.33
 40
0.03
  0
CIRCLE
  8
L-1-1
 10
304.99
 20
361.44
 40
0.03
  0
CIRCLE
  8
L-1-1
 10
305.61
 20
361.56
 40
0.03
  0
CIRCLE
  8
L-1-1
 10
304.99
 20
361.67
 40
0.03
  0
CIRCLE
  8
L-1-1
 10
305.61
 20
361.79
 40
0.03
  0
CIRCLE
  8
L-1-1
 10
304.99
 20
361.90
 40
0.03
  0
CIRCLE
  8
L-1-1
 10
305.61
 20
362.01
 40
0.03
  0
CIRCLE
  8
L-1-1
 10
304.99
 20
362.13
 40
0.03
  0
CIRCLE
  8
L-1-1
 10
305.61
 20
362.24
 40
0.03
  0
CIRCLE
  8
L-1-1
 10
304.99
 20
362.36
 40
0.03
  0
CIRCLE
  8
L-1-1
 10
304.99
 20
362.59
 40
0.03
  0
CIRCLE
  8
L-1-1
 10
305.61
 20
362.47
 40
0.03
  0
LINE
  8
L-1-1
 10
305.61
 20
361.36
 11
305.55
 21
361.37
  0
LINE
  8
L-1-1
 10
305.60
 20
361.30
 11
305.55
 21
361.31
  0
LINE
  8
L-1-1
 10
305.60
 20
361.53
 11
305.55
 21
361.54
  0
LINE
  8
L-1-1
 10
305.00
 20
361.70
 11
305.05
 21
361.69
  0
LINE
  8
L-1-1
 10
305.60
 20
361.76
 11
305.55
 21
361.77
  0
LINE
  8
L-1-1
 10
305.00
 20
361.93
 11
305.05
 21
361.92
  0
LINE
  8
L-1-1
 10
305.60
 20
362.67
 11
305.46
 21
362.70
  0
ARC
  8
L-1-1
 10
305.61
 20
362.70
 40
0.03
 50
180.00
 51
0.00
  0
LINE
  8
L-1-1
 10
305.55
 20
361.82
 11
305.61
 21
361.81
  0
LINE
  8
L-1-1
 10
305.55
 20
361.60
 11
305.61
 21
361.58
  0
LINE
  8
L-1-1
 10
305.05
 20
361.63
 11
304.99
 21
361.65
  0
LINE
  8
L-1-1
 10
305.05
 20
361.46
 11
305.00
 21
361.47
  0
LINE
  8
L-1-1
 10
305.05
 20
361.41
 11
304.99
 21
361.42
  0
LINE
  8
L-1-1
 10
305.05
 20
361.23
 11
305.00
 21
361.24
  0
LINE
  8
L-1-1
 10
305.05
 20
361.86
 11
304.99
 21
361.87
  0
LINE
  8
L-1-1
 10
137.64
 20
164.40
 11
136.31
 21
164.40
  0
LINE
  8
L-1-1
 10
138.58
 20
169.57
 11
137.64
 21
164.40
  0
LINE
  8
L-1-1
 10
140.42
 20
170.44
 11
141.38
 21
168.54
  0
LINE
  8
L-1-1
 10
140.42
 20
170.44
 11
136.31
 21
170.44
  0
LINE
  8
L-1-1
 10
141.38
 20
153.10
 11
136.31
 21
153.10
  0
LINE
  8
L-1-1
 10
138.58
 20
170.40
 11
138.58
 21
169.57
  0
LINE
  8
L-1-1
 10
138.48
 20
169.56
 11
138.48
 21
169.99
  0
LINE
  8
L-1-1
 10
138.58
 20
169.56
 11
138.48
 21
169.56
  0
LINE
  8
L-1-1
 10
136.00
 20
170.40
 11
138.58
 21
170.40
  0
LINE
  8
L-1-1
 10
136.31
 20
170.44
 11
136.31
 21
170.40
  0
LINE
  8
L-1-1
 10
136.00
 20
170.29
 11
136.00
 21
170.40
  0
LINE
  8
L-1-1
 10
149.26
 20
140.39
 11
149.26
 21
146.72
  0
LINE
  8
L-1-1
 10
149.26
 20
146.72
 11
148.51
 21
146.72
  0
LINE
  8
L-1-1
 10
148.51
 20
146.72
 11
148.51
 21
140.39
  0
LINE
  8
L-1-1
 10
148.51
 20
140.39
 11
149.26
 21
140.39
  0
LINE
  8
L-1-1
 10
151.65
 20
146.72
 11
149.48
 21
146.72
  0
LINE
  8
L-1-1
 10
149.48
 20
146.72
 11
149.48
 21
146.14
  0
LINE
  8
L-1-1
 10
149.48
 20
146.14
 11
151.48
 21
146.14
  0
LINE
  8
L-1-1
 10
152.23
 20
145.83
 11
152.23
 21
146.14
  0
LINE
  8
L-1-1
 10
151.65
 20
145.83
 11
151.65
 21
145.97
  0
ARC
  8
L-1-1
 10
151.48
 20
145.97
 40
0.17
 50
0.00
 51
90.00
  0
ARC
  8
L-1-1
 10
151.73
 20
146.22
 40
0.50
 50
0.00
 51
90.00
  0
LINE
  8
L-1-1
 10
151.65
 20
145.83
 11
152.23
 21
145.83
  0
LINE
  8
L-1-1
 10
124.94
 20
328.54
 11
124.94
 21
369.44
  0
LINE
  8
L-1-1
 10
64.94
 20
328.54
 11
64.94
 21
369.44
  0
LINE
  8
L-1-1
 10
63.18
 20
363.38
 11
130.02
 21
363.38
  0
LINE
  8
L-1-1
 10
63.18
 20
333.38
 11
130.02
 21
333.38
  0
LINE
  8
L-1-1
 10
127.28
 20
327.85
 11
127.28
 21
365.61
  0
LINE
  8
L-1-1
 10
126.47
 20
329.52
 11
126.47
 21
332.22
  0
LINE
  8
L-1-1
 10
128.09
 20
329.52
 11
128.09
 21
332.22
  0
LINE
  8
L-1-1
 10
125.35
 20
354.38
 11
130.90
 21
354.38
  0
LINE
  8
L-1-1
 10
125.94
 20
342.38
 11
128.44
 21
342.38
  0
LINE
  8
L-1-1
 10
128.44
 20
353.22
 11
125.94
 21
353.22
  0
LINE
  8
L-1-1
 10
128.44
 20
355.55
 11
125.94
 21
355.55
  0
LINE
  8
L-1-1
 10
125.94
 20
344.72
 11
128.44
 21
344.72
  0
LINE
  8
L-1-1
 10
125.94
 20
342.38
 11
125.94
 21
344.72
  0
LINE
  8
L-1-1
 10
130.90
 20
343.55
 11
125.35
 21
343.55
  0
LINE
  8
L-1-1
 10
125.94
 20
353.22
 11
125.94
 21
355.55
  0
LINE
  8
L-1-1
 10
128.09
 20
344.72
 11
128.09
 21
353.22
  0
LINE
  8
L-1-1
 10
128.09
 20
355.55
 11
128.09
 21
362.22
  0
CIRCLE
  8
L-1-1
 10
124.94
 20
363.38
 40
0.71
  0
CIRCLE
  8
L-1-1
 10
124.94
 20
333.38
 40
0.71
  0
CIRCLE
  8
L-1-1
 10
64.94
 20
333.38
 40
0.71
  0
CIRCLE
  8
L-1-1
 10
64.94
 20
363.38
 40
0.71
  0
LINE
  8
L-1-1
 10
124.38
 20
333.38
 11
124.38
 21
363.38
  0
LINE
  8
L-1-1
 10
125.51
 20
333.38
 11
125.51
 21
363.38
  0
LINE
  8
L-1-1
 10
124.94
 20
332.82
 11
64.94
 21
332.82
  0
LINE
  8
L-1-1
 10
124.94
 20
333.95
 11
64.94
 21
333.95
  0
LINE
  8
L-1-1
 10
124.94
 20
362.82
 11
64.94
 21
362.82
  0
LINE
  8
L-1-1
 10
124.94
 20
363.95
 11
64.94
 21
363.95
  0
LINE
  8
L-1-1
 10
65.51
 20
363.38
 11
65.51
 21
333.38
  0
LINE
  8
L-1-1
 10
64.38
 20
363.38
 11
64.38
 21
333.38
  0
LINE
  8
L-1-1
 10
126.47
 20
344.72
 11
126.47
 21
353.22
  0
LINE
  8
L-1-1
 10
126.47
 20
355.55
 11
126.47
 21
362.22
  0
LINE
  8
L-1-1
 10
128.44
 20
364.55
 11
125.94
 21
364.55
  0
LINE
  8
L-1-1
 10
125.94
 20
362.22
 11
125.94
 21
364.55
  0
LINE
  8
L-1-1
 10
128.44
 20
362.22
 11
125.94
 21
362.22
  0
LINE
  8
L-1-1
 10
125.35
 20
363.38
 11
130.90
 21
363.38
  0
LINE
  8
L-1-1
 10
128.44
 20
362.22
 11
128.44
 21
364.55
  0
LINE
  8
L-1-1
 10
126.47
 20
364.55
 11
126.47
 21
366.14
  0
LINE
  8
L-1-1
 10
128.09
 20
364.55
 11
128.09
 21
366.14
  0
LINE
  8
L-1-1
 10
128.44
 20
332.22
 11
125.94
 21
332.22
  0
LINE
  8
L-1-1
 10
125.94
 20
334.55
 11
125.94
 21
332.22
  0
LINE
  8
L-1-1
 10
128.44
 20
334.55
 11
125.94
 21
334.55
  0
LINE
  8
L-1-1
 10
128.44
 20
334.55
 11
128.44
 21
332.22
  0
LINE
  8
L-1-1
 10
126.47
 20
334.55
 11
126.47
 21
342.38
  0
LINE
  8
L-1-1
 10
128.09
 20
334.55
 11
128.09
 21
342.38
  0
LINE
  8
L-1-1
 10
124.38
 20
332.82
 11
64.94
 21
362.82
  0
LINE
  8
L-1-1
 10
151.65
 20
144.01
 11
149.48
 21
144.01
  0
LINE
  8
L-1-1
 10
149.48
 20
144.01
 11
149.48
 21
144.59
  0
LINE
  8
L-1-1
 10
149.48
 20
144.59
 11
151.48
 21
144.59
  0
LINE
  8
L-1-1
 10
152.23
 20
144.89
 11
152.23
 21
144.59
  0
LINE
  8
L-1-1
 10
151.65
 20
144.89
 11
151.65
 21
144.76
  0
ARC
  8
L-1-1
 10
151.48
 20
144.76
 40
0.17
 50
270.00
 51
0.00
  0
ARC
  8
L-1-1
 10
151.73
 20
144.51
 40
0.50
 50
270.00
 51
0.00
  0
LINE
  8
L-1-1
 10
151.65
 20
144.89
 11
152.23
 21
144.89
  0
LINE
  8
L-1-1
 10
151.07
 20
143.02
 11
150.53
 21
143.02
  0
LINE
  8
L-1-1
 10
150.69
 20
140.39
 11
152.17
 21
140.39
  0
LINE
  8
L-1-1
 10
150.69
 20
140.39
 11
150.53
 21
143.02
  0
LINE
  8
L-1-1
 10
151.07
 20
143.02
 11
152.17
 21
140.39
  0
LINE
  8
L-1-1
 10
338.23
 20
140.39
 11
338.98
 21
140.39
  0
LINE
  8
L-1-1
 10
338.98
 20
140.39
 11
338.98
 21
146.72
  0
LINE
  8
L-1-1
 10
338.98
 20
146.72
 11
338.23
 21
146.72
  0
LINE
  8
L-1-1
 10
338.23
 20
146.72
 11
338.23
 21
140.39
  0
LINE
  8
L-1-1
 10
339.20
 20
146.72
 11
339.20
 21
146.14
  0
LINE
  8
L-1-1
 10
339.20
 20
146.14
 11
341.20
 21
146.14
  0
ARC
  8
L-1-1
 10
341.20
 20
145.97
 40
0.17
 50
0.00
 51
90.00
  0
LINE
  8
L-1-1
 10
341.36
 20
146.72
 11
339.20
 21
146.72
  0
ARC
  8
L-1-1
 10
341.45
 20
146.22
 40
0.50
 50
0.00
 51
90.00
  0
LINE
  8
L-1-1
 10
341.36
 20
145.83
 11
341.95
 21
145.83
  0
LINE
  8
L-1-1
 10
341.95
 20
145.83
 11
341.95
 21
146.14
  0
LINE
  8
L-1-1
 10
341.36
 20
145.83
 11
341.36
 21
145.97
  0
LINE
  8
L-1-1
 10
341.36
 20
144.01
 11
339.20
 21
144.01
  0
LINE
  8
L-1-1
 10
339.20
 20
144.01
 11
339.20
 21
144.59
  0
LINE
  8
L-1-1
 10
339.20
 20
144.59
 11
341.20
 21
144.59
  0
LINE
  8
L-1-1
 10
341.95
 20
144.89
 11
341.95
 21
144.59
  0
LINE
  8
L-1-1
 10
341.36
 20
144.89
 11
341.36
 21
144.76
  0
ARC
  8
L-1-1
 10
341.20
 20
144.76
 40
0.17
 50
270.00
 51
0.00
  0
ARC
  8
L-1-1
 10
341.45
 20
144.51
 40
0.50
 50
270.00
 51
0.00
  0
LINE
  8
L-1-1
 10
341.36
 20
144.89
 11
341.95
 21
144.89
  0
LINE
  8
L-1-1
 10
340.41
 20
140.39
 11
341.96
 21
140.39
  0
LINE
  8
L-1-1
 10
340.79
 20
143.02
 11
340.24
 21
143.02
  0
LINE
  8
L-1-1
 10
340.41
 20
140.39
 11
340.24
 21
143.02
  0
LINE
  8
L-1-1
 10
340.79
 20
143.02
 11
341.96
 21
140.39
  0
LINE
  8
L-1-1
 10
343.28
 20
137.41
 11
343.28
 21
139.74
  0
LINE
  8
L-1-1
 10
346.61
 20
140.74
 11
344.28
 21
140.74
  0
LINE
  8
L-1-1
 10
343.28
 20
139.74
 11
344.28
 21
140.74
  0
LINE
  8
L-1-1
 10
344.28
 20
146.41
 11
346.61
 21
146.41
  0
LINE
  8
L-1-1
 10
343.28
 20
147.41
 11
343.28
 21
149.74
  0
LINE
  8
L-1-1
 10
344.28
 20
146.41
 11
343.28
 21
147.41
  0
LINE
  8
L-1-1
 10
364.94
 20
328.54
 11
364.94
 21
369.44
  0
LINE
  8
L-1-1
 10
424.94
 20
328.54
 11
424.94
 21
369.44
  0
LINE
  8
L-1-1
 10
426.71
 20
363.38
 11
359.87
 21
363.38
  0
LINE
  8
L-1-1
 10
426.71
 20
333.38
 11
359.87
 21
333.38
  0
LINE
  8
L-1-1
 10
362.61
 20
327.85
 11
362.61
 21
365.61
  0
LINE
  8
L-1-1
 10
363.42
 20
329.52
 11
363.42
 21
332.22
  0
LINE
  8
L-1-1
 10
361.80
 20
329.52
 11
361.80
 21
332.22
  0
LINE
  8
L-1-1
 10
364.53
 20
354.38
 11
358.98
 21
354.38
  0
LINE
  8
L-1-1
 10
363.94
 20
342.38
 11
361.44
 21
342.38
  0
LINE
  8
L-1-1
 10
361.44
 20
353.22
 11
363.94
 21
353.22
  0
LINE
  8
L-1-1
 10
361.44
 20
355.55
 11
363.94
 21
355.55
  0
LINE
  8
L-1-1
 10
363.94
 20
344.72
 11
361.44
 21
344.72
  0
LINE
  8
L-1-1
 10
363.94
 20
342.38
 11
363.94
 21
344.72
  0
LINE
  8
L-1-1
 10
358.98
 20
343.55
 11
364.53
 21
343.55
  0
LINE
  8
L-1-1
 10
363.94
 20
353.22
 11
363.94
 21
355.55
  0
LINE
  8
L-1-1
 10
361.80
 20
344.72
 11
361.80
 21
353.22
  0
LINE
  8
L-1-1
 10
361.80
 20
355.55
 11
361.80
 21
362.22
  0
CIRCLE
  8
L-1-1
 10
364.94
 20
363.38
 40
0.71
  0
CIRCLE
  8
L-1-1
 10
364.94
 20
333.38
 40
0.71
  0
CIRCLE
  8
L-1-1
 10
424.94
 20
333.38
 40
0.71
  0
CIRCLE
  8
L-1-1
 10
424.94
 20
363.38
 40
0.71
  0
LINE
  8
L-1-1
 10
365.51
 20
333.38
 11
365.51
 21
363.38
  0
LINE
  8
L-1-1
 10
364.38
 20
333.38
 11
364.38
 21
363.38
  0
LINE
  8
L-1-1
 10
364.94
 20
332.82
 11
424.94
 21
332.82
  0
LINE
  8
L-1-1
 10
364.94
 20
333.95
 11
424.94
 21
333.95
  0
LINE
  8
L-1-1
 10
364.94
 20
362.82
 11
424.94
 21
362.82
  0
LINE
  8
L-1-1
 10
364.94
 20
363.95
 11
424.94
 21
363.95
  0
LINE
  8
L-1-1
 10
424.38
 20
363.38
 11
424.38
 21
333.38
  0
LINE
  8
L-1-1
 10
425.51
 20
363.38
 11
425.51
 21
333.38
  0
LINE
  8
L-1-1
 10
363.42
 20
344.72
 11
363.42
 21
353.22
  0
LINE
  8
L-1-1
 10
363.42
 20
355.55
 11
363.42
 21
362.22
  0
LINE
  8
L-1-1
 10
361.44
 20
364.55
 11
363.94
 21
364.55
  0
LINE
  8
L-1-1
 10
363.94
 20
362.22
 11
363.94
 21
364.55
  0
LINE
  8
L-1-1
 10
361.44
 20
362.22
 11
363.94
 21
362.22
  0
LINE
  8
L-1-1
 10
364.53
 20
363.38
 11
358.98
 21
363.38
  0
LINE
  8
L-1-1
 10
361.44
 20
362.22
 11
361.44
 21
364.55
  0
LINE
  8
L-1-1
 10
363.42
 20
364.55
 11
363.42
 21
366.14
  0
LINE
  8
L-1-1
 10
361.80
 20
364.55
 11
361.80
 21
366.14
  0
LINE
  8
L-1-1
 10
361.44
 20
332.22
 11
363.94
 21
332.22
  0
LINE
  8
L-1-1
 10
363.94
 20
334.55
 11
363.94
 21
332.22
  0
LINE
  8
L-1-1
 10
361.44
 20
334.55
 11
363.94
 21
334.55
  0
LINE
  8
L-1-1
 10
361.44
 20
334.55
 11
361.44
 21
332.22
  0
LINE
  8
L-1-1
 10
363.42
 20
334.55
 11
363.42
 21
342.38
  0
LINE
  8
L-1-1
 10
361.80
 20
334.55
 11
361.80
 21
342.38
  0
LINE
  8
L-1-1
 10
365.51
 20
332.82
 11
424.94
 21
362.82
  0
LINE
  8
L-1-1
 10
326.50
 20
208.47
 11
326.50
 21
207.14
  0
LINE
  8
L-1-1
 10
326.16
 20
208.81
 11
326.50
 21
208.47
  0
LINE
  8
L-1-1
 10
326.50
 20
207.14
 11
322.83
 21
207.14
  0
LINE
  8
L-1-1
 10
326.16
 20
208.81
 11
323.16
 21
208.81
  0
LINE
  8
L-1-1
 10
322.83
 20
208.47
 11
322.83
 21
207.14
  0
LINE
  8
L-1-1
 10
322.83
 20
208.47
 11
323.16
 21
208.81
  0
LINE
  8
L-1-1
 10
325.46
 20
207.10
 11
323.36
 21
207.10
  0
LINE
  8
L-1-1
 10
325.33
 20
206.89
 11
325.33
 21
206.38
  0
LINE
  8
L-1-1
 10
325.18
 20
206.92
 11
325.18
 21
206.34
  0
LINE
  8
L-1-1
 10
325.28
 20
206.38
 11
325.28
 21
206.89
  0
LINE
  8
L-1-1
 10
325.41
 20
206.88
 11
325.49
 21
206.87
  0
LINE
  8
L-1-1
 10
325.33
 20
206.77
 11
325.41
 21
206.76
  0
LINE
  8
L-1-1
 10
325.57
 20
206.86
 11
325.65
 21
206.85
  0
LINE
  8
L-1-1
 10
325.73
 20
206.83
 11
325.90
 21
206.81
  0
LINE
  8
L-1-1
 10
325.49
 20
206.75
 11
325.57
 21
206.74
  0
LINE
  8
L-1-1
 10
325.65
 20
206.73
 11
325.73
 21
206.72
  0
ARC
  8
L-1-1
 10
325.90
 20
206.78
 40
0.03
 50
0.00
 51
82.00
  0
LINE
  8
L-1-1
 10
325.41
 20
207.14
 11
324.98
 21
207.14
  0
LINE
  8
L-1-1
 10
325.18
 20
206.34
 11
323.36
 21
206.34
  0
ARC
  8
L-1-1
 10
325.10
 20
206.43
 40
0.12
 50
226.40
 51
313.60
  0
ARC
  8
L-1-1
 10
323.46
 20
206.39
 40
0.08
 50
216.87
 51
323.13
  0
LINE
  8
L-1-1
 10
323.40
 20
207.10
 11
323.40
 21
207.14
  0
LINE
  8
L-1-1
 10
323.53
 20
207.10
 11
323.53
 21
207.14
  0
LINE
  8
L-1-1
 10
325.41
 20
207.10
 11
325.41
 21
207.14
  0
LINE
  8
L-1-1
 10
324.98
 20
207.10
 11
324.98
 21
207.14
  0
LINE
  8
L-1-1
 10
324.91
 20
207.10
 11
324.91
 21
207.14
  0
LINE
  8
L-1-1
 10
324.84
 20
207.10
 11
324.84
 21
207.14
  0
LINE
  8
L-1-1
 10
324.91
 20
207.14
 11
324.84
 21
207.14
  0
LINE
  8
L-1-1
 10
323.53
 20
207.14
 11
323.40
 21
207.14
  0
LINE
  8
L-1-1
 10
322.35
 20
206.03
 11
322.35
 21
205.83
  0
LINE
  8
L-1-1
 10
321.92
 20
205.77
 11
322.17
 21
205.77
  0
LINE
  8
L-1-1
 10
321.89
 20
206.18
 11
321.89
 21
206.03
  0
LINE
  8
L-1-1
 10
322.20
 20
206.08
 11
322.20
 21
206.03
  0
ARC
  8
L-1-1
 10
323.36
 20
207.07
 40
0.03
 50
90.00
 51
180.00
  0
ARC
  8
L-1-1
 10
322.75
 20
207.04
 40
0.03
 50
90.00
 51
180.00
  0
LINE
  8
L-1-1
 10
322.71
 20
207.04
 11
322.71
 21
206.28
  0
LINE
  8
L-1-1
 10
322.79
 20
206.25
 11
322.79
 21
207.07
  0
LINE
  8
L-1-1
 10
322.83
 20
206.25
 11
322.83
 21
207.07
  0
LINE
  8
L-1-1
 10
322.71
 20
206.53
 11
322.79
 21
206.53
  0
LINE
  8
L-1-1
 10
323.33
 20
207.07
 11
323.33
 21
206.48
  0
LINE
  8
L-1-1
 10
323.46
 20
207.34
 11
323.46
 21
206.87
  0
LINE
  8
L-1-1
 10
323.60
 20
206.34
 11
323.57
 21
206.46
  0
LINE
  8
L-1-1
 10
323.36
 20
206.34
 11
323.33
 21
206.48
  0
LINE
  8
L-1-1
 10
323.33
 20
206.48
 11
323.25
 21
206.25
  0
LINE
  8
L-1-1
 10
321.75
 20
205.83
 11
321.75
 21
206.03
  0
LINE
  8
L-1-1
 10
321.89
 20
206.18
 11
323.25
 21
206.18
  0
LINE
  8
L-1-1
 10
323.20
 20
206.13
 11
321.89
 21
206.13
  0
LINE
  8
L-1-1
 10
321.95
 20
206.22
 11
322.14
 21
206.22
  0
LINE
  8
L-1-1
 10
321.93
 20
206.18
 11
321.95
 21
206.22
  0
LINE
  8
L-1-1
 10
322.16
 20
206.18
 11
322.14
 21
206.22
  0
LINE
  8
L-1-1
 10
323.20
 20
205.98
 11
322.66
 21
205.98
  0
LINE
  8
L-1-1
 10
323.25
 20
205.93
 11
322.65
 21
205.93
  0
LINE
  8
L-1-1
 10
321.89
 20
206.08
 11
322.41
 21
206.08
  0
LINE
  8
L-1-1
 10
322.42
 20
206.13
 11
322.66
 21
205.98
  0
LINE
  8
L-1-1
 10
322.65
 20
205.93
 11
322.41
 21
206.08
  0
CIRCLE
  8
L-1-1
 10
323.33
 20
206.06
 40
0.15
  0
CIRCLE
  8
L-1-1
 10
323.33
 20
206.06
 40
0.05
  0
LINE
  8
L-1-1
 10
323.16
 20
205.87
 11
322.93
 21
205.87
  0
LINE
  8
L-1-1
 10
323.18
 20
205.90
 11
322.91
 21
205.90
  0
LINE
  8
L-1-1
 10
323.11
 20
205.90
 11
323.11
 21
205.93
  0
LINE
  8
L-1-1
 10
322.91
 20
205.90
 11
322.93
 21
205.87
  0
LINE
  8
L-1-1
 10
323.18
 20
205.90
 11
323.16
 21
205.87
  0
LINE
  8
L-1-1
 10
323.01
 20
206.13
 11
323.01
 21
205.98
  0
LINE
  8
L-1-1
 10
322.91
 20
206.13
 11
322.91
 21
205.98
  0
LINE
  8
L-1-1
 10
323.18
 20
206.13
 11
323.18
 21
205.98
  0
LINE
  8
L-1-1
 10
323.20
 20
206.18
 11
323.18
 21
206.22
  0
LINE
  8
L-1-1
 10
322.89
 20
206.18
 11
322.91
 21
206.22
  0
LINE
  8
L-1-1
 10
322.71
 20
207.04
 11
322.75
 21
207.04
  0
LINE
  8
L-1-1
 10
322.75
 20
206.90
 11
322.71
 21
206.90
  0
LINE
  8
L-1-1
 10
322.75
 20
206.94
 11
322.71
 21
206.94
  0
LINE
  8
L-1-1
 10
322.75
 20
206.90
 11
322.75
 21
207.07
  0
LINE
  8
L-1-1
 10
325.33
 20
206.97
 11
325.33
 21
207.32
  0
LINE
  8
L-1-1
 10
322.75
 20
207.07
 11
323.33
 21
207.07
  0
LINE
  8
L-1-1
 10
325.41
 20
206.40
 11
325.41
 21
206.88
  0
LINE
  8
L-1-1
 10
325.49
 20
206.41
 11
325.49
 21
206.87
  0
LINE
  8
L-1-1
 10
325.57
 20
206.42
 11
325.57
 21
206.86
  0
LINE
  8
L-1-1
 10
325.65
 20
206.43
 11
325.65
 21
206.85
  0
LINE
  8
L-1-1
 10
325.73
 20
206.44
 11
325.73
 21
206.83
  0
LINE
  8
L-1-1
 10
325.93
 20
206.50
 11
325.93
 21
206.78
  0
LINE
  8
L-1-1
 10
325.46
 20
206.89
 11
324.26
 21
206.89
  0
LINE
  8
L-1-1
 10
325.46
 20
206.89
 11
325.46
 21
207.10
  0
LINE
  8
L-1-1
 10
325.33
 20
206.50
 11
325.41
 21
206.51
  0
LINE
  8
L-1-1
 10
325.41
 20
206.40
 11
325.49
 21
206.41
  0
LINE
  8
L-1-1
 10
325.49
 20
206.53
 11
325.57
 21
206.54
  0
LINE
  8
L-1-1
 10
325.57
 20
206.42
 11
325.65
 21
206.43
  0
LINE
  8
L-1-1
 10
325.65
 20
206.55
 11
325.73
 21
206.56
  0
LINE
  8
L-1-1
 10
325.73
 20
206.44
 11
325.90
 21
206.46
  0
ARC
  8
L-1-1
 10
325.90
 20
206.50
 40
0.03
 50
278.00
 51
0.00
  0
LINE
  8
L-1-1
 10
325.33
 20
206.38
 11
325.18
 21
206.38
  0
LINE
  8
L-1-1
 10
323.33
 20
206.46
 11
323.57
 21
206.46
  0
LINE
  8
L-1-1
 10
323.34
 20
206.43
 11
323.57
 21
206.43
  0
LINE
  8
L-1-1
 10
325.18
 20
206.92
 11
324.26
 21
206.92
  0
LINE
  8
L-1-1
 10
324.05
 20
206.82
 11
323.57
 21
206.43
  0
LINE
  8
L-1-1
 10
323.57
 20
206.46
 11
324.04
 21
206.85
  0
ARC
  8
L-1-1
 10
324.26
 20
206.56
 40
0.33
 50
90.00
 51
129.18
  0
ARC
  8
L-1-1
 10
324.26
 20
206.59
 40
0.34
 50
90.00
 51
129.18
  0
LINE
  8
L-1-1
 10
321.75
 20
206.03
 11
322.35
 21
206.03
  0
LINE
  8
L-1-1
 10
322.91
 20
205.93
 11
322.91
 21
205.90
  0
LINE
  8
L-1-1
 10
323.01
 20
205.93
 11
323.01
 21
205.90
  0
LINE
  8
L-1-1
 10
323.11
 20
205.98
 11
323.11
 21
206.13
  0
LINE
  8
L-1-1
 10
323.18
 20
205.93
 11
323.18
 21
205.90
  0
LINE
  8
L-1-1
 10
323.18
 20
206.22
 11
322.91
 21
206.22
  0
LINE
  8
L-1-1
 10
322.91
 20
206.22
 11
322.91
 21
206.25
  0
LINE
  8
L-1-1
 10
323.18
 20
206.22
 11
323.18
 21
206.25
  0
LINE
  8
L-1-1
 10
323.25
 20
206.25
 11
322.75
 21
206.25
  0
ARC
  8
L-1-1
 10
322.75
 20
206.28
 40
0.03
 50
180.00
 51
270.00
  0
LINE
  8
L-1-1
 10
321.75
 20
205.83
 11
322.35
 21
205.83
  0
LINE
  8
L-1-1
 10
321.90
 20
205.79
 11
322.19
 21
205.79
  0
LINE
  8
L-1-1
 10
321.89
 20
205.81
 11
322.20
 21
205.81
  0
LINE
  8
L-1-1
 10
321.92
 20
205.77
 11
321.92
 21
205.79
  0
LINE
  8
L-1-1
 10
322.17
 20
205.77
 11
322.17
 21
205.79
  0
LINE
  8
L-1-1
 10
322.19
 20
205.79
 11
322.19
 21
205.81
  0
LINE
  8
L-1-1
 10
322.20
 20
205.81
 11
322.20
 21
205.83
  0
LINE
  8
L-1-1
 10
321.90
 20
205.79
 11
321.90
 21
205.81
  0
LINE
  8
L-1-1
 10
321.89
 20
205.81
 11
321.89
 21
205.83
  0
LINE
  8
L-1-1
 10
322.83
 20
206.53
 11
323.33
 21
206.53
  0
LINE
  8
L-1-1
 10
322.41
 20
206.20
 11
322.41
 21
205.09
  0
LINE
  8
L-1-1
 10
322.25
 20
206.37
 11
322.41
 21
206.20
  0
LINE
  8
L-1-1
 10
322.62
 20
206.37
 11
321.45
 21
206.37
  0
LINE
  8
L-1-1
 10
322.62
 20
205.31
 11
321.45
 21
205.31
  0
LINE
  8
L-1-1
 10
322.79
 20
205.47
 11
322.79
 21
206.21
  0
LINE
  8
L-1-1
 10
322.79
 20
205.47
 11
322.62
 21
205.31
  0
LINE
  8
L-1-1
 10
322.79
 20
206.21
 11
322.62
 21
206.37
  0
LINE
  8
L-1-1
 10
321.45
 20
205.31
 11
321.45
 21
206.37
  0
LINE
  8
L-1-1
 10
321.60
 20
206.37
 11
321.60
 21
205.31
  0
LINE
  8
L-1-1
 10
321.61
 20
181.11
 11
320.41
 21
181.11
  0
LINE
  8
L-1-1
 10
321.01
 20
180.51
 11
321.01
 21
181.71
  0
LINE
  8
L-1-1
 10
322.18
 20
184.23
 11
323.37
 21
183.78
  0
LINE
  8
L-1-1
 10
321.26
 20
180.67
 11
323.52
 21
181.98
  0
ARC
  8
L-1-1
 10
323.02
 20
182.85
 40
1.00
 50
55.63
 51
69.51
  0
LINE
  8
L-1-1
 10
319.84
 20
184.23
 11
319.36
 21
184.05
  0
LINE
  8
L-1-1
 10
320.70
 20
180.71
 11
319.18
 21
182.23
  0
ARC
  8
L-1-1
 10
319.71
 20
183.11
 40
1.00
 50
122.33
 51
225.00
  0
ARC
  8
L-1-1
 10
321.01
 20
181.11
 40
3.33
 50
69.51
 51
110.49
  0
ARC
  8
L-1-1
 10
321.01
 20
181.11
 40
0.50
 50
225.00
 51
300.00
  0
LINE
  8
L-1-1
 10
323.51
 20
183.72
 11
323.51
 21
181.97
  0
LINE
  8
L-1-1
 10
319.18
 20
183.96
 11
319.18
 21
182.23
  0
LINE
  8
L-1-1
 10
319.25
 20
184.00
 11
319.25
 21
182.16
  0
LINE
  8
L-1-1
 10
323.59
 20
182.02
 11
323.59
 21
183.67
  0
CIRCLE
  8
L-1-1
 10
322.01
 20
183.27
 40
0.23
  0
CIRCLE
  8
L-1-1
 10
322.01
 20
183.27
 40
0.15
  0
LINE
  8
L-1-1
 10
322.37
 20
183.27
 11
321.65
 21
183.27
  0
LINE
  8
L-1-1
 10
322.01
 20
182.91
 11
322.01
 21
183.64
  0
ARC
  8
L-1-1
 10
323.02
 20
182.85
 40
1.00
 50
304.37
 51
55.63
  0
ARC
  8
L-1-1
 10
323.02
 20
182.85
 40
1.00
 50
300.00
 51
304.37
  0
ARC
  8
L-1-1
 10
319.71
 20
183.11
 40
1.00
 50
110.49
 51
122.33
  0
LINE
  8
L-1-1
 10
319.18
 20
182.23
 11
319.00
 21
182.41
  0
CIRCLE
  8
L-1-1
 10
321.01
 20
181.11
 40
0.15
  0
LINE
  8
L-1-1
 10
324.14
 20
182.84
 11
321.88
 21
182.84
  0
LINE
  8
L-1-1
 10
323.01
 20
181.71
 11
323.01
 21
183.97
  0
LINE
  8
L-1-1
 10
320.84
 20
183.11
 11
318.58
 21
183.11
  0
LINE
  8
L-1-1
 10
319.71
 20
181.97
 11
319.71
 21
184.24
  0
LINE
  8
L-1-1
 10
319.90
 20
184.25
 11
321.10
 21
184.68
  0
LINE
  8
L-1-1
 10
321.48
 20
180.94
 11
322.37
 21
183.39
  0
ARC
  8
L-1-1
 10
321.43
 20
183.73
 40
1.00
 50
95.63
 51
109.51
  0
LINE
  8
L-1-1
 10
318.11
 20
182.75
 11
317.86
 21
182.30
  0
LINE
  8
L-1-1
 10
321.03
 20
180.60
 11
318.88
 21
180.79
  0
ARC
  8
L-1-1
 10
318.73
 20
181.81
 40
1.00
 50
162.33
 51
265.00
  0
ARC
  8
L-1-1
 10
321.01
 20
181.11
 40
3.33
 50
109.51
 51
150.49
  0
ARC
  8
L-1-1
 10
321.01
 20
181.11
 40
0.50
 50
265.00
 51
340.00
  0
LINE
  8
L-1-1
 10
321.25
 20
184.72
 11
322.37
 21
183.38
  0
LINE
  8
L-1-1
 10
317.77
 20
182.11
 11
318.88
 21
180.79
  0
LINE
  8
L-1-1
 10
317.80
 20
182.20
 11
318.99
 21
180.78
  0
LINE
  8
L-1-1
 10
322.40
 20
183.46
 11
321.33
 21
184.73
  0
CIRCLE
  8
L-1-1
 10
320.38
 20
183.41
 40
0.23
  0
CIRCLE
  8
L-1-1
 10
320.38
 20
183.41
 40
0.15
  0
LINE
  8
L-1-1
 10
320.66
 20
183.64
 11
320.10
 21
183.18
  0
LINE
  8
L-1-1
 10
320.62
 20
183.13
 11
320.15
 21
183.69
  0
ARC
  8
L-1-1
 10
321.43
 20
183.73
 40
1.00
 50
344.37
 51
95.63
  0
ARC
  8
L-1-1
 10
321.43
 20
183.73
 40
1.00
 50
340.00
 51
344.37
  0
ARC
  8
L-1-1
 10
318.73
 20
181.81
 40
1.00
 50
150.49
 51
162.33
  0
LINE
  8
L-1-1
 10
318.88
 20
180.79
 11
318.64
 21
180.81
  0
LINE
  8
L-1-1
 10
319.90
 20
184.25
 11
321.10
 21
184.68
  0
LINE
  8
L-1-1
 10
321.48
 20
180.94
 11
322.37
 21
183.39
  0
ARC
  8
L-1-1
 10
321.43
 20
183.73
 40
1.00
 50
95.63
 51
109.51
  0
LINE
  8
L-1-1
 10
318.11
 20
182.75
 11
317.86
 21
182.30
  0
LINE
  8
L-1-1
 10
321.03
 20
180.60
 11
318.88
 21
180.79
  0
ARC
  8
L-1-1
 10
318.73
 20
181.81
 40
1.00
 50
162.33
 51
265.00
  0
ARC
  8
L-1-1
 10
321.01
 20
181.11
 40
3.33
 50
109.51
 51
150.49
  0
ARC
  8
L-1-1
 10
321.01
 20
181.11
 40
0.50
 50
265.00
 51
340.00
  0
LINE
  8
L-1-1
 10
321.25
 20
184.72
 11
322.37
 21
183.38
  0
LINE
  8
L-1-1
 10
317.77
 20
182.11
 11
318.88
 21
180.79
  0
LINE
  8
L-1-1
 10
317.80
 20
182.20
 11
318.99
 21
180.78
  0
LINE
  8
L-1-1
 10
322.40
 20
183.46
 11
321.33
 21
184.73
  0
CIRCLE
  8
L-1-1
 10
320.38
 20
183.41
 40
0.23
  0
CIRCLE
  8
L-1-1
 10
320.38
 20
183.41
 40
0.15
  0
LINE
  8
L-1-1
 10
320.66
 20
183.64
 11
320.10
 21
183.18
  0
LINE
  8
L-1-1
 10
320.62
 20
183.13
 11
320.15
 21
183.69
  0
ARC
  8
L-1-1
 10
321.43
 20
183.73
 40
1.00
 50
344.37
 51
95.63
  0
ARC
  8
L-1-1
 10
321.43
 20
183.73
 40
1.00
 50
340.00
 51
344.37
  0
ARC
  8
L-1-1
 10
318.73
 20
181.81
 40
1.00
 50
150.49
 51
162.33
  0
LINE
  8
L-1-1
 10
318.88
 20
180.79
 11
318.64
 21
180.81
  0
LINE
  8
L-1-1
 10
321.61
 20
181.11
 11
320.41
 21
181.11
  0
LINE
  8
L-1-1
 10
321.01
 20
180.51
 11
321.01
 21
181.71
  0
LINE
  8
L-1-1
 10
322.18
 20
184.23
 11
323.37
 21
183.78
  0
LINE
  8
L-1-1
 10
321.26
 20
180.67
 11
323.52
 21
181.98
  0
ARC
  8
L-1-1
 10
323.02
 20
182.85
 40
1.00
 50
55.63
 51
69.51
  0
LINE
  8
L-1-1
 10
319.84
 20
184.23
 11
319.36
 21
184.05
  0
LINE
  8
L-1-1
 10
320.70
 20
180.71
 11
319.18
 21
182.23
  0
ARC
  8
L-1-1
 10
319.71
 20
183.11
 40
1.00
 50
122.33
 51
225.00
  0
ARC
  8
L-1-1
 10
321.01
 20
181.11
 40
3.33
 50
69.51
 51
110.49
  0
ARC
  8
L-1-1
 10
321.01
 20
181.11
 40
0.50
 50
225.00
 51
300.00
  0
LINE
  8
L-1-1
 10
323.51
 20
183.72
 11
323.51
 21
181.97
  0
LINE
  8
L-1-1
 10
319.18
 20
183.96
 11
319.18
 21
182.23
  0
LINE
  8
L-1-1
 10
319.25
 20
184.00
 11
319.25
 21
182.16
  0
LINE
  8
L-1-1
 10
323.59
 20
182.02
 11
323.59
 21
183.67
  0
CIRCLE
  8
L-1-1
 10
322.01
 20
183.27
 40
0.23
  0
CIRCLE
  8
L-1-1
 10
322.01
 20
183.27
 40
0.15
  0
LINE
  8
L-1-1
 10
322.37
 20
183.27
 11
321.65
 21
183.27
  0
LINE
  8
L-1-1
 10
322.01
 20
182.91
 11
322.01
 21
183.64
  0
ARC
  8
L-1-1
 10
323.02
 20
182.85
 40
1.00
 50
304.37
 51
55.63
  0
ARC
  8
L-1-1
 10
323.02
 20
182.85
 40
1.00
 50
300.00
 51
304.37
  0
ARC
  8
L-1-1
 10
319.71
 20
183.11
 40
1.00
 50
110.49
 51
122.33
  0
LINE
  8
L-1-1
 10
319.18
 20
182.23
 11
319.00
 21
182.41
  0
CIRCLE
  8
L-1-1
 10
321.01
 20
181.11
 40
0.15
  0
LINE
  8
L-1-1
 10
324.14
 20
182.84
 11
321.88
 21
182.84
  0
LINE
  8
L-1-1
 10
323.01
 20
181.71
 11
323.01
 21
183.97
  0
LINE
  8
L-1-1
 10
320.84
 20
183.11
 11
318.58
 21
183.11
  0
LINE
  8
L-1-1
 10
319.71
 20
181.97
 11
319.71
 21
184.24
  0
LINE
  8
L-1-1
 10
472.39
 20
110.12
 11
472.39
 21
107.79
  0
LINE
  8
L-1-1
 10
472.39
 20
109.12
 11
474.89
 21
109.12
  0
LINE
  8
L-1-1
 10
474.89
 20
107.79
 11
474.89
 21
109.12
  0
LINE
  8
L-1-1
 10
474.36
 20
108.96
 11
472.91
 21
108.96
  0
LINE
  8
L-1-1
 10
474.62
 20
108.71
 11
474.69
 21
107.91
  0
LINE
  8
L-1-1
 10
472.65
 20
108.71
 11
472.58
 21
107.91
  0
LINE
  8
L-1-1
 10
478.97
 20
107.79
 11
474.83
 21
107.79
  0
ARC
  8
L-1-1
 10
474.36
 20
108.69
 40
0.27
 50
5.00
 51
90.00
  0
ARC
  8
L-1-1
 10
472.91
 20
108.69
 40
0.27
 50
90.00
 51
175.00
  0
LINE
  8
L-1-1
 10
472.45
 20
107.79
 11
472.39
 21
107.79
  0
ARC
  8
L-1-1
 10
474.83
 20
107.92
 40
0.13
 50
185.00
 51
270.00
  0
ARC
  8
L-1-1
 10
472.45
 20
107.92
 40
0.13
 50
270.00
 51
355.00
  0
ARC
  8
L-1-1
 10
472.72
 20
110.12
 40
0.33
 50
90.00
 51
180.00
  0
LINE
  8
L-1-1
 10
472.39
 20
117.29
 11
472.39
 21
121.12
  0
LINE
  8
L-1-1
 10
472.19
 20
119.79
 11
475.09
 21
119.79
  0
LINE
  8
L-1-1
 10
474.89
 20
121.12
 11
474.89
 21
117.29
  0
LINE
  8
L-1-1
 10
474.36
 20
119.96
 11
472.91
 21
119.96
  0
LINE
  8
L-1-1
 10
474.62
 20
120.20
 11
474.69
 21
121.00
  0
LINE
  8
L-1-1
 10
472.65
 20
120.20
 11
472.58
 21
121.00
  0
LINE
  8
L-1-1
 10
478.97
 20
121.12
 11
474.83
 21
121.12
  0
ARC
  8
L-1-1
 10
474.36
 20
120.22
 40
0.27
 50
270.00
 51
355.00
  0
ARC
  8
L-1-1
 10
472.91
 20
120.22
 40
0.27
 50
185.00
 51
270.00
  0
LINE
  8
L-1-1
 10
472.45
 20
121.12
 11
472.39
 21
121.12
  0
ARC
  8
L-1-1
 10
474.83
 20
120.99
 40
0.13
 50
90.00
 51
175.00
  0
ARC
  8
L-1-1
 10
472.45
 20
120.99
 40
0.13
 50
5.00
 51
90.00
  0
LINE
  8
L-1-1
 10
472.19
 20
117.29
 11
475.39
 21
117.29
  0
LINE
  8
L-1-1
 10
475.09
 20
119.79
 11
475.09
 21
117.29
  0
LINE
  8
L-1-1
 10
472.19
 20
119.79
 11
472.19
 21
117.29
  0
LINE
  8
L-1-1
 10
472.39
 20
119.12
 11
474.89
 21
119.12
  0
LINE
  8
L-1-1
 10
473.64
 20
107.63
 11
473.64
 21
120.96
  0
LINE
  8
L-1-1
 10
478.97
 20
121.12
 11
478.97
 21
107.79
  0
LINE
  8
L-1-1
 10
475.72
 20
110.79
 11
475.72
 21
116.96
  0
LINE
  8
L-1-1
 10
472.72
 20
110.46
 11
475.39
 21
110.46
  0
CIRCLE
  8
L-1-1
 10
476.30
 20
120.46
 40
0.23
  0
CIRCLE
  8
L-1-1
 10
476.30
 20
118.62
 40
0.23
  0
CIRCLE
  8
L-1-1
 10
475.45
 20
109.79
 40
0.23
  0
CIRCLE
  8
L-1-1
 10
476.30
 20
108.46
 40
0.23
  0
ARC
  8
L-1-1
 10
475.39
 20
116.96
 40
0.33
 50
0.00
 51
90.00
  0
ARC
  8
L-1-1
 10
475.39
 20
110.79
 40
0.33
 50
270.00
 51
0.00
  0
LINE
  8
L-1-1
 10
476.30
 20
119.89
 11
476.30
 21
121.02
  0
LINE
  8
L-1-1
 10
475.74
 20
120.46
 11
476.87
 21
120.46
  0
LINE
  8
L-1-1
 10
476.30
 20
118.06
 11
476.30
 21
119.19
  0
LINE
  8
L-1-1
 10
475.74
 20
118.62
 11
476.87
 21
118.62
  0
LINE
  8
L-1-1
 10
475.45
 20
109.22
 11
475.45
 21
110.36
  0
LINE
  8
L-1-1
 10
474.89
 20
109.79
 11
476.02
 21
109.79
  0
LINE
  8
L-1-1
 10
476.30
 20
107.89
 11
476.30
 21
109.02
  0
LINE
  8
L-1-1
 10
475.74
 20
108.46
 11
476.87
 21
108.46
  0
LINE
  8
L-1-1
 10
478.63
 20
120.46
 11
479.37
 21
120.46
  0
LINE
  8
L-1-1
 10
478.54
 20
108.46
 11
479.44
 21
108.46
  0
LINE
  8
L-1-1
 10
471.61
 20
115.12
 11
481.54
 21
115.12
  0
LINE
  8
L-1-1
 10
480.14
 20
101.85
 11
480.14
 21
127.05
  0
CIRCLE
  8
L-1-1
 10
482.47
 20
124.46
 40
0.71
  0
CIRCLE
  8
L-1-1
 10
482.47
 20
104.46
 40
0.71
  0
LINE
  8
L-1-1
 10
479.42
 20
126.12
 11
479.42
 21
125.21
  0
LINE
  8
L-1-1
 10
480.85
 20
126.12
 11
480.85
 21
125.21
  0
CIRCLE
  8
L-1-1
 10
482.47
 20
124.46
 40
0.60
  0
CIRCLE
  8
L-1-1
 10
482.47
 20
104.46
 40
0.60
  0
LINE
  8
L-1-1
 10
481.36
 20
124.46
 11
483.58
 21
124.46
  0
LINE
  8
L-1-1
 10
482.47
 20
103.45
 11
482.47
 21
125.63
  0
LINE
  8
L-1-1
 10
481.46
 20
104.46
 11
483.47
 21
104.46
  0
LINE
  8
L-1-1
 10
480.85
 20
123.71
 11
480.85
 21
121.21
  0
LINE
  8
L-1-1
 10
479.42
 20
123.71
 11
479.42
 21
121.21
  0
LINE
  8
L-1-1
 10
480.85
 20
119.71
 11
480.85
 21
109.21
  0
LINE
  8
L-1-1
 10
479.42
 20
119.71
 11
479.42
 21
109.21
  0
LINE
  8
L-1-1
 10
479.42
 20
107.71
 11
479.42
 21
105.21
  0
LINE
  8
L-1-1
 10
480.85
 20
107.71
 11
480.85
 21
105.21
  0
LINE
  8
L-1-1
 10
480.85
 20
103.71
 11
480.85
 21
102.79
  0
LINE
  8
L-1-1
 10
479.42
 20
103.71
 11
479.42
 21
102.79
  0
LINE
  8
L-1-1
 10
481.30
 20
121.21
 11
481.30
 21
119.71
  0
LINE
  8
L-1-1
 10
481.30
 20
119.71
 11
478.97
 21
119.71
  0
LINE
  8
L-1-1
 10
478.97
 20
121.21
 11
478.97
 21
119.71
  0
LINE
  8
L-1-1
 10
481.30
 20
121.21
 11
478.97
 21
121.21
  0
LINE
  8
L-1-1
 10
481.30
 20
125.21
 11
481.30
 21
123.71
  0
LINE
  8
L-1-1
 10
481.30
 20
123.71
 11
478.97
 21
123.71
  0
LINE
  8
L-1-1
 10
478.97
 20
125.21
 11
478.97
 21
123.71
  0
LINE
  8
L-1-1
 10
481.30
 20
125.21
 11
478.97
 21
125.21
  0
LINE
  8
L-1-1
 10
481.30
 20
103.71
 11
481.30
 21
105.21
  0
LINE
  8
L-1-1
 10
481.30
 20
105.21
 11
478.97
 21
105.21
  0
LINE
  8
L-1-1
 10
478.97
 20
103.71
 11
478.97
 21
105.21
  0
LINE
  8
L-1-1
 10
481.30
 20
103.71
 11
478.97
 21
103.71
  0
LINE
  8
L-1-1
 10
481.76
 20
104.46
 11
481.76
 21
124.46
  0
LINE
  8
L-1-1
 10
483.18
 20
104.46
 11
483.18
 21
124.46
  0
CIRCLE
  8
L-1-1
 10
477.39
 20
115.12
 40
0.27
  0
LINE
  8
L-1-1
 10
477.39
 20
113.86
 11
477.39
 21
116.39
  0
LINE
  8
L-1-1
 10
477.52
 20
115.35
 11
477.25
 21
114.89
  0
LINE
  8
L-1-1
 10
477.25
 20
115.35
 11
477.52
 21
114.89
  0
LINE
  8
L-1-1
 10
481.30
 20
107.71
 11
481.30
 21
109.21
  0
LINE
  8
L-1-1
 10
481.30
 20
109.21
 11
478.97
 21
109.21
  0
LINE
  8
L-1-1
 10
478.97
 20
107.71
 11
478.97
 21
109.21
  0
LINE
  8
L-1-1
 10
481.30
 20
107.71
 11
478.97
 21
107.71
  0
LINE
  8
L-1-1
 10
477.37
 20
115.16
 11
477.41
 21
115.16
  0
LINE
  8
L-1-1
 10
477.35
 20
115.19
 11
477.42
 21
115.19
  0
LINE
  8
L-1-1
 10
477.33
 20
115.22
 11
477.44
 21
115.22
  0
LINE
  8
L-1-1
 10
477.31
 20
115.26
 11
477.46
 21
115.26
  0
LINE
  8
L-1-1
 10
477.29
 20
115.29
 11
477.48
 21
115.29
  0
LINE
  8
L-1-1
 10
477.27
 20
115.32
 11
477.50
 21
115.32
  0
LINE
  8
L-1-1
 10
477.26
 20
115.36
 11
477.52
 21
115.36
  0
LINE
  8
L-1-1
 10
477.37
 20
115.09
 11
477.41
 21
115.09
  0
LINE
  8
L-1-1
 10
477.35
 20
115.06
 11
477.42
 21
115.06
  0
LINE
  8
L-1-1
 10
477.33
 20
115.02
 11
477.44
 21
115.02
  0
LINE
  8
L-1-1
 10
477.31
 20
114.99
 11
477.46
 21
114.99
  0
LINE
  8
L-1-1
 10
477.29
 20
114.96
 11
477.48
 21
114.96
  0
LINE
  8
L-1-1
 10
477.27
 20
114.92
 11
477.50
 21
114.92
  0
LINE
  8
L-1-1
 10
477.26
 20
114.89
 11
477.52
 21
114.89
  0
LINE
  8
L-1-1
 10
197.85
 20
263.49
 11
197.85
 21
262.16
  0
LINE
  8
L-1-1
 10
197.85
 20
263.49
 11
200.35
 21
263.49
  0
LINE
  8
L-1-1
 10
200.35
 20
262.16
 11
200.35
 21
263.49
  0
LINE
  8
L-1-1
 10
199.82
 20
263.33
 11
198.37
 21
263.33
  0
LINE
  8
L-1-1
 10
200.08
 20
263.08
 11
200.15
 21
262.28
  0
LINE
  8
L-1-1
 10
198.11
 20
263.08
 11
198.04
 21
262.28
  0
LINE
  8
L-1-1
 10
200.35
 20
262.16
 11
200.29
 21
262.16
  0
ARC
  8
L-1-1
 10
199.82
 20
263.06
 40
0.27
 50
5.00
 51
90.00
  0
ARC
  8
L-1-1
 10
198.37
 20
263.06
 40
0.27
 50
90.00
 51
175.00
  0
LINE
  8
L-1-1
 10
197.91
 20
262.16
 11
197.85
 21
262.16
  0
ARC
  8
L-1-1
 10
200.29
 20
262.29
 40
0.13
 50
185.00
 51
270.00
  0
ARC
  8
L-1-1
 10
197.91
 20
262.29
 40
0.13
 50
270.00
 51
355.00
  0
LINE
  8
L-1-1
 10
197.85
 20
271.66
 11
197.85
 21
275.49
  0
LINE
  8
L-1-1
 10
197.65
 20
274.16
 11
200.55
 21
274.16
  0
LINE
  8
L-1-1
 10
200.35
 20
275.49
 11
200.35
 21
271.66
  0
LINE
  8
L-1-1
 10
199.82
 20
274.33
 11
198.37
 21
274.33
  0
LINE
  8
L-1-1
 10
200.08
 20
274.57
 11
200.15
 21
275.37
  0
LINE
  8
L-1-1
 10
198.11
 20
274.57
 11
198.04
 21
275.37
  0
LINE
  8
L-1-1
 10
200.35
 20
275.49
 11
200.29
 21
275.49
  0
ARC
  8
L-1-1
 10
199.82
 20
274.59
 40
0.27
 50
270.00
 51
355.00
  0
ARC
  8
L-1-1
 10
198.37
 20
274.59
 40
0.27
 50
185.00
 51
270.00
  0
LINE
  8
L-1-1
 10
197.91
 20
275.49
 11
197.85
 21
275.49
  0
ARC
  8
L-1-1
 10
200.29
 20
275.36
 40
0.13
 50
90.00
 51
175.00
  0
ARC
  8
L-1-1
 10
197.91
 20
275.36
 40
0.13
 50
5.00
 51
90.00
  0
LINE
  8
L-1-1
 10
197.65
 20
271.66
 11
200.55
 21
271.66
  0
LINE
  8
L-1-1
 10
200.55
 20
274.16
 11
200.55
 21
271.66
  0
LINE
  8
L-1-1
 10
197.65
 20
274.16
 11
197.65
 21
271.66
  0
LINE
  8
L-1-1
 10
197.85
 20
273.49
 11
200.35
 21
273.49
  0
LINE
  8
L-1-1
 10
199.10
 20
257.26
 11
199.10
 21
282.37
  0
LINE
  8
L-1-1
 10
190.96
 20
269.49
 11
206.99
 21
269.49
  0
CIRCLE
  8
L-1-1
 10
202.43
 20
261.16
 40
0.33
  0
CIRCLE
  8
L-1-1
 10
202.43
 20
277.83
 40
0.33
  0
CIRCLE
  8
L-1-1
 10
195.76
 20
277.83
 40
0.33
  0
CIRCLE
  8
L-1-1
 10
195.76
 20
261.16
 40
0.33
  0
LINE
  8
L-1-1
 10
194.43
 20
261.16
 11
194.43
 21
277.83
  0
LINE
  8
L-1-1
 10
203.76
 20
261.16
 11
203.76
 21
277.83
  0
LINE
  8
L-1-1
 10
195.76
 20
279.16
 11
202.43
 21
279.16
  0
LINE
  8
L-1-1
 10
195.76
 20
259.83
 11
202.43
 21
259.83
  0
LINE
  8
L-1-1
 10
203.76
 20
277.83
 11
202.43
 21
279.16
  0
LINE
  8
L-1-1
 10
195.76
 20
279.16
 11
194.43
 21
277.83
  0
LINE
  8
L-1-1
 10
194.43
 20
261.16
 11
195.76
 21
259.83
  0
LINE
  8
L-1-1
 10
202.43
 20
259.83
 11
203.76
 21
261.16
  0
LINE
  8
L-1-1
 10
192.43
 20
257.83
 11
192.43
 21
281.16
  0
LINE
  8
L-1-1
 10
205.76
 20
257.83
 11
205.76
 21
281.16
  0
LINE
  8
L-1-1
 10
205.76
 20
257.83
 11
192.43
 21
257.83
  0
LINE
  8
L-1-1
 10
205.76
 20
281.16
 11
192.43
 21
281.16
  0
LINE
  8
L-1-1
 10
201.10
 20
277.83
 11
203.76
 21
277.83
  0
LINE
  8
L-1-1
 10
202.43
 20
276.49
 11
202.43
 21
279.16
  0
LINE
  8
L-1-1
 10
194.43
 20
277.83
 11
197.10
 21
277.83
  0
LINE
  8
L-1-1
 10
195.76
 20
276.49
 11
195.76
 21
279.16
  0
LINE
  8
L-1-1
 10
194.43
 20
261.16
 11
197.10
 21
261.16
  0
LINE
  8
L-1-1
 10
195.76
 20
259.83
 11
195.76
 21
262.49
  0
LINE
  8
L-1-1
 10
201.10
 20
261.16
 11
203.76
 21
261.16
  0
LINE
  8
L-1-1
 10
202.43
 20
259.83
 11
202.43
 21
262.49
  0
LINE
  8
L-1-1
 10
196.96
 20
281.16
 11
192.43
 21
278.55
  0
LINE
  8
L-1-1
 10
192.43
 20
272.77
 11
194.43
 21
273.93
  0
LINE
  8
L-1-1
 10
192.43
 20
267.00
 11
194.43
 21
268.15
  0
LINE
  8
L-1-1
 10
192.43
 20
261.23
 11
194.43
 21
262.38
  0
LINE
  8
L-1-1
 10
196.54
 20
257.83
 11
200.01
 21
259.83
  0
LINE
  8
L-1-1
 10
196.29
 20
281.16
 11
192.43
 21
278.93
  0
LINE
  8
L-1-1
 10
197.62
 20
281.16
 11
192.43
 21
278.16
  0
LINE
  8
L-1-1
 10
205.76
 20
280.86
 11
202.57
 21
279.02
  0
LINE
  8
L-1-1
 10
205.76
 20
280.09
 11
203.06
 21
278.53
  0
LINE
  8
L-1-1
 10
205.76
 20
275.08
 11
203.76
 21
273.93
  0
LINE
  8
L-1-1
 10
205.76
 20
274.31
 11
203.76
 21
273.16
  0
LINE
  8
L-1-1
 10
205.76
 20
269.31
 11
203.76
 21
268.15
  0
LINE
  8
L-1-1
 10
205.76
 20
268.54
 11
203.76
 21
267.38
  0
LINE
  8
L-1-1
 10
205.76
 20
262.77
 11
203.76
 21
261.61
  0
LINE
  8
L-1-1
 10
205.76
 20
263.54
 11
203.76
 21
262.38
  0
LINE
  8
L-1-1
 10
194.43
 20
274.31
 11
192.43
 21
273.16
  0
LINE
  8
L-1-1
 10
202.82
 20
278.77
 11
205.76
 21
280.47
  0
LINE
  8
L-1-1
 10
194.43
 20
273.54
 11
192.43
 21
272.39
  0
LINE
  8
L-1-1
 10
194.43
 20
268.54
 11
192.43
 21
267.38
  0
LINE
  8
L-1-1
 10
203.76
 20
273.54
 11
205.76
 21
274.70
  0
LINE
  8
L-1-1
 10
194.43
 20
267.77
 11
192.43
 21
266.61
  0
LINE
  8
L-1-1
 10
194.43
 20
262.77
 11
192.43
 21
261.61
  0
LINE
  8
L-1-1
 10
194.43
 20
262.00
 11
192.43
 21
260.84
  0
LINE
  8
L-1-1
 10
203.76
 20
267.77
 11
205.76
 21
268.92
  0
LINE
  8
L-1-1
 10
199.34
 20
259.83
 11
195.87
 21
257.83
  0
LINE
  8
L-1-1
 10
203.76
 20
262.00
 11
205.76
 21
263.15
  0
LINE
  8
L-1-1
 10
200.67
 20
259.83
 11
197.21
 21
257.83
  0
LINE
  8
L-1-1
 10
575.63
 20
402.11
 11
575.63
 21
16.11
  0
LINE
  8
L-1-1
 10
19.63
 20
402.11
 11
19.63
 21
16.11
  0
LINE
  8
L-1-1
 10
19.63
 20
16.11
 11
575.63
 21
16.11
  0
LINE
  8
L-1-1
 10
19.63
 20
402.11
 11
575.63
 21
402.11
  0
LINE
  8
L-1-1
 10
575.63
 20
16.11
 11
575.63
 21
402.11
  0
LINE
  8
L-1-1
 10
19.63
 20
16.11
 11
575.63
 21
16.11
  0
LINE
  8
L-1-1
 10
575.63
 20
36.11
 11
575.63
 21
16.11
  0
LINE
  8
L-1-1
 10
19.63
 20
36.11
 11
19.63
 21
16.11
  0
LINE
  8
L-1-1
 10
19.63
 20
16.11
 11
575.63
 21
16.11
  0
LINE
  8
L-1-1
 10
19.63
 20
36.11
 11
575.63
 21
36.11
  0
LINE
  8
L-1-1
 10
125.63
 20
16.11
 11
125.63
 21
36.11
  0
LINE
  8
L-1-1
 10
19.63
 20
16.11
 11
125.63
 21
16.11
  0
LINE
  8
L-1-1
 10
135.63
 20
16.11
 11
135.63
 21
26.11
  0
LINE
  8
L-1-1
 10
125.63
 20
16.11
 11
135.63
 21
16.11
  0
LINE
  8
L-1-1
 10
160.63
 20
16.11
 11
160.63
 21
21.11
  0
LINE
  8
L-1-1
 10
135.63
 20
16.11
 11
160.63
 21
16.11
  0
LINE
  8
L-1-1
 10
170.63
 20
16.11
 11
170.63
 21
21.11
  0
LINE
  8
L-1-1
 10
160.63
 20
16.11
 11
170.63
 21
16.11
  0
LINE
  8
L-1-1
 10
195.63
 20
16.11
 11
195.63
 21
21.11
  0
LINE
  8
L-1-1
 10
170.63
 20
16.11
 11
195.63
 21
16.11
  0
LINE
  8
L-1-1
 10
205.63
 20
16.11
 11
205.63
 21
21.11
  0
LINE
  8
L-1-1
 10
195.63
 20
16.11
 11
205.63
 21
16.11
  0
LINE
  8
L-1-1
 10
230.63
 20
16.11
 11
230.63
 21
21.11
  0
LINE
  8
L-1-1
 10
205.63
 20
16.11
 11
230.63
 21
16.11
  0
LINE
  8
L-1-1
 10
240.63
 20
16.11
 11
240.63
 21
21.11
  0
LINE
  8
L-1-1
 10
230.63
 20
16.11
 11
240.63
 21
16.11
  0
LINE
  8
L-1-1
 10
255.63
 20
16.11
 11
255.63
 21
26.11
  0
LINE
  8
L-1-1
 10
240.63
 20
16.11
 11
255.63
 21
16.11
  0
LINE
  8
L-1-1
 10
295.63
 20
16.11
 11
295.63
 21
31.11
  0
LINE
  8
L-1-1
 10
280.63
 20
16.11
 11
295.63
 21
16.11
  0
LINE
  8
L-1-1
 10
310.63
 20
16.11
 11
310.63
 21
31.11
  0
LINE
  8
L-1-1
 10
295.63
 20
16.11
 11
310.63
 21
16.11
  0
LINE
  8
L-1-1
 10
325.63
 20
16.11
 11
325.63
 21
31.11
  0
LINE
  8
L-1-1
 10
310.63
 20
16.11
 11
325.63
 21
16.11
  0
LINE
  8
L-1-1
 10
340.63
 20
16.11
 11
340.63
 21
31.11
  0
LINE
  8
L-1-1
 10
325.63
 20
16.11
 11
340.63
 21
16.11
  0
LINE
  8
L-1-1
 10
350.63
 20
16.11
 11
350.63
 21
26.11
  0
LINE
  8
L-1-1
 10
340.63
 20
16.11
 11
350.63
 21
16.11
  0
LINE
  8
L-1-1
 10
474.63
 20
16.11
 11
474.63
 21
26.11
  0
LINE
  8
L-1-1
 10
465.63
 20
16.11
 11
474.63
 21
16.11
  0
LINE
  8
L-1-1
 10
160.63
 20
21.11
 11
160.63
 21
26.11
  0
LINE
  8
L-1-1
 10
135.63
 20
21.11
 11
160.63
 21
21.11
  0
LINE
  8
L-1-1
 10
170.63
 20
21.11
 11
170.63
 21
26.11
  0
LINE
  8
L-1-1
 10
160.63
 20
21.11
 11
170.63
 21
21.11
  0
LINE
  8
L-1-1
 10
195.63
 20
21.11
 11
195.63
 21
26.11
  0
LINE
  8
L-1-1
 10
170.63
 20
21.11
 11
195.63
 21
21.11
  0
LINE
  8
L-1-1
 10
205.63
 20
21.11
 11
205.63
 21
26.11
  0
LINE
  8
L-1-1
 10
195.63
 20
21.11
 11
205.63
 21
21.11
  0
LINE
  8
L-1-1
 10
230.63
 20
21.11
 11
230.63
 21
26.11
  0
LINE
  8
L-1-1
 10
205.63
 20
21.11
 11
230.63
 21
21.11
  0
LINE
  8
L-1-1
 10
240.63
 20
21.11
 11
240.63
 21
26.11
  0
LINE
  8
L-1-1
 10
230.63
 20
21.11
 11
240.63
 21
21.11
  0
LINE
  8
L-1-1
 10
135.63
 20
26.11
 11
135.63
 21
36.11
  0
LINE
  8
L-1-1
 10
125.63
 20
26.11
 11
135.63
 21
26.11
  0
LINE
  8
L-1-1
 10
160.63
 20
26.11
 11
160.63
 21
31.11
  0
LINE
  8
L-1-1
 10
135.63
 20
26.11
 11
160.63
 21
26.11
  0
LINE
  8
L-1-1
 10
170.63
 20
26.11
 11
170.63
 21
31.11
  0
LINE
  8
L-1-1
 10
160.63
 20
26.11
 11
170.63
 21
26.11
  0
LINE
  8
L-1-1
 10
195.63
 20
26.11
 11
195.63
 21
31.11
  0
LINE
  8
L-1-1
 10
170.63
 20
26.11
 11
195.63
 21
26.11
  0
LINE
  8
L-1-1
 10
205.63
 20
26.11
 11
205.63
 21
31.11
  0
LINE
  8
L-1-1
 10
195.63
 20
26.11
 11
205.63
 21
26.11
  0
LINE
  8
L-1-1
 10
230.63
 20
26.11
 11
230.63
 21
31.11
  0
LINE
  8
L-1-1
 10
205.63
 20
26.11
 11
230.63
 21
26.11
  0
LINE
  8
L-1-1
 10
240.63
 20
26.11
 11
240.63
 21
31.11
  0
LINE
  8
L-1-1
 10
230.63
 20
26.11
 11
240.63
 21
26.11
  0
LINE
  8
L-1-1
 10
255.63
 20
26.11
 11
255.63
 21
36.11
  0
LINE
  8
L-1-1
 10
240.63
 20
26.11
 11
255.63
 21
26.11
  0
LINE
  8
L-1-1
 10
280.63
 20
26.11
 11
280.63
 21
36.11
  0
LINE
  8
L-1-1
 10
255.63
 20
26.11
 11
280.63
 21
26.11
  0
LINE
  8
L-1-1
 10
350.63
 20
26.11
 11
350.63
 21
36.11
  0
LINE
  8
L-1-1
 10
340.63
 20
26.11
 11
350.63
 21
26.11
  0
LINE
  8
L-1-1
 10
474.63
 20
26.11
 11
474.63
 21
36.11
  0
LINE
  8
L-1-1
 10
465.63
 20
26.11
 11
474.63
 21
26.11
  0
LINE
  8
L-1-1
 10
519.63
 20
26.11
 11
519.63
 21
36.11
  0
LINE
  8
L-1-1
 10
474.63
 20
26.11
 11
519.63
 21
26.11
  0
LINE
  8
L-1-1
 10
539.63
 20
26.11
 11
539.63
 21
36.11
  0
LINE
  8
L-1-1
 10
519.63
 20
26.11
 11
539.63
 21
26.11
  0
LINE
  8
L-1-1
 10
551.63
 20
26.11
 11
551.63
 21
36.11
  0
LINE
  8
L-1-1
 10
539.63
 20
26.11
 11
551.63
 21
26.11
  0
LINE
  8
L-1-1
 10
575.63
 20
26.11
 11
575.63
 21
36.11
  0
LINE
  8
L-1-1
 10
551.63
 20
26.11
 11
575.63
 21
26.11
  0
LINE
  8
L-1-1
 10
160.63
 20
31.11
 11
160.63
 21
36.11
  0
LINE
  8
L-1-1
 10
135.63
 20
31.11
 11
160.63
 21
31.11
  0
LINE
  8
L-1-1
 10
170.63
 20
31.11
 11
170.63
 21
36.11
  0
LINE
  8
L-1-1
 10
160.63
 20
31.11
 11
170.63
 21
31.11
  0
LINE
  8
L-1-1
 10
195.63
 20
31.11
 11
195.63
 21
36.11
  0
LINE
  8
L-1-1
 10
170.63
 20
31.11
 11
195.63
 21
31.11
  0
LINE
  8
L-1-1
 10
205.63
 20
31.11
 11
205.63
 21
36.11
  0
LINE
  8
L-1-1
 10
195.63
 20
31.11
 11
205.63
 21
31.11
  0
LINE
  8
L-1-1
 10
230.63
 20
31.11
 11
230.63
 21
36.11
  0
LINE
  8
L-1-1
 10
205.63
 20
31.11
 11
230.63
 21
31.11
  0
LINE
  8
L-1-1
 10
240.63
 20
31.11
 11
240.63
 21
36.11
  0
LINE
  8
L-1-1
 10
230.63
 20
31.11
 11
240.63
 21
31.11
  0
LINE
  8
L-1-1
 10
295.63
 20
31.11
 11
295.63
 21
36.11
  0
LINE
  8
L-1-1
 10
280.63
 20
31.11
 11
295.63
 21
31.11
  0
LINE
  8
L-1-1
 10
310.63
 20
31.11
 11
310.63
 21
36.11
  0
LINE
  8
L-1-1
 10
295.63
 20
31.11
 11
310.63
 21
31.11
  0
LINE
  8
L-1-1
 10
325.63
 20
31.11
 11
325.63
 21
36.11
  0
LINE
  8
L-1-1
 10
310.63
 20
31.11
 11
325.63
 21
31.11
  0
LINE
  8
L-1-1
 10
340.63
 20
31.11
 11
340.63
 21
36.11
  0
LINE
  8
L-1-1
 10
325.63
 20
31.11
 11
340.63
 21
31.11
  0
LINE
  8
L-1-1
 10
280.63
 20
16.11
 11
280.63
 21
26.11
  0
LINE
  8
L-1-1
 10
255.63
 20
16.11
 11
280.63
 21
16.11
  0
LINE
  8
L-1-1
 10
274.64
 20
21.43
 11
277.39
 21
21.43
  0
LINE
  8
L-1-1
 10
575.63
 20
16.11
 11
575.63
 21
26.11
  0
LINE
  8
L-1-1
 10
474.63
 20
16.11
 11
575.63
 21
16.11
  0
LINE
  8
L-1-1
 10
465.63
 20
16.11
 11
465.63
 21
26.11
  0
LINE
  8
L-1-1
 10
350.63
 20
16.11
 11
465.63
 21
16.11
  0
LINE
  8
L-1-1
 10
465.63
 20
26.11
 11
465.63
 21
36.11
  0
LINE
  8
L-1-1
 10
350.63
 20
26.11
 11
465.63
 21
26.11
  0
LINE
  8
L-1-1
 10
575.63
 20
402.11
 11
575.63
 21
172.11
  0
LINE
  8
L-1-1
 10
455.63
 20
402.11
 11
455.63
 21
172.11
  0
LINE
  8
L-1-1
 10
455.63
 20
172.11
 11
575.63
 21
172.11
  0
LINE
  8
L-1-1
 10
455.63
 20
402.11
 11
575.63
 21
402.11
  0
LINE
  8
L-1-1
 10
495.63
 20
192.11
 11
495.63
 21
272.11
  0
LINE
  8
L-1-1
 10
455.63
 20
192.11
 11
495.63
 21
192.11
  0
LINE
  8
L-1-1
 10
575.63
 20
222.11
 11
575.63
 21
232.11
  0
LINE
  8
L-1-1
 10
495.63
 20
222.11
 11
575.63
 21
222.11
  0
LINE
  8
L-1-1
 10
495.63
 20
272.11
 11
495.63
 21
282.11
  0
LINE
  8
L-1-1
 10
455.63
 20
272.11
 11
495.63
 21
272.11
  0
LINE
  8
L-1-1
 10
495.63
 20
282.11
 11
495.63
 21
292.11
  0
LINE
  8
L-1-1
 10
455.63
 20
282.11
 11
495.63
 21
282.11
  0
LINE
  8
L-1-1
 10
495.63
 20
302.11
 11
495.63
 21
312.11
  0
LINE
  8
L-1-1
 10
455.63
 20
302.11
 11
495.63
 21
302.11
  0
LINE
  8
L-1-1
 10
495.63
 20
312.11
 11
495.63
 21
322.11
  0
LINE
  8
L-1-1
 10
455.63
 20
312.11
 11
495.63
 21
312.11
  0
LINE
  8
L-1-1
 10
495.63
 20
322.11
 11
495.63
 21
332.11
  0
LINE
  8
L-1-1
 10
455.63
 20
322.11
 11
495.63
 21
322.11
  0
LINE
  8
L-1-1
 10
495.63
 20
332.11
 11
495.63
 21
342.11
  0
LINE
  8
L-1-1
 10
455.63
 20
332.11
 11
495.63
 21
332.11
  0
LINE
  8
L-1-1
 10
575.63
 20
332.11
 11
575.63
 21
342.11
  0
LINE
  8
L-1-1
 10
495.63
 20
332.11
 11
575.63
 21
332.11
  0
LINE
  8
L-1-1
 10
495.63
 20
342.11
 11
495.63
 21
352.11
  0
LINE
  8
L-1-1
 10
455.63
 20
342.11
 11
495.63
 21
342.11
  0
LINE
  8
L-1-1
 10
575.63
 20
342.11
 11
575.63
 21
352.11
  0
LINE
  8
L-1-1
 10
495.63
 20
342.11
 11
575.63
 21
342.11
  0
LINE
  8
L-1-1
 10
495.63
 20
362.11
 11
495.63
 21
372.11
  0
LINE
  8
L-1-1
 10
455.63
 20
362.11
 11
495.63
 21
362.11
  0
LINE
  8
L-1-1
 10
575.63
 20
362.11
 11
575.63
 21
372.11
  0
LINE
  8
L-1-1
 10
495.63
 20
362.11
 11
575.63
 21
362.11
  0
LINE
  8
L-1-1
 10
495.63
 20
372.11
 11
495.63
 21
382.11
  0
LINE
  8
L-1-1
 10
455.63
 20
372.11
 11
495.63
 21
372.11
  0
LINE
  8
L-1-1
 10
495.63
 20
382.11
 11
495.63
 21
392.11
  0
LINE
  8
L-1-1
 10
455.63
 20
382.11
 11
495.63
 21
382.11
  0
LINE
  8
L-1-1
 10
575.63
 20
392.11
 11
575.63
 21
402.11
  0
LINE
  8
L-1-1
 10
455.63
 20
392.11
 11
575.63
 21
392.11
  0
LINE
  8
L-1-1
 10
575.63
 20
372.11
 11
575.63
 21
382.11
  0
LINE
  8
L-1-1
 10
495.63
 20
372.11
 11
575.63
 21
372.11
  0
LINE
  8
L-1-1
 10
575.63
 20
312.11
 11
575.63
 21
322.11
  0
LINE
  8
L-1-1
 10
495.63
 20
312.11
 11
575.63
 21
312.11
  0
LINE
  8
L-1-1
 10
575.63
 20
302.11
 11
575.63
 21
312.11
  0
LINE
  8
L-1-1
 10
495.63
 20
302.11
 11
575.63
 21
302.11
  0
LINE
  8
L-1-1
 10
575.63
 20
272.11
 11
575.63
 21
282.11
  0
LINE
  8
L-1-1
 10
495.63
 20
272.11
 11
575.63
 21
272.11
  0
LINE
  8
L-1-1
 10
495.63
 20
172.11
 11
495.63
 21
192.11
  0
LINE
  8
L-1-1
 10
455.63
 20
172.11
 11
495.63
 21
172.11
  0
LINE
  8
L-1-1
 10
575.63
 20
182.11
 11
575.63
 21
192.11
  0
LINE
  8
L-1-1
 10
495.63
 20
182.11
 11
575.63
 21
182.11
  0
LINE
  8
L-1-1
 10
495.63
 20
352.11
 11
495.63
 21
362.11
  0
LINE
  8
L-1-1
 10
455.63
 20
352.11
 11
495.63
 21
352.11
  0
LINE
  8
L-1-1
 10
575.63
 20
352.11
 11
575.63
 21
362.11
  0
LINE
  8
L-1-1
 10
495.63
 20
352.11
 11
575.63
 21
352.11
  0
LINE
  8
L-1-1
 10
575.63
 20
322.11
 11
575.63
 21
332.11
  0
LINE
  8
L-1-1
 10
495.63
 20
322.11
 11
575.63
 21
322.11
  0
LINE
  8
L-1-1
 10
575.63
 20
282.11
 11
575.63
 21
292.11
  0
LINE
  8
L-1-1
 10
495.63
 20
282.11
 11
575.63
 21
282.11
  0
LINE
  8
L-1-1
 10
495.63
 20
292.11
 11
495.63
 21
302.11
  0
LINE
  8
L-1-1
 10
455.63
 20
292.11
 11
495.63
 21
292.11
  0
LINE
  8
L-1-1
 10
575.63
 20
292.11
 11
575.63
 21
302.11
  0
LINE
  8
L-1-1
 10
495.63
 20
292.11
 11
575.63
 21
292.11
  0
LINE
  8
L-1-1
 10
575.63
 20
172.11
 11
575.63
 21
182.11
  0
LINE
  8
L-1-1
 10
495.63
 20
172.11
 11
575.63
 21
172.11
  0
LINE
  8
L-1-1
 10
575.63
 20
262.11
 11
575.63
 21
272.11
  0
LINE
  8
L-1-1
 10
495.63
 20
262.11
 11
575.63
 21
262.11
  0
LINE
  8
L-1-1
 10
575.63
 20
232.11
 11
575.63
 21
242.11
  0
LINE
  8
L-1-1
 10
495.63
 20
232.11
 11
575.63
 21
232.11
  0
LINE
  8
L-1-1
 10
575.63
 20
212.11
 11
575.63
 21
222.11
  0
LINE
  8
L-1-1
 10
495.63
 20
212.11
 11
575.63
 21
212.11
  0
LINE
  8
L-1-1
 10
575.63
 20
252.11
 11
575.63
 21
262.11
  0
LINE
  8
L-1-1
 10
495.63
 20
252.11
 11
575.63
 21
252.11
  0
LINE
  8
L-1-1
 10
575.63
 20
242.11
 11
575.63
 21
252.11
  0
LINE
  8
L-1-1
 10
495.63
 20
242.11
 11
575.63
 21
242.11
  0
LINE
  8
L-1-1
 10
575.63
 20
192.11
 11
575.63
 21
202.11
  0
LINE
  8
L-1-1
 10
495.63
 20
192.11
 11
575.63
 21
192.11
  0
LINE
  8
L-1-1
 10
575.63
 20
202.11
 11
575.63
 21
212.11
  0
LINE
  8
L-1-1
 10
495.63
 20
202.11
 11
575.63
 21
202.11
  0
LINE
  8
L-1-1
 10
575.63
 20
382.11
 11
575.63
 21
392.11
  0
LINE
  8
L-1-1
 10
495.63
 20
382.11
 11
575.63
 21
382.11
  0
TEXT
  8
NTEXT
 10
115.05
 20
95.49
 40
3.20
 41
0.67
  1
７０
 50
0.00
  7
KANJI
  0
TEXT
  8
NTEXT
 10
137.34
 20
95.49
 40
3.20
 41
0.67
  1
１９５
 50
0.00
  7
KANJI
  0
TEXT
  8
NTEXT
 10
355.99
 20
73.32
 40
3.20
 41
0.67
  1
２６５
 50
0.00
  7
KANJI
  0
TEXT
  8
NTEXT
 10
221.21
 20
73.32
 40
3.20
 41
0.67
  1
６６７０　（ガイドレール間隔）
 50
0.00
  7
KANJI
  0
TEXT
  8
NTEXT
 10
124.83
 20
73.32
 40
3.20
 41
0.67
  1
２６５
 50
0.00
  7
KANJI
  0
TEXT
  8
NTEXT
 10
221.13
 20
66.32
 40
3.20
 41
0.67
  1
７２００　　（枠組足場間隔）
 50
0.00
  7
KANJI
  0
TEXT
  8
NTEXT
 10
83.28
 20
276.74
 40
3.20
 41
0.67
  1
２０００（ｍｉｎ）
 50
90.00
  7
KANJI
  0
TEXT
  8
NTEXT
 10
95.79
 20
271.87
 40
3.20
 41
0.67
  1
荷台上面
 50
0.00
  7
KANJI
  0
TEXT
  8
NTEXT
 10
368.51
 20
95.49
 40
3.20
 41
0.67
  1
７０
 50
0.00
  7
KANJI
  0
TEXT
  8
NTEXT
 10
343.02
 20
95.49
 40
3.20
 41
0.67
  1
１９５
 50
0.00
  7
KANJI
  0
TEXT
  8
NTEXT
 10
420.41
 20
107.04
 40
3.20
 41
0.67
  1
３００
 50
90.00
  7
KANJI
  0
TEXT
  8
NTEXT
 10
82.84
 20
121.12
 40
3.20
 41
0.67
  1
７５０（ｍｉｎ）
 50
90.00
  7
KANJI
  0
TEXT
  8
NTEXT
 10
95.14
 20
151.74
 40
3.20
 41
0.67
  1
荷台上面
 50
0.00
  7
KANJI
  0
TEXT
  8
NTEXT
 10
381.97
 20
143.66
 40
3.20
 41
0.67
  1
１２３０
 50
90.00
  7
KANJI
  0
TEXT
  8
NTEXT
 10
408.60
 20
290.17
 40
3.20
 41
0.67
  1
９７０
 50
90.00
  7
KANJI
  0
TEXT
  8
NTEXT
 10
413.80
 20
278.97
 40
3.20
 41
0.67
  1
（頂部ガイドレール）
 50
90.00
  7
KANJI
  0
TEXT
  8
NTEXT
 10
408.60
 20
264.74
 40
3.20
 41
0.67
  1
１４３０
 50
90.00
  7
KANJI
  0
TEXT
  8
NTEXT
 10
413.80
 20
264.74
 40
3.20
 41
0.67
  1
　×３３
 50
90.00
  7
KANJI
  0
TEXT
  8
NTEXT
 10
408.60
 20
233.24
 40
3.20
 41
0.67
  1
１４３０
 50
90.00
  7
KANJI
  0
TEXT
  8
NTEXT
 10
408.60
 20
185.57
 40
3.20
 41
0.67
  1
１４３０
 50
90.00
  7
KANJI
  0
TEXT
  8
NTEXT
 10
413.80
 20
179.17
 40
3.20
 41
0.67
  1
（ガイドレール）
 50
90.00
  7
KANJI
  0
TEXT
  8
NTEXT
 10
408.60
 20
137.91
 40
3.20
 41
0.67
  1
１４３０
 50
90.00
  7
KANJI
  0
TEXT
  8
NTEXT
 10
408.60
 20
103.48
 40
3.20
 41
0.67
  1
１０９
 50
90.00
  7
KANJI
  0
TEXT
  8
NTEXT
 10
420.41
 20
180.39
 40
3.20
 41
0.67
  1
１０９＋１４３０×３６＋９７０＝５２
 50
90.00
  7
KANJI
  0
TEXT
  8
NTEXT
 10
103.48
 20
183.05
 40
4.00
 41
0.67
  1
１４３０
 50
90.00
  7
KANJI
  0
TEXT
  8
NTEXT
 10
109.48
 20
175.05
 40
4.00
 41
0.67
  1
（壁継なぎ間隔）
 50
90.00
  7
KANJI
  0
TEXT
  8
NTEXT
 10
315.78
 20
346.31
 40
4.00
 41
0.67
  1
ヘッドガード
 50
0.00
  7
KANJI
  0
TEXT
  8
NTEXT
 10
263.50
 20
340.72
 40
4.00
 41
0.67
  1
１０３０
 50
90.00
  7
KANJI
  0
TEXT
  8
NTEXT
 10
271.50
 20
319.68
 40
4.00
 41
0.67
  1
１５
 50
90.00
  7
KANJI
  0
TEXT
  8
NTEXT
 10
271.50
 20
340.72
 40
4.00
 41
0.67
  1
１０００
 50
90.00
  7
KANJI
  0
TEXT
  8
NTEXT
 10
271.50
 20
369.19
 40
4.00
 41
0.67
  1
１５
 50
90.00
  7
KANJI
  0
TEXT
  8
NTEXT
 10
303.00
 20
321.56
 40
2.30
 41
0.58
  1
７
 50
90.00
  7
KANJI
  0
TEXT
  8
NTEXT
 10
303.85
 20
324.72
 40
4.00
 41
0.67
  1
遮断設備＆リミットスイッチ
 50
90.00
  7
KANJI
  0
TEXT
  8
NTEXT
 10
157.03
 20
172.16
 40
2.30
 41
0.58
  1
１
 50
0.00
  7
KANJI
  0
TEXT
  8
NTEXT
 10
160.19
 20
171.31
 40
4.00
 41
0.67
  1
ガバナー
 50
0.00
  7
KANJI
  0
TEXT
  8
NTEXT
 10
150.48
 20
191.15
 40
4.00
 41
0.67
  1
℡搬器傾き
 50
0.00
  7
KANJI
  0
TEXT
  8
NTEXT
 10
150.48
 20
185.15
 40
4.00
 41
0.67
  1
ストッパー
 50
0.00
  7
KANJI
  0
TEXT
  8
NTEXT
 10
370.03
 20
183.32
 40
2.30
 41
0.58
  1
５
 50
0.00
  7
KANJI
  0
TEXT
  8
NTEXT
 10
373.19
 20
182.47
 40
4.00
 41
0.67
  1
上下限
 50
0.00
  7
KANJI
  0
TEXT
  8
NTEXT
 10
369.19
 20
176.47
 40
4.00
 41
0.67
  1
リミットスイッチ
 50
0.00
  7
KANJI
  0
TEXT
  8
NTEXT
 10
452.70
 20
108.79
 40
4.00
 41
0.67
  1
４００
 50
90.00
  7
KANJI
  0
TEXT
  8
NTEXT
 10
472.39
 20
68.92
 40
4.00
 41
0.67
  1
２６５
 50
0.00
  7
KANJI
  0
TEXT
  8
NTEXT
 10
471.22
 20
76.92
 40
4.00
 41
0.67
  1
１９５
 50
0.00
  7
KANJI
  0
TEXT
  8
NTEXT
 10
486.11
 20
76.92
 40
4.00
 41
0.67
  1
７０
 50
0.00
  7
KANJI
  0
TEXT
  8
NTEXT
 10
504.44
 20
102.79
 40
4.00
 41
0.67
  1
枠組足場間隔
 50
90.00
  7
KANJI
  0
TEXT
  8
NTEXT
 10
461.53
 20
105.79
 40
4.00
 41
0.67
  1
２２０
 50
90.00
  7
KANJI
  0
TEXT
  8
NTEXT
 10
461.53
 20
124.76
 40
4.00
 41
0.67
  1
１８０
 50
90.00
  7
KANJI
  0
TEXT
  8
NTEXT
 10
494.66
 20
108.79
 40
4.00
 41
0.67
  1
３６０
 50
90.00
  7
KANJI
  0
TEXT
  8
NTEXT
 10
234.49
 20
263.83
 40
4.00
 41
0.67
  1
７００
 50
90.00
  7
KANJI
  0
TEXT
  8
NTEXT
 10
229.10
 20
263.83
 40
4.00
 41
0.67
  1
５８０
 50
90.00
  7
KANJI
  0
TEXT
  8
NTEXT
 10
215.92
 20
263.83
 40
4.00
 41
0.67
  1
５００
 50
90.00
  7
KANJI
  0
TEXT
  8
NTEXT
 10
221.92
 20
251.83
 40
4.00
 41
0.67
  1
（アンカーピッチ）
 50
90.00
  7
KANJI
  0
TEXT
  8
NTEXT
 10
193.43
 20
223.98
 40
4.00
 41
0.67
  1
４００
 50
0.00
  7
KANJI
  0
TEXT
  8
NTEXT
 10
180.90
 20
230.30
 40
4.00
 41
0.67
  1
６０
 50
0.00
  7
KANJI
  0
TEXT
  8
NTEXT
 10
193.43
 20
230.30
 40
4.00
 41
0.67
  1
２８０
 50
0.00
  7
KANJI
  0
TEXT
  8
NTEXT
 10
209.40
 20
230.30
 40
4.00
 41
0.67
  1
６０
 50
0.00
  7
KANJI
  0
TEXT
  8
NTEXT
 10
182.90
 20
244.87
 40
4.00
 41
0.67
  1
４０
 50
0.00
  7
KANJI
  0
TEXT
  8
NTEXT
 10
193.43
 20
244.87
 40
4.00
 41
0.67
  1
２００
 50
0.00
  7
KANJI
  0
TEXT
  8
NTEXT
 10
181.43
 20
238.87
 40
4.00
 41
0.67
  1
（アンカーピッチ）
 50
0.00
  7
KANJI
  0
TEXT
  8
NTEXT
 10
207.40
 20
244.87
 40
4.00
 41
0.67
  1
４０
 50
0.00
  7
KANJI
  0
TEXT
  8
NTEXT
 10
208.87
 20
301.49
 40
4.00
 41
0.67
  1
４～φ２０
 50
0.00
  7
KANJI
  0
TEXT
  8
NTEXT
 10
208.87
 20
295.49
 40
4.00
 41
0.67
  1
（Ｍ１６×
 50
0.00
  7
KANJI
  0
TEXT
  8
NTEXT
 10
228.62
 20
297.89
 40
2.40
 41
0.67
  1
Ｌ
 50
0.00
  7
KANJI
  0
TEXT
  8
NTEXT
 10
231.27
 20
295.49
 40
4.00
 41
0.67
  1
３００×
 50
0.00
  7
KANJI
  0
TEXT
  8
NTEXT
 10
247.02
 20
297.89
 40
2.40
 41
0.67
  1
ｓ
 50
0.00
  7
KANJI
  0
TEXT
  8
NTEXT
 10
249.67
 20
295.49
 40
4.00
 41
0.67
  1
５０
 50
0.00
  7
KANJI
  0
TEXT
  8
NTEXT
 10
208.87
 20
289.49
 40
4.00
 41
0.67
  1
アンカーボルト）
 50
0.00
  7
KANJI
  0
TEXT
  8
NTEXT
 10
204.82
 20
248.60
 40
4.00
 41
0.67
  1
基礎ベース
 50
90.00
  7
KANJI
  0
TEXT
  8
NTEXT
 10
436.48
 20
95.37
 40
4.00
 41
0.67
  1
φ１６
 50
0.00
  7
KANJI
  0
TEXT
  8
NTEXT
 10
436.48
 20
89.37
 40
4.00
 41
0.67
  1
（ノックピン）
 50
0.00
  7
KANJI
  0
TEXT
  8
NTEXT
 10
459.95
 20
55.34
 40
4.00
 41
0.67
  1
壁継なぎ（サポート）
 50
0.00
  7
KANJI
  0
TEXT
  8
NTEXT
 10
340.49
 20
215.38
 40
4.00
 41
0.67
  1
ヘッドガード
 50
0.00
  7
KANJI
  0
TEXT
  8
NTEXT
 10
372.42
 20
196.84
 40
4.00
 41
0.67
  1
℡搬器傾き
 50
0.00
  7
KANJI
  0
TEXT
  8
NTEXT
 10
372.42
 20
190.84
 40
4.00
 41
0.67
  1
ストッパー
 50
0.00
  7
KANJI
  0
TEXT
  8
NTEXT
 10
319.07
 20
126.34
 40
4.00
 41
0.67
  1
㊧警報装置
 50
0.00
  7
KANJI
  0
TEXT
  8
NTEXT
 10
315.78
 20
174.10
 40
4.00
 41
0.67
  1
　搭　乗　席
 50
0.00
  7
KANJI
  0
TEXT
  8
NTEXT
 10
313.78
 20
168.10
 40
4.00
 41
0.67
  1
（　３　人　）
 50
0.00
  7
KANJI
  0
TEXT
  8
NTEXT
 10
458.10
 20
84.76
 40
4.00
 41
0.67
  1
１６０
 50
0.00
  7
KANJI
  0
TEXT
  8
NTEXT
 10
483.77
 20
84.76
 40
4.00
 41
0.67
  1
３５
 50
0.00
  7
KANJI
  0
TEXT
  8
NTEXT
 10
284.20
 20
143.03
 40
4.00
 41
0.67
  1
１９１０
 50
90.00
  7
KANJI
  0
TEXT
  8
NTEXT
 10
284.20
 20
120.88
 40
4.00
 41
0.67
  1
４３０
 50
90.00
  7
KANJI
  0
TEXT
  8
NTEXT
 10
352.75
 20
80.32
 40
3.20
 41
0.67
  1
２１５
 50
0.00
  7
KANJI
  0
TEXT
  8
NTEXT
 10
238.81
 20
80.32
 40
3.20
 41
0.67
  1
６２４０
 50
0.00
  7
KANJI
  0
TEXT
  8
NTEXT
 10
128.37
 20
80.32
 40
3.20
 41
0.67
  1
２１５
 50
0.00
  7
KANJI
  0
TEXT
  8
NTEXT
 10
156.81
 20
87.32
 40
3.20
 41
0.67
  1
１３２０
 50
0.00
  7
KANJI
  0
TEXT
  8
NTEXT
 10
208.81
 20
87.32
 40
3.20
 41
0.67
  1
１８００
 50
0.00
  7
KANJI
  0
TEXT
  8
NTEXT
 10
268.81
 20
87.32
 40
3.20
 41
0.67
  1
１８００
 50
0.00
  7
KANJI
  0
TEXT
  8
NTEXT
 10
320.81
 20
87.32
 40
3.20
 41
0.67
  1
１３２０
 50
0.00
  7
KANJI
  0
TEXT
  8
NTEXT
 10
221.73
 20
200.83
 40
4.00
 41
0.67
  1
３１００（手摺開口寸法）
 50
0.00
  7
KANJI
  0
TEXT
  8
NTEXT
 10
270.49
 20
230.03
 40
2.30
 41
0.58
  1
６
 50
0.00
  7
KANJI
  0
TEXT
  8
NTEXT
 10
273.66
 20
229.18
 40
4.00
 41
0.67
  1
扉リミットスイッチ
 50
0.00
  7
KANJI
  0
TEXT
  8
NTEXT
 10
319.78
 20
222.07
 40
4.00
 41
0.67
  1
１２６４
 50
0.00
  7
KANJI
  0
TEXT
  8
NTEXT
 10
44.80
 20
22.96
 40
6.30
 41
0.67
  1
ＫＯＳＨＩＨＡＲＡ
 50
0.00
  7
KANJI
  0
TEXT
  8
NTEXT
 10
128.96
 20
19.11
 40
4.00
 41
0.67
  1
正
 50
0.00
  7
KANJI
  0
TEXT
  8
NTEXT
 10
242.46
 20
19.11
 40
4.00
 41
0.67
  1
尺　度
 50
0.00
  7
KANJI
  0
TEXT
  8
NTEXT
 10
329.46
 20
21.61
 40
4.00
 41
0.67
  1
西田
 50
0.00
  7
KANJI
  0
TEXT
  8
NTEXT
 10
343.55
 20
18.61
 40
5.00
 41
0.67
  1
称
 50
0.00
  7
KANJI
  0
TEXT
  8
NTEXT
 10
466.46
 20
19.11
 40
4.00
 41
0.67
  1
図番
 50
0.00
  7
KANJI
  0
TEXT
  8
NTEXT
 10
128.96
 20
29.11
 40
4.00
 41
0.67
  1
訂
 50
0.00
  7
KANJI
  0
TEXT
  8
NTEXT
 10
242.46
 20
29.11
 40
4.00
 41
0.67
  1
年月日
 50
0.00
  7
KANJI
  0
TEXT
  8
NTEXT
 10
259.59
 20
29.86
 40
2.50
 41
0.67
  1
９５．６．２９
 50
0.00
  7
KANJI
  0
TEXT
  8
NTEXT
 10
343.55
 20
28.61
 40
5.00
 41
0.67
  1
名
 50
0.00
  7
KANJI
  0
TEXT
  8
NTEXT
 10
466.46
 20
29.11
 40
4.00
 41
0.67
  1
符号
 50
0.00
  7
KANJI
  0
TEXT
  8
NTEXT
 10
483.46
 20
29.11
 40
4.00
 41
0.67
  1
品　　　　　名
 50
0.00
  7
KANJI
  0
TEXT
  8
NTEXT
 10
521.96
 20
29.11
 40
4.00
 41
0.67
  1
材　　質
 50
0.00
  7
KANJI
  0
TEXT
  8
NTEXT
 10
541.96
 20
29.11
 40
4.00
 41
0.67
  1
個数
 50
0.00
  7
KANJI
  0
TEXT
  8
NTEXT
 10
555.96
 20
29.11
 40
4.00
 41
0.67
  1
記　　事
 50
0.00
  7
KANJI
  0
TEXT
  8
NTEXT
 10
282.46
 20
31.94
 40
3.33
 41
0.80
  1
検　図
 50
0.00
  7
KANJI
  0
TEXT
  8
NTEXT
 10
297.46
 20
31.94
 40
3.33
 41
0.80
  1
検　図
 50
0.00
  7
KANJI
  0
TEXT
  8
NTEXT
 10
312.46
 20
31.94
 40
3.33
 41
0.80
  1
設　計
 50
0.00
  7
KANJI
  0
TEXT
  8
NTEXT
 10
327.46
 20
31.94
 40
3.33
 41
0.80
  1
製　図
 50
0.00
  7
KANJI
  0
TEXT
  8
NTEXT
 10
258.91
 20
20.47
 40
3.20
 41
0.67
  1
１
 50
0.00
  7
KANJI
  0
TEXT
  8
NTEXT
 10
261.66
 20
19.83
 40
4.00
 41
0.67
  1
／
 50
0.00
  7
KANJI
  0
TEXT
  8
NTEXT
 10
265.08
 20
19.83
 40
3.20
 41
0.67
  1
１０・
 50
0.00
  7
KANJI
  0
TEXT
  8
NTEXT
 10
274.95
 20
21.75
 40
2.56
 41
0.67
  1
１
 50
0.00
  7
KANJI
  0
TEXT
  8
NTEXT
 10
274.95
 20
18.55
 40
2.56
 41
0.67
  1
２
 50
0.00
  7
KANJI
  0
TEXT
  8
NTEXT
 10
490.20
 20
19.51
 40
3.20
 41
0.67
  1
Ｌ－１００９－１（１５７－０００１－
 50
0.00
  7
KANJI
  0
TEXT
  8
NTEXT
 10
373.55
 20
18.61
 40
5.00
 41
0.67
  1
組立図（片屋根：１０００幅）
 50
0.00
  7
KANJI
  0
TEXT
  8
NTEXT
 10
357.20
 20
29.51
 40
3.20
 41
0.67
  1
ロングスパン工事用エレベータ－（ＫＲ
 50
0.00
  7
KANJI
  0
TEXT
  8
NTEXT
 10
473.70
 20
250.61
 40
5.00
 41
0.62
  1
安
 50
0.00
  7
KANJI
  0
TEXT
  8
NTEXT
 10
473.70
 20
243.61
 40
5.00
 41
0.62
  1
　
 50
0.00
  7
KANJI
  0
TEXT
  8
NTEXT
 10
473.70
 20
236.61
 40
5.00
 41
0.62
  1
全
 50
0.00
  7
KANJI
  0
TEXT
  8
NTEXT
 10
473.70
 20
229.61
 40
5.00
 41
0.62
  1
　
 50
0.00
  7
KANJI
  0
TEXT
  8
NTEXT
 10
473.70
 20
222.61
 40
5.00
 41
0.62
  1
装
 50
0.00
  7
KANJI
  0
TEXT
  8
NTEXT
 10
473.70
 20
215.61
 40
5.00
 41
0.62
  1
　
 50
0.00
  7
KANJI
  0
TEXT
  8
NTEXT
 10
473.70
 20
208.61
 40
5.00
 41
0.62
  1
置
 50
0.00
  7
KANJI
  0
TEXT
  8
NTEXT
 10
496.05
 20
224.61
 40
5.00
 41
0.67
  1
㊤　上・下限制御装置
 50
0.00
  7
KANJI
  0
TEXT
  8
NTEXT
 10
463.55
 20
274.61
 40
5.00
 41
0.67
  1
昇降電動機
 50
0.00
  7
KANJI
  0
TEXT
  8
NTEXT
 10
466.05
 20
284.61
 40
5.00
 41
0.67
  1
速　　度
 50
0.00
  7
KANJI
  0
TEXT
  8
NTEXT
 10
461.05
 20
304.61
 40
5.00
 41
0.67
  1
揚　　　　程
 50
0.00
  7
KANJI
  0
TEXT
  8
NTEXT
 10
458.55
 20
314.61
 40
5.00
 41
0.67
  1
操　作　方　式
 50
0.00
  7
KANJI
  0
TEXT
  8
NTEXT
 10
458.55
 20
324.61
 40
5.00
 41
0.67
  1
昇　降　方　式
 50
0.00
  7
KANJI
  0
TEXT
  8
NTEXT
 10
461.05
 20
334.61
 40
5.00
 41
0.67
  1
枠組足場間隔
 50
0.00
  7
KANJI
  0
TEXT
  8
NTEXT
 10
524.40
 20
334.61
 40
5.00
 41
0.67
  1
　７．２
 50
0.00
  7
KANJI
  0
TEXT
  8
NTEXT
 10
544.10
 20
337.61
 40
3.00
 41
0.67
  1
ｍ
 50
0.00
  7
KANJI
  0
TEXT
  8
NTEXT
 10
456.05
 20
344.61
 40
5.00
 41
0.67
  1
ガイドレール間隔
 50
0.00
  7
KANJI
  0
TEXT
  8
NTEXT
 10
524.40
 20
344.61
 40
5.00
 41
0.67
  1
６．６７
 50
0.00
  7
KANJI
  0
TEXT
  8
NTEXT
 10
544.10
 20
347.61
 40
3.00
 41
0.67
  1
ｍ
 50
0.00
  7
KANJI
  0
TEXT
  8
NTEXT
 10
458.55
 20
364.61
 40
5.00
 41
0.67
  1
積　載　荷　重
 50
0.00
  7
KANJI
  0
TEXT
  8
NTEXT
 10
522.90
 20
364.61
 40
5.00
 41
0.67
  1
　７００
 50
0.00
  7
KANJI
  0
TEXT
  8
NTEXT
 10
542.60
 20
367.61
 40
3.00
 41
0.67
  1
ｋｇ
 50
0.00
  7
KANJI
  0
TEXT
  8
NTEXT
 10
463.55
 20
374.61
 40
5.00
 41
0.67
  1
名　　　称
 50
0.00
  7
KANJI
  0
TEXT
  8
NTEXT
 10
463.55
 20
384.61
 40
5.00
 41
0.67
  1
用　　　途
 50
0.00
  7
KANJI
  0
TEXT
  8
NTEXT
 10
496.05
 20
394.61
 40
5.00
 41
0.67
  1
仕　　　　　　様
 50
0.00
  7
KANJI
  0
TEXT
  8
NTEXT
 10
498.55
 20
374.61
 40
5.00
 41
0.67
  1
ＫＲＤ－８００　ローターデッキ
 50
0.00
  7
KANJI
  0
TEXT
  8
NTEXT
 10
508.55
 20
314.61
 40
5.00
 41
0.67
  1
レバーコントロール方式
 50
0.00
  7
KANJI
  0
TEXT
  8
NTEXT
 10
516.90
 20
304.61
 40
5.00
 41
0.67
  1
５０
 50
0.00
  7
KANJI
  0
TEXT
  8
NTEXT
 10
526.60
 20
307.61
 40
3.00
 41
0.67
  1
ｍ
 50
0.00
  7
KANJI
  0
TEXT
  8
NTEXT
 10
529.90
 20
304.61
 40
5.00
 41
0.67
  1
（ｍａｘ）
 50
0.00
  7
KANJI
  0
TEXT
  8
NTEXT
 10
498.76
 20
274.61
 40
5.00
 41
0.67
  1
２．２
 50
0.00
  7
KANJI
  0
TEXT
  8
NTEXT
 10
513.45
 20
277.61
 40
3.00
 41
0.67
  1
ｋｗ
 50
0.00
  7
KANJI
  0
TEXT
  8
NTEXT
 10
519.76
 20
274.61
 40
5.00
 41
0.67
  1
×４
 50
0.00
  7
KANJI
  0
TEXT
  8
NTEXT
 10
529.45
 20
277.61
 40
3.00
 41
0.67
  1
ｐ
 50
0.00
  7
KANJI
  0
TEXT
  8
NTEXT
 10
532.76
 20
274.61
 40
5.00
 41
0.67
  1
ブレーキ付　２台
 50
0.00
  7
KANJI
  0
TEXT
  8
NTEXT
 10
461.05
 20
179.61
 40
5.00
 41
0.67
  1
電　　　　源
 50
0.00
  7
KANJI
  0
TEXT
  8
NTEXT
 10
512.11
 20
184.61
 40
5.00
 41
0.67
  1
３相　
 50
0.00
  7
KANJI
  0
TEXT
  8
NTEXT
 10
527.10
 20
185.41
 40
4.00
 41
0.67
  1
２００
 50
0.00
  7
KANJI
  0
TEXT
  8
NTEXT
 10
538.55
 20
184.61
 40
5.00
 41
0.67
  1
／
 50
0.00
  7
KANJI
  0
TEXT
  8
NTEXT
 10
542.82
 20
184.61
 40
4.00
 41
0.67
  1
２２０
 50
0.00
  7
KANJI
  0
TEXT
  8
NTEXT
 10
554.98
 20
184.61
 40
5.00
 41
0.67
  1
Ｖ
 50
0.00
  7
KANJI
  0
TEXT
  8
NTEXT
 10
466.05
 20
354.61
 40
5.00
 41
0.67
  1
荷台寸法
 50
0.00
  7
KANJI
  0
TEXT
  8
NTEXT
 10
525.26
 20
354.61
 40
5.00
 41
0.67
  1
１
 50
0.00
  7
KANJI
  0
TEXT
  8
NTEXT
 10
529.95
 20
357.61
 40
3.00
 41
0.67
  1
ｍ
 50
0.00
  7
KANJI
  0
TEXT
  8
NTEXT
 10
533.26
 20
354.61
 40
5.00
 41
0.67
  1
×６
 50
0.00
  7
KANJI
  0
TEXT
  8
NTEXT
 10
542.95
 20
357.61
 40
3.00
 41
0.67
  1
ｍ
 50
0.00
  7
KANJI
  0
TEXT
  8
NTEXT
 10
503.55
 20
324.61
 40
5.00
 41
0.67
  1
ラック（ロータリー）駆動式
 50
0.00
  7
KANJI
  0
TEXT
  8
NTEXT
 10
516.05
 20
284.61
 40
5.00
 41
0.67
  1
５０／６０　Ｈｚ
 50
0.00
  7
KANJI
  0
TEXT
  8
NTEXT
 10
466.05
 20
294.61
 40
5.00
 41
0.67
  1
昇　　降
 50
0.00
  7
KANJI
  0
TEXT
  8
NTEXT
 10
508.61
 20
295.11
 40
5.00
 41
0.67
  1
８．３／１０　
 50
0.00
  7
KANJI
  0
TEXT
  8
NTEXT
 10
543.60
 20
295.91
 40
4.00
 41
0.67
  1
ｍ
 50
0.00
  7
KANJI
  0
TEXT
  8
NTEXT
 10
547.05
 20
295.11
 40
5.00
 41
0.67
  1
／
 50
0.00
  7
KANJI
  0
TEXT
  8
NTEXT
 10
551.32
 20
295.11
 40
4.00
 41
0.67
  1
ｍｉｎ
 50
0.00
  7
KANJI
  0
TEXT
  8
NTEXT
 10
518.55
 20
174.61
 40
5.00
 41
0.67
  1
５０／６０Ｈｚ
 50
0.00
  7
KANJI
  0
TEXT
  8
NTEXT
 10
496.05
 20
264.61
 40
5.00
 41
0.67
  1
〟　ガバナ落下防止装置
 50
0.00
  7
KANJI
  0
TEXT
  8
NTEXT
 10
496.05
 20
234.61
 40
5.00
 41
0.67
  1
℡　搬器傾きストッパー
 50
0.00
  7
KANJI
  0
TEXT
  8
NTEXT
 10
496.05
 20
214.61
 40
5.00
 41
0.67
  1
㊥　ドアーリミットスイッチ
 50
0.00
  7
KANJI
  0
TEXT
  8
NTEXT
 10
496.05
 20
254.61
 40
5.00
 41
0.67
  1
№　搬器傾き矯正装置（制御盤内）
 50
0.00
  7
KANJI
  0
TEXT
  8
NTEXT
 10
496.05
 20
244.61
 40
5.00
 41
0.67
  1
㏍　搬器傾き遮断装置（制御盤内）
 50
0.00
  7
KANJI
  0
TEXT
  8
NTEXT
 10
496.05
 20
194.61
 40
5.00
 41
0.67
  1
㊧　警報装置
 50
0.00
  7
KANJI
  0
TEXT
  8
NTEXT
 10
496.05
 20
204.61
 40
5.00
 41
0.67
  1
㊦　遮断設備＆リミットスイッチ
 50
0.00
  7
KANJI
  0
TEXT
  8
NTEXT
 10
498.55
 20
384.61
 40
5.00
 41
0.67
  1
ロングスパン工事用エレベータ－
 50
0.00
  7
KANJI
  0
ENDSEC
  0
EOF
