  0
SECTION
  2
HEADER
  9
$EXTMIN
 10
0
 20
0
  9
$EXTMAX
 10
420
 20
297
  0
ENDSEC
  0
SECTION
  2
TABLES
  0
TABLE
  2
LTYPE
 70
     9
  0
LTYPE
  2
CONTINUOUS
 70
    64
  3
実線
 72
    65
 73
     0
 40
0.0
  0
LTYPE
  2
DASHED1
 70
    64
  3
--  --  --  --  --  --  --  --  
 72
    65
 73
     2
 40
2.5
 49
1.25
 49
-1.25
  0
LTYPE
  2
DASHED2
 70
    64
  3
----    ----    ----    ----    
 72
    65
 73
     2
 40
5.0
 49
2.5
 49
-2.5
  0
LTYPE
  2
DASHED3
 70
    64
  3
------  ------  ------  ------  
 72
    65
 73
     2
 40
5.0
 49
3.75
 49
-1.25
  0
LTYPE
  2
CENTER1
 70
    64
  3
----- - ----- - ----- - ----- - 
 72
    65
 73
     4
 40
10.0
 49
6.25
 49
-1.25
 49
1.25
 49
-1.25
  0
LTYPE
  2
CENTER2
 70
    64
  3
----------  --  ----------  --  
 72
    65
 73
     4
 40
20.0
 49
12.5
 49
-2.5
 49
2.5
 49
-2.5
  0
LTYPE
  2
PHANTOM1
 70
    64
  3
--- - - --- - - --- - - --- - - 
 72
    65
 73
     6
 40
10.0
 49
3.25
 49
-1.25
 49
1.25
 49
-1.25
 49
1.25
 49
-1.25
  0
LTYPE
  2
PHANTOM2
 70
    64
  3
--------  -  -  --------  -  -  
 72
    65
 73
     6
 40
20.0
 49
10.0
 49
-2.5
 49
1.25
 49
-2.5
 49
1.25
 49
-2.5
  0
LTYPE
  2
DOT
 70
    64
  3
-   -   -   -   -   -   -   -   
 72
    65
 73
     2
 40
2.5
 49
0.625
 49
-1.875
  0
ENDTAB
  0
TABLE
  2
STYLE
 70
    1
  0
STYLE
  2
STANDARD
 70
    64
 40
0.0
 41
1.0
 42
0.0
 50
0.0
 71
     0
  3
TXT
  4
BIGFONT
  0
ENDTAB
  0
TABLE
  2
LAYER
 70
    8
  0
LAYER
  2
0-0
 70
   64
 62
    7
  6
CONTINUOUS
  0
LAYER
  2
1-0
 70
   64
 62
    7
  6
CONTINUOUS
  0
LAYER
  2
1-1
 70
   64
 62
    7
  6
CONTINUOUS
  0
LAYER
  2
1-2
 70
   64
 62
    7
  6
CONTINUOUS
  0
LAYER
  2
2-0
 70
   64
 62
    7
  6
CONTINUOUS
  0
LAYER
  2
2-1
 70
   64
 62
    7
  6
CONTINUOUS
  0
LAYER
  2
2-2
 70
   64
 62
    7
  6
CONTINUOUS
  0
LAYER
  2
ADD_LINE
 70
   64
 62
    7
  6
CONTINUOUS
  0
ENDTAB
  0
ENDSEC
  0
SECTION
  2
ENTITIES
  0
LINE
  8
0-0
  6
CONTINUOUS
 62
    7
 10
300.46854
 20
52.820118
 11
300.46854
 21
4.3201198
  0
LINE
  8
0-0
  6
CONTINUOUS
 62
    7
 10
367.46857
 20
52.820118
 11
367.46857
 21
4.3201198
  0
LINE
  8
0-0
  6
CONTINUOUS
 62
    7
 10
379.42582
 20
52.640087
 11
379.42582
 21
45.518101
  0
LINE
  8
0-0
  6
CONTINUOUS
 62
    7
 10
353.9686
 20
52.820118
 11
353.9686
 21
45.518101
  0
LINE
  8
0-0
  6
CONTINUOUS
 62
    7
 10
307.46852
 20
52.820118
 11
307.46852
 21
45.518101
  0
LINE
  8
0-0
  6
CONTINUOUS
 62
    7
 10
310.01354
 20
36.36829
 11
362.6066
 21
36.36829
  0
LINE
  8
0-0
  6
CONTINUOUS
 62
    7
 10
391.79945
 20
52.820118
 11
391.79945
 21
17.851923
  0
LINE
  8
0-0
  6
CONTINUOUS
 62
    7
 10
376.73477
 20
7.0734523
 11
382.59518
 21
7.0734523
  0
LINE
  8
0-0
  6
CONTINUOUS
 62
    7
 10
389.18804
 20
7.0734523
 11
396.0252
 21
7.0734523
  0
LINE
  8
0-0
  6
CONTINUOUS
 62
    7
 10
313.96854
 20
24.898774
 11
313.96854
 21
18.061665
  0
LINE
  8
0-0
  6
CONTINUOUS
 62
    7
 10
336.73147
 20
24.898774
 11
336.73147
 21
18.061665
  0
LINE
  8
0-0
  6
CONTINUOUS
 62
    7
 10
350.23144
 20
24.898774
 11
350.23144
 21
18.061665
  0
LINE
  8
0-0
  6
CONTINUOUS
 62
    7
 10
301.35537
 20
11.373628
 11
305.37364
 21
14.521967
  0
LINE
  8
0-0
  6
CONTINUOUS
 62
    7
 10
301.35537
 20
11.373628
 11
305.37703
 21
8.1727083
  0
LINE
  8
0-0
  6
CONTINUOUS
 62
    7
 10
305.37703
 20
8.1727083
 11
309.42307
 21
11.342797
  0
LINE
  8
0-0
  6
CONTINUOUS
 62
    7
 10
305.37364
 20
14.565807
 11
309.42307
 21
11.342797
  0
LINE
  8
0-0
  6
CONTINUOUS
 62
    7
 10
197.99357
 20
283.81597
 11
202.01187
 21
286.96427
  0
LINE
  8
0-0
  6
CONTINUOUS
 62
    7
 10
197.99357
 20
283.81597
 11
202.01528
 21
280.61504
  0
LINE
  8
0-0
  6
CONTINUOUS
 62
    7
 10
202.01528
 20
280.61504
 11
206.0613
 21
283.78511
  0
LINE
  8
0-0
  6
CONTINUOUS
 62
    7
 10
202.01187
 20
287.00814
 11
206.0613
 21
283.78511
  0
LINE
  8
0-0
  6
CONTINUOUS
 62
    7
 10
300.46854
 20
17.820111
 11
409.42775
 21
17.820111
  0
LINE
  8
0-0
  6
CONTINUOUS
 62
    7
 10
300.46854
 20
24.820113
 11
409.42775
 21
24.820113
  0
LINE
  8
0-0
  6
CONTINUOUS
 62
    7
 10
367.53723
 20
38.570111
 11
409.42775
 21
38.570111
  0
LINE
  8
0-0
  6
CONTINUOUS
 62
    7
 10
300.46854
 20
52.820118
 11
409.00914
 21
52.820118
  0
LINE
  8
0-0
  6
CONTINUOUS
 62
    7
 10
300.46854
 20
31.820105
 11
409.42092
 21
31.820105
  0
LINE
  8
0-0
  6
CONTINUOUS
 62
    7
 10
300.46854
 20
45.320115
 11
409.33333
 21
45.320115
  0
LINE
  8
0-0
  6
CONTINUOUS
 62
    7
 10
322.46852
 20
31.623189
 11
322.46852
 21
24.898774
  0
LINE
  8
1-0
  6
CONTINUOUS
 62
    7
 10
50.688121
 20
134.73283
 11
59.48812
 21
134.73283
  0
LINE
  8
1-0
  6
CONTINUOUS
 62
    7
 10
50.688121
 20
134.85947
 11
59.48812
 21
134.85947
  0
LINE
  8
1-0
  6
CONTINUOUS
 62
    7
 10
50.688121
 20
134.859
 11
50.688121
 21
134.73283
  0
LINE
  8
1-0
  6
CONTINUOUS
 62
    7
 10
59.48812
 20
134.85903
 11
59.48812
 21
134.73283
  0
LINE
  8
1-0
  6
CENTER1
 62
    2
 10
51.88813
 20
118.70462
 11
51.88813
 21
116.42701
  0
LINE
  8
1-0
  6
CONTINUOUS
 62
    7
 10
52.441579
 20
117.40044
 11
52.295465
 21
117.40044
  0
LINE
  8
1-0
  6
CONTINUOUS
 62
    7
 10
52.423293
 20
117.74745
 11
52.28631
 21
117.74745
  0
LINE
  8
1-0
  6
CENTER1
 62
    2
 10
51.891248
 20
116.73302
 11
51.891248
 21
118.47708
  0
LINE
  8
1-0
  6
CONTINUOUS
 62
    7
 10
50.754806
 20
118.57744
 11
59.421435
 21
118.57744
  0
LINE
  8
1-0
  6
CONTINUOUS
 62
    7
 10
50.754806
 20
118.44407
 11
59.421435
 21
118.44407
  0
LINE
  8
1-0
  6
CONTINUOUS
 62
    7
 10
50.754806
 20
118.42808
 11
50.754806
 21
118.57269
  0
LINE
  8
1-0
  6
CONTINUOUS
 62
    7
 10
59.421435
 20
118.57269
 11
59.421435
 21
118.45216
  0
LINE
  8
1-0
  6
CENTER1
 62
    2
 10
55.088121
 20
117.17475
 11
55.088121
 21
115.99367
  0
LINE
  8
1-0
  6
CONTINUOUS
 62
    7
 10
59.888131
 20
116.19073
 11
59.888131
 21
116.11069
  0
LINE
  8
1-0
  6
CENTER1
 62
    2
 10
51.88813
 20
118.80154
 11
51.88813
 21
116.42701
  0
LINE
  8
1-0
  6
CENTER1
 62
    2
 10
58.288111
 20
118.42467
 11
58.288111
 21
116.65048
  0
LINE
  8
1-0
  6
CENTER1
 62
    2
 10
58.29259
 20
118.63435
 11
58.29259
 21
116.89024
  0
LINE
  8
1-0
  6
CONTINUOUS
 62
    7
 10
57.625913
 20
118.42986
 11
57.625913
 21
116.65216
  0
LINE
  8
1-0
  6
CONTINUOUS
 62
    7
 10
58.025924
 20
118.42986
 11
58.025924
 21
116.63019
  0
LINE
  8
1-0
  6
CONTINUOUS
 62
    7
 10
58.159245
 20
118.40792
 11
58.159245
 21
116.67406
  0
LINE
  8
1-0
  6
CONTINUOUS
 62
    7
 10
58.625941
 20
118.42986
 11
58.625941
 21
116.65216
  0
LINE
  8
1-0
  6
CONTINUOUS
 62
    7
 10
58.492596
 20
118.45184
 11
58.492596
 21
116.65216
  0
LINE
  8
1-0
  6
CENTER1
 62
    2
 10
52.589869
 20
117.56524
 11
51.207126
 21
117.56524
  0
LINE
  8
1-0
  6
CONTINUOUS
 62
    7
 10
58.164614
 20
118.09859
 11
58.449937
 21
118.09859
  0
LINE
  8
1-0
  6
CONTINUOUS
 62
    7
 10
58.164614
 20
117.03193
 11
58.449937
 21
117.03193
  0
LINE
  8
1-0
  6
CONTINUOUS
 62
    7
 10
58.164614
 20
117.96522
 11
58.449937
 21
117.96522
  0
LINE
  8
1-0
  6
CONTINUOUS
 62
    7
 10
58.164614
 20
117.16527
 11
58.449937
 21
117.16527
  0
LINE
  8
1-0
  6
CONTINUOUS
 62
    7
 10
59.154794
 20
118.42986
 11
59.154794
 21
116.65048
  0
LINE
  8
1-0
  6
CONTINUOUS
 62
    7
 10
54.988155
 20
122.24405
 11
55.188136
 21
122.24405
  0
LINE
  8
1-0
  6
CONTINUOUS
 62
    7
 10
54.021457
 20
124.94888
 11
54.154778
 21
124.94888
  0
LINE
  8
1-0
  6
CONTINUOUS
 62
    7
 10
54.021457
 20
124.94888
 11
54.021457
 21
124.14883
  0
LINE
  8
1-0
  6
CONTINUOUS
 62
    7
 10
54.154778
 20
124.94888
 11
54.154778
 21
124.14883
  0
LINE
  8
1-0
  6
CONTINUOUS
 62
    7
 10
54.021457
 20
124.14883
 11
54.154778
 21
124.14883
  0
LINE
  8
1-0
  6
CONTINUOUS
 62
    7
 10
51.691267
 20
118.08535
 11
51.691267
 21
118.4213
  0
LINE
  8
1-0
  6
CONTINUOUS
 62
    7
 10
52.557949
 20
116.65869
 11
52.557949
 21
118.43662
  0
LINE
  8
1-0
  6
CONTINUOUS
 62
    7
 10
48.46814
 20
137.19951
 11
51.021126
 21
137.19951
  0
LINE
  8
1-0
  6
CONTINUOUS
 62
    7
 10
48.46814
 20
137.19951
 11
48.46814
 21
137.66613
  0
LINE
  8
1-0
  6
CONTINUOUS
 62
    7
 10
53.754766
 20
128.64477
 11
56.421475
 21
128.64477
  0
LINE
  8
1-0
  6
CONTINUOUS
 62
    7
 10
56.421475
 20
128.64477
 11
56.421475
 21
128.58479
  0
LINE
  8
1-0
  6
CONTINUOUS
 62
    7
 10
53.754766
 20
128.64477
 11
53.754766
 21
128.58479
  0
LINE
  8
1-0
  6
CONTINUOUS
 62
    7
 10
53.754766
 20
128.58479
 11
56.421475
 21
128.58479
  0
LINE
  8
1-0
  6
CONTINUOUS
 62
    7
 10
54.121472
 20
128.57628
 11
54.121472
 21
128.04473
  0
LINE
  8
1-0
  6
CONTINUOUS
 62
    7
 10
56.054794
 20
128.57628
 11
56.054794
 21
128.04473
  0
LINE
  8
1-0
  6
CONTINUOUS
 62
    7
 10
54.181427
 20
128.57628
 11
54.181427
 21
128.04473
  0
LINE
  8
1-0
  6
CONTINUOUS
 62
    7
 10
55.994765
 20
128.57628
 11
55.994765
 21
128.04473
  0
LINE
  8
1-0
  6
CONTINUOUS
 62
    7
 10
54.121472
 20
128.04473
 11
54.16903
 21
128.04473
  0
LINE
  8
1-0
  6
CONTINUOUS
 62
    7
 10
55.994592
 20
128.04473
 11
56.054794
 21
128.04473
  0
LINE
  8
1-0
  6
CONTINUOUS
 62
    7
 10
47.154779
 20
124.99944
 11
47.154779
 21
124.49949
  0
LINE
  8
1-0
  6
CONTINUOUS
 62
    7
 10
47.154779
 20
124.93954
 11
52.354777
 21
124.93954
  0
LINE
  8
1-0
  6
CONTINUOUS
 62
    7
 10
52.354777
 20
124.99944
 11
52.354777
 21
124.93954
  0
LINE
  8
1-0
  6
CONTINUOUS
 62
    7
 10
47.154779
 20
124.49949
 11
51.82147
 21
124.49949
  0
LINE
  8
1-0
  6
CONTINUOUS
 62
    7
 10
47.154779
 20
124.99944
 11
52.354777
 21
124.99944
  0
LINE
  8
1-0
  6
CONTINUOUS
 62
    7
 10
51.82147
 20
124.95451
 11
51.82147
 21
124.49949
  0
LINE
  8
1-0
  6
CENTER1
 62
    2
 10
48.115168
 20
134.59946
 11
51.096817
 21
134.59946
  0
LINE
  8
1-0
  6
CENTER1
 62
    2
 10
49.221446
 20
135.43012
 11
49.221446
 21
133.16218
  0
LINE
  8
1-0
  6
CONTINUOUS
 62
    7
 10
50.352395
 20
137.19921
 11
48.987913
 21
134.72818
  0
LINE
  8
1-0
  6
CONTINUOUS
 62
    7
 10
48.554794
 20
134.26616
 11
49.888148
 21
134.26616
  0
LINE
  8
1-0
  6
CONTINUOUS
 62
    7
 10
48.554794
 20
134.26616
 11
48.554794
 21
133.79949
  0
LINE
  8
1-0
  6
CONTINUOUS
 62
    7
 10
49.888148
 20
134.26616
 11
49.888148
 21
133.79949
  0
LINE
  8
1-0
  6
CONTINUOUS
 62
    7
 10
48.521464
 20
133.79949
 11
49.921453
 21
133.79949
  0
LINE
  8
1-0
  6
CONTINUOUS
 62
    7
 10
48.521464
 20
133.79949
 11
48.521464
 21
132.06746
  0
LINE
  8
1-0
  6
CONTINUOUS
 62
    7
 10
49.921453
 20
133.79949
 11
49.921453
 21
132.08107
  0
LINE
  8
1-0
  6
CONTINUOUS
 62
    7
 10
48.488109
 20
132.06617
 11
49.954784
 21
132.06617
  0
LINE
  8
1-0
  6
CONTINUOUS
 62
    7
 10
48.488109
 20
132.06617
 11
48.488109
 21
130.86612
  0
LINE
  8
1-0
  6
CONTINUOUS
 62
    7
 10
49.954784
 20
132.06617
 11
49.954784
 21
130.86612
  0
LINE
  8
1-0
  6
CONTINUOUS
 62
    7
 10
48.488109
 20
130.86612
 11
49.954784
 21
130.86612
  0
LINE
  8
1-0
  6
CONTINUOUS
 62
    7
 10
48.721445
 20
130.90459
 11
48.721445
 21
125.86617
  0
LINE
  8
1-0
  6
CONTINUOUS
 62
    7
 10
49.721448
 20
130.90459
 11
49.721448
 21
125.86617
  0
LINE
  8
1-0
  6
CONTINUOUS
 62
    7
 10
48.721445
 20
125.86617
 11
49.721448
 21
125.86617
  0
LINE
  8
1-0
  6
CONTINUOUS
 62
    7
 10
48.85479
 20
125.87355
 11
48.85479
 21
125.61789
  0
LINE
  8
1-0
  6
CONTINUOUS
 62
    7
 10
50.35477
 20
127.19953
 11
51.288113
 21
127.19953
  0
LINE
  8
1-0
  6
CONTINUOUS
 62
    7
 10
51.288113
 20
127.19953
 11
51.288113
 21
127.07284
  0
LINE
  8
1-0
  6
CONTINUOUS
 62
    7
 10
50.35477
 20
127.07284
 11
51.288113
 21
127.07284
  0
LINE
  8
1-0
  6
CONTINUOUS
 62
    7
 10
51.021472
 20
134.74092
 11
51.021472
 21
127.1922
  0
LINE
  8
1-0
  6
CONTINUOUS
 62
    7
 10
51.021472
 20
127.07596
 11
51.021472
 21
118.139
  0
LINE
  8
1-0
  6
CONTINUOUS
 62
    7
 10
50.35477
 20
127.19953
 11
50.35477
 21
125.01577
  0
LINE
  8
1-0
  6
CONTINUOUS
 62
    7
 10
50.35477
 20
124.4908
 11
50.35477
 21
121.89001
  0
LINE
  8
1-0
  6
CONTINUOUS
 62
    7
 10
50.35477
 20
122.14366
 11
50.35477
 21
119.08946
  0
LINE
  8
1-0
  6
CONTINUOUS
 62
    7
 10
49.9266
 20
133.79271
 11
50.336361
 21
127.2122
  0
LINE
  8
1-0
  6
CONTINUOUS
 62
    7
 10
50.084343
 20
126.73949
 11
50.351702
 21
126.73949
  0
LINE
  8
1-0
  6
CONTINUOUS
 62
    7
 10
50.088129
 20
126.79947
 11
50.088129
 21
126.7506
  0
LINE
  8
1-0
  6
CONTINUOUS
 62
    7
 10
48.82146
 20
125.3126
 11
48.82146
 21
125.02772
  0
LINE
  8
1-0
  6
CONTINUOUS
 62
    7
 10
48.721445
 20
125.59948
 11
49.490265
 21
125.59948
  0
LINE
  8
1-0
  6
CONTINUOUS
 62
    7
 10
49.588103
 20
125.87355
 11
49.588103
 21
125.69603
  0
LINE
  8
1-0
  6
CONTINUOUS
 62
    7
 10
48.717931
 20
125.60696
 11
48.717931
 21
125.16142
  0
LINE
  8
1-0
  6
CENTER1
 62
    2
 10
61.534299
 20
145.39417
 11
62.257195
 21
145.39417
  0
LINE
  8
1-0
  6
CENTER1
 62
    2
 10
61.848078
 20
145.79235
 11
61.848078
 21
144.94898
  0
LINE
  8
1-0
  6
CONTINUOUS
 62
    7
 10
59.648016
 20
144.51418
 11
59.648016
 21
143.31412
  0
LINE
  8
1-0
  6
CONTINUOUS
 62
    7
 10
62.242447
 20
143.31412
 11
62.377549
 21
145.35671
  0
LINE
  8
1-0
  6
CONTINUOUS
 62
    7
 10
59.648016
 20
143.31412
 11
60.5291
 21
143.31412
  0
LINE
  8
1-0
  6
CONTINUOUS
 62
    7
 10
61.308881
 20
143.31412
 11
62.242447
 21
143.31412
  0
LINE
  8
1-0
  6
CONTINUOUS
 62
    7
 10
61.914688
 20
143.29123
 11
61.914688
 21
141.51417
  0
LINE
  8
1-0
  6
CONTINUOUS
 62
    7
 10
61.788049
 20
143.29123
 11
61.788049
 21
141.51417
  0
LINE
  8
1-0
  6
CENTER1
 62
    2
 10
38.781366
 20
145.56127
 11
38.781366
 21
144.75222
  0
LINE
  8
1-0
  6
CENTER1
 62
    2
 10
40.114721
 20
145.56127
 11
40.114721
 21
144.75222
  0
LINE
  8
1-0
  6
CONTINUOUS
 62
    7
 10
40.508026
 20
144.51418
 11
40.508026
 21
143.18082
  0
LINE
  8
1-0
  6
CONTINUOUS
 62
    7
 10
40.503597
 20
144.5124
 11
40.510402
 21
145.11387
  0
LINE
  8
1-0
  6
CONTINUOUS
 62
    7
 10
38.230961
 20
143.19542
 11
38.230961
 21
143.18082
  0
LINE
  8
1-0
  6
CONTINUOUS
 62
    7
 10
38.104272
 20
144.51418
 11
38.17796
 21
144.51418
  0
LINE
  8
1-0
  6
CONTINUOUS
 62
    7
 10
40.503597
 20
144.51418
 11
59.637995
 21
144.51418
  0
LINE
  8
1-0
  6
CONTINUOUS
 62
    7
 10
40.503597
 20
144.38749
 11
59.637995
 21
144.38749
  0
LINE
  8
1-0
  6
CONTINUOUS
 62
    7
 10
38.308039
 20
143.18082
 11
39.015271
 21
143.18082
  0
LINE
  8
1-0
  6
CONTINUOUS
 62
    7
 10
39.796934
 20
143.18082
 11
40.508026
 21
143.18082
  0
LINE
  8
1-0
  6
CONTINUOUS
 62
    7
 10
38.230961
 20
143.18068
 11
38.230961
 21
141.64086
  0
LINE
  8
1-0
  6
CONTINUOUS
 62
    7
 10
38.308261
 20
143.19404
 11
38.244125
 21
145.10026
  0
LINE
  8
1-0
  6
CONTINUOUS
 62
    7
 10
54.429213
 20
148.03421
 11
55.749181
 21
148.03421
  0
LINE
  8
1-0
  6
CONTINUOUS
 62
    7
 10
54.429213
 20
148.03421
 11
54.356095
 21
147.67893
  0
LINE
  8
1-0
  6
CONTINUOUS
 62
    7
 10
54.222749
 20
145.63419
 11
55.95614
 21
145.63419
  0
LINE
  8
1-0
  6
CONTINUOUS
 62
    7
 10
54.222749
 20
145.50082
 11
55.95614
 21
145.50082
  0
LINE
  8
1-0
  6
CONTINUOUS
 62
    7
 10
55.689424
 20
147.35716
 11
55.689424
 21
145.63567
  0
LINE
  8
1-0
  6
CONTINUOUS
 62
    7
 10
54.478132
 20
145.76751
 11
55.678339
 21
145.76751
  0
LINE
  8
1-0
  6
CONTINUOUS
 62
    7
 10
54.148047
 20
144.84748
 11
54.148047
 21
144.52044
  0
LINE
  8
1-0
  6
CONTINUOUS
 62
    7
 10
54.314747
 20
144.68085
 11
54.314747
 21
144.52044
  0
LINE
  8
1-0
  6
CONTINUOUS
 62
    7
 10
55.948024
 20
144.98085
 11
54.281368
 21
144.98085
  0
LINE
  8
1-0
  6
CONTINUOUS
 62
    7
 10
56.081394
 20
144.84748
 11
56.081394
 21
144.52044
  0
LINE
  8
1-0
  6
CONTINUOUS
 62
    7
 10
55.781348
 20
144.81417
 11
54.448043
 21
144.81417
  0
LINE
  8
1-0
  6
CONTINUOUS
 62
    7
 10
55.914718
 20
144.68085
 11
55.914718
 21
144.52044
  0
LINE
  8
1-0
  6
CONTINUOUS
 62
    7
 10
55.801391
 20
140.58889
 11
55.801391
 21
140.56029
  0
LINE
  8
1-0
  6
CONTINUOUS
 62
    7
 10
59.968104
 20
141.18087
 11
59.968104
 21
140.58088
  0
LINE
  8
1-0
  6
CONTINUOUS
 62
    7
 10
50.274798
 20
140.31418
 11
59.901419
 21
140.31418
  0
LINE
  8
1-0
  6
CONTINUOUS
 62
    7
 10
55.728124
 20
141.18087
 11
55.728124
 21
140.58088
  0
LINE
  8
1-0
  6
CONTINUOUS
 62
    7
 10
50.339206
 20
140.318
 11
50.734664
 21
139.31418
  0
LINE
  8
1-0
  6
CONTINUOUS
 62
    7
 10
59.829538
 20
140.31691
 11
59.447812
 21
139.31418
  0
LINE
  8
1-0
  6
CONTINUOUS
 62
    7
 10
50.688121
 20
139.31418
 11
50.688121
 21
139.25836
  0
LINE
  8
1-0
  6
CONTINUOUS
 62
    7
 10
50.688121
 20
139.31418
 11
59.48812
 21
139.31418
  0
LINE
  8
1-0
  6
CONTINUOUS
 62
    7
 10
50.690397
 20
139.2542
 11
59.485027
 21
139.2542
  0
LINE
  8
1-0
  6
CONTINUOUS
 62
    7
 10
59.48812
 20
139.31418
 11
59.48812
 21
139.25044
  0
LINE
  8
1-0
  6
CONTINUOUS
 62
    7
 10
50.688121
 20
138.64085
 11
50.688121
 21
138.52084
  0
LINE
  8
1-0
  6
CONTINUOUS
 62
    7
 10
50.688121
 20
138.64085
 11
59.48812
 21
138.64085
  0
LINE
  8
1-0
  6
CONTINUOUS
 62
    7
 10
50.688121
 20
138.52084
 11
59.48812
 21
138.52084
  0
LINE
  8
1-0
  6
CONTINUOUS
 62
    7
 10
59.48812
 20
138.64085
 11
59.48812
 21
138.52084
  0
LINE
  8
1-0
  6
CONTINUOUS
 62
    7
 10
59.354775
 20
139.25757
 11
59.354775
 21
138.64332
  0
LINE
  8
1-0
  6
CONTINUOUS
 62
    7
 10
50.704699
 20
138.58087
 11
59.478173
 21
138.58087
  0
LINE
  8
1-0
  6
CONTINUOUS
 62
    7
 10
50.821442
 20
138.5099
 11
50.821442
 21
137.93639
  0
LINE
  8
1-0
  6
CONTINUOUS
 62
    7
 10
59.354775
 20
138.5099
 11
59.354775
 21
137.95574
  0
LINE
  8
1-0
  6
CONTINUOUS
 62
    7
 10
50.688121
 20
137.9208
 11
59.48812
 21
137.9208
  0
LINE
  8
1-0
  6
CONTINUOUS
 62
    7
 10
50.688121
 20
137.84083
 11
59.48812
 21
137.84083
  0
LINE
  8
1-0
  6
CONTINUOUS
 62
    7
 10
59.48812
 20
137.84083
 11
59.48812
 21
137.91704
  0
LINE
  8
1-0
  6
CONTINUOUS
 62
    7
 10
50.688121
 20
135.50752
 11
59.48812
 21
135.50752
  0
LINE
  8
1-0
  6
CONTINUOUS
 62
    7
 10
50.688121
 20
135.44749
 11
50.688121
 21
135.50752
  0
LINE
  8
1-0
  6
CONTINUOUS
 62
    7
 10
50.688121
 20
135.44749
 11
59.48812
 21
135.44749
  0
LINE
  8
1-0
  6
CONTINUOUS
 62
    7
 10
59.48812
 20
135.44749
 11
59.48812
 21
135.50752
  0
LINE
  8
1-0
  6
CONTINUOUS
 62
    7
 10
59.154794
 20
137.82224
 11
59.154794
 21
118.1609
  0
LINE
  8
1-0
  6
CONTINUOUS
 62
    7
 10
58.754758
 20
136.33214
 11
58.754758
 21
135.52761
  0
LINE
  8
1-0
  6
CONTINUOUS
 62
    7
 10
57.754829
 20
136.81378
 11
57.887061
 21
136.81378
  0
LINE
  8
1-0
  6
CONTINUOUS
 62
    7
 10
57.754829
 20
136.47882
 11
57.889263
 21
136.47882
  0
LINE
  8
1-0
  6
CENTER1
 62
    2
 10
55.089407
 20
146.84437
 11
55.089407
 21
144.90117
  0
LINE
  8
1-0
  6
CENTER1
 62
    2
 10
37.419309
 20
141.11418
 11
39.900091
 21
141.11418
  0
LINE
  8
1-0
  6
CONTINUOUS
 62
    7
 10
39.775852
 20
141.32847
 11
38.20159
 21
140.83267
  0
LINE
  8
1-0
  6
CONTINUOUS
 62
    7
 10
36.430391
 20
141.30741
 11
38.025735
 21
140.83133
  0
LINE
  8
1-0
  6
CONTINUOUS
 62
    7
 10
38.104272
 20
144.51418
 11
38.104272
 21
141.51417
  0
LINE
  8
1-0
  6
CONTINUOUS
 62
    7
 10
39.781444
 20
141.47062
 11
39.781444
 21
141.31419
  0
LINE
  8
1-0
  6
CONTINUOUS
 62
    7
 10
38.230961
 20
143.18068
 11
38.230961
 21
141.64086
  0
LINE
  8
1-0
  6
CONTINUOUS
 62
    7
 10
38.230961
 20
141.64086
 11
61.914688
 21
141.64086
  0
LINE
  8
1-0
  6
CONTINUOUS
 62
    7
 10
36.437616
 20
141.50521
 11
36.437616
 21
141.2838
  0
LINE
  8
1-0
  6
CONTINUOUS
 62
    7
 10
35.023325
 20
141.51417
 11
61.914688
 21
141.51417
  0
LINE
  8
1-0
  6
CONTINUOUS
 62
    7
 10
38.104272
 20
144.38749
 11
24.781469
 21
144.38749
  0
LINE
  8
1-0
  6
CONTINUOUS
 62
    7
 10
30.348098
 20
144.98748
 11
25.881487
 21
144.98748
  0
LINE
  8
1-0
  6
CONTINUOUS
 62
    7
 10
26.481702
 20
147.62014
 11
25.864637
 21
145.0146
  0
LINE
  8
1-0
  6
CONTINUOUS
 62
    7
 10
27.281477
 20
147.65444
 11
27.281477
 21
145.83739
  0
LINE
  8
1-0
  6
CONTINUOUS
 62
    7
 10
28.948108
 20
147.62014
 11
28.948108
 21
145.83739
  0
LINE
  8
1-0
  6
CONTINUOUS
 62
    7
 10
29.704358
 20
147.62014
 11
29.913346
 21
146.7377
  0
LINE
  8
1-0
  6
CONTINUOUS
 62
    7
 10
30.150839
 20
145.73475
 11
30.321399
 21
145.0146
  0
LINE
  8
1-0
  6
CONTINUOUS
 62
    7
 10
25.881487
 20
144.98748
 11
25.881487
 21
144.39313
  0
LINE
  8
1-0
  6
CONTINUOUS
 62
    7
 10
30.348098
 20
144.98748
 11
30.348098
 21
144.27852
  0
LINE
  8
1-0
  6
CONTINUOUS
 62
    7
 10
37.988099
 20
150.51415
 11
37.988099
 21
141.50422
  0
LINE
  8
1-0
  6
CONTINUOUS
 62
    7
 10
30.768523
 20
150.51415
 11
31.120333
 21
150.51415
  0
LINE
  8
1-0
  6
CONTINUOUS
 62
    7
 10
37.628767
 20
150.51415
 11
37.988099
 21
150.51415
  0
LINE
  8
1-0
  6
CONTINUOUS
 62
    7
 10
30.78812
 20
150.51415
 11
30.78812
 21
150.36982
  0
LINE
  8
1-0
  6
CONTINUOUS
 62
    7
 10
30.78812
 20
150.1587
 11
30.78812
 21
144.38907
  0
LINE
  8
1-0
  6
CONTINUOUS
 62
    7
 10
37.654798
 20
150.19386
 11
37.654798
 21
144.38907
  0
LINE
  8
1-0
  6
CONTINUOUS
 62
    7
 10
37.663953
 20
146.92083
 11
31.120333
 21
146.92083
  0
LINE
  8
1-0
  6
CONTINUOUS
 62
    7
 10
37.663953
 20
146.05415
 11
31.155518
 21
146.05415
  0
LINE
  8
1-0
  6
CONTINUOUS
 62
    7
 10
31.121471
 20
150.88189
 11
31.121471
 21
150.44016
  0
LINE
  8
1-0
  6
CONTINUOUS
 62
    7
 10
31.121471
 20
150.85418
 11
31.121471
 21
144.38907
  0
LINE
  8
1-0
  6
CONTINUOUS
 62
    7
 10
37.654798
 20
150.85418
 11
31.121471
 21
150.85418
  0
LINE
  8
1-0
  6
CONTINUOUS
 62
    7
 10
37.654798
 20
150.85418
 11
37.654798
 21
150.40498
  0
LINE
  8
1-0
  6
CONTINUOUS
 62
    7
 10
38.114788
 20
144.56495
 11
38.114788
 21
141.49927
  0
LINE
  8
1-0
  6
CONTINUOUS
 62
    7
 10
37.978449
 20
141.51704
 11
38.242739
 21
141.38862
  0
LINE
  8
1-0
  6
CONTINUOUS
 62
    7
 10
38.225171
 20
141.51704
 11
38.103901
 21
141.4535
  0
LINE
  8
1-0
  6
CONTINUOUS
 62
    7
 10
63.081516
 20
134.53716
 11
63.284169
 21
134.74679
  0
LINE
  8
1-0
  6
CONTINUOUS
 62
    7
 10
50.088129
 20
129.15074
 11
50.088129
 21
128.65076
  0
LINE
  8
1-0
  6
CONTINUOUS
 62
    7
 10
50.154789
 20
134.75075
 11
63.288128
 21
134.75075
  0
LINE
  8
1-0
  6
CONTINUOUS
 62
    7
 10
50.154789
 20
134.75075
 11
50.154789
 21
129.14572
  0
LINE
  8
1-0
  6
CONTINUOUS
 62
    7
 10
50.35477
 20
131.62298
 11
50.35477
 21
129.14572
  0
LINE
  8
1-0
  6
CONTINUOUS
 62
    7
 10
50.35477
 20
134.55077
 11
63.088147
 21
134.55077
  0
LINE
  8
1-0
  6
CONTINUOUS
 62
    7
 10
50.35477
 20
134.55077
 11
50.35477
 21
131.82225
  0
LINE
  8
1-0
  6
CONTINUOUS
 62
    7
 10
50.156051
 20
134.74723
 11
50.355587
 21
134.55096
  0
LINE
  8
1-0
  6
CONTINUOUS
 62
    7
 10
50.153379
 20
131.81737
 11
53.752638
 21
131.81737
  0
LINE
  8
1-0
  6
CONTINUOUS
 62
    7
 10
50.153379
 20
131.61742
 11
53.752638
 21
131.61742
  0
LINE
  8
1-0
  6
CONTINUOUS
 62
    7
 10
53.954797
 20
134.55077
 11
53.954797
 21
131.8247
  0
LINE
  8
1-0
  6
CONTINUOUS
 62
    7
 10
53.954797
 20
131.61064
 11
53.954797
 21
129.15175
  0
LINE
  8
1-0
  6
CONTINUOUS
 62
    7
 10
53.754766
 20
134.55077
 11
53.754766
 21
131.80691
  0
LINE
  8
1-0
  6
CONTINUOUS
 62
    7
 10
53.754766
 20
131.61655
 11
53.754766
 21
129.15175
  0
LINE
  8
1-0
  6
CONTINUOUS
 62
    7
 10
53.752638
 20
131.81285
 11
53.948883
 21
131.62251
  0
LINE
  8
1-0
  6
CONTINUOUS
 62
    7
 10
53.758552
 20
131.61655
 11
53.954797
 21
131.81878
  0
LINE
  8
1-0
  6
CONTINUOUS
 62
    7
 10
60.354778
 20
134.55077
 11
60.354778
 21
131.82806
  0
LINE
  8
1-0
  6
CONTINUOUS
 62
    7
 10
60.354778
 20
131.61465
 11
60.354778
 21
129.15175
  0
LINE
  8
1-0
  6
CONTINUOUS
 62
    7
 10
60.554809
 20
134.55077
 11
60.554809
 21
131.80926
  0
LINE
  8
1-0
  6
CONTINUOUS
 62
    7
 10
60.554809
 20
131.61465
 11
60.554809
 21
129.15175
  0
LINE
  8
1-0
  6
CONTINUOUS
 62
    7
 10
53.948883
 20
131.61742
 11
60.350448
 21
131.61742
  0
LINE
  8
1-0
  6
CONTINUOUS
 62
    7
 10
53.948883
 20
131.81737
 11
60.350448
 21
131.81737
  0
LINE
  8
1-0
  6
CONTINUOUS
 62
    7
 10
60.356758
 20
131.82175
 11
60.557629
 21
131.62083
  0
LINE
  8
1-0
  6
CONTINUOUS
 62
    7
 10
60.362993
 20
131.62083
 11
60.563914
 21
131.81557
  0
LINE
  8
1-0
  6
CONTINUOUS
 62
    7
 10
60.557629
 20
131.81737
 11
63.090275
 21
131.81737
  0
LINE
  8
1-0
  6
CONTINUOUS
 62
    7
 10
60.551369
 20
131.61742
 11
63.090275
 21
131.61742
  0
LINE
  8
1-0
  6
CONTINUOUS
 62
    7
 10
63.288128
 20
134.75075
 11
63.288128
 21
129.14881
  0
LINE
  8
1-0
  6
CONTINUOUS
 62
    7
 10
59.754761
 20
121.55872
 11
59.754761
 21
116.70655
  0
LINE
  8
1-0
  6
CONTINUOUS
 62
    7
 10
59.554756
 20
121.72537
 11
59.554756
 21
116.70655
  0
LINE
  8
1-0
  6
CONTINUOUS
 62
    7
 10
57.75478
 20
122.08351
 11
57.75478
 21
116.70655
  0
LINE
  8
1-0
  6
CONTINUOUS
 62
    7
 10
57.554799
 20
122.08351
 11
57.554799
 21
116.70655
  0
LINE
  8
1-0
  6
CONTINUOUS
 62
    7
 10
37.628767
 20
146.72085
 11
31.120333
 21
146.72085
  0
LINE
  8
1-0
  6
CONTINUOUS
 62
    7
 10
51.621217
 20
62.61511
 11
58.554555
 21
62.61511
  0
LINE
  8
1-0
  6
CONTINUOUS
 62
    7
 10
58.554555
 20
62.61511
 11
51.621217
 21
62.61511
  0
LINE
  8
1-0
  6
CONTINUOUS
 62
    7
 10
51.621217
 20
101.61509
 11
51.621217
 21
101.81505
  0
LINE
  8
1-0
  6
CONTINUOUS
 62
    7
 10
58.554555
 20
101.81505
 11
58.554555
 21
101.61509
  0
LINE
  8
1-0
  6
CONTINUOUS
 62
    7
 10
51.621217
 20
101.61509
 11
58.554555
 21
101.61509
  0
LINE
  8
1-0
  6
CONTINUOUS
 62
    7
 10
51.621217
 20
62.61511
 11
51.621217
 21
62.815041
  0
LINE
  8
1-0
  6
CONTINUOUS
 62
    7
 10
58.554555
 20
62.815041
 11
51.621217
 21
62.815041
  0
LINE
  8
1-0
  6
CONTINUOUS
 62
    7
 10
58.554555
 20
62.815041
 11
58.554555
 21
62.61511
  0
LINE
  8
1-0
  6
CONTINUOUS
 62
    7
 10
51.621217
 20
86.148357
 11
51.695003
 21
86.148357
  0
LINE
  8
1-0
  6
CONTINUOUS
 62
    7
 10
51.621217
 20
84.815077
 11
51.695003
 21
84.815077
  0
LINE
  8
1-0
  6
CONTINUOUS
 62
    7
 10
51.621217
 20
86.148357
 11
51.621217
 21
84.815077
  0
LINE
  8
1-0
  6
CONTINUOUS
 62
    7
 10
57.787887
 20
101.42479
 11
57.787887
 21
62.920117
  0
LINE
  8
1-0
  6
CONTINUOUS
 62
    7
 10
57.12121
 20
101.42479
 11
57.12121
 21
62.920117
  0
LINE
  8
1-0
  6
CONTINUOUS
 62
    7
 10
51.621217
 20
99.34692
 11
51.621217
 21
97.749684
  0
LINE
  8
1-0
  6
CONTINUOUS
 62
    7
 10
51.621217
 20
99.34692
 11
51.681097
 21
99.34692
  0
LINE
  8
1-0
  6
CONTINUOUS
 62
    7
 10
51.621217
 20
97.749684
 11
51.681097
 21
97.749684
  0
LINE
  8
1-0
  6
CONTINUOUS
 62
    7
 10
51.621217
 20
92.813557
 11
51.621217
 21
91.216382
  0
LINE
  8
1-0
  6
CONTINUOUS
 62
    7
 10
51.621217
 20
92.813557
 11
51.681097
 21
92.813557
  0
LINE
  8
1-0
  6
CONTINUOUS
 62
    7
 10
51.621217
 20
91.216382
 11
51.681097
 21
91.216382
  0
LINE
  8
1-0
  6
CONTINUOUS
 62
    7
 10
51.621217
 20
86.280255
 11
51.621217
 21
84.68308
  0
LINE
  8
1-0
  6
CONTINUOUS
 62
    7
 10
51.621217
 20
86.280255
 11
51.681097
 21
86.280255
  0
LINE
  8
1-0
  6
CONTINUOUS
 62
    7
 10
51.621217
 20
84.68308
 11
51.681097
 21
84.68308
  0
LINE
  8
1-0
  6
CONTINUOUS
 62
    7
 10
51.621217
 20
79.746915
 11
51.621217
 21
78.149741
  0
LINE
  8
1-0
  6
CONTINUOUS
 62
    7
 10
51.621217
 20
79.746915
 11
51.681097
 21
79.746915
  0
LINE
  8
1-0
  6
CONTINUOUS
 62
    7
 10
51.621217
 20
78.149741
 11
51.681097
 21
78.149741
  0
LINE
  8
1-0
  6
CONTINUOUS
 62
    7
 10
51.621217
 20
73.213613
 11
51.621217
 21
71.616377
  0
LINE
  8
1-0
  6
CONTINUOUS
 62
    7
 10
51.621217
 20
73.213613
 11
51.681097
 21
73.213613
  0
LINE
  8
1-0
  6
CONTINUOUS
 62
    7
 10
51.621217
 20
71.616377
 11
51.681097
 21
71.616377
  0
LINE
  8
1-0
  6
CONTINUOUS
 62
    7
 10
51.621217
 20
66.680311
 11
51.621217
 21
65.083013
  0
LINE
  8
1-0
  6
CONTINUOUS
 62
    7
 10
51.621217
 20
66.680311
 11
51.681097
 21
66.680311
  0
LINE
  8
1-0
  6
CONTINUOUS
 62
    7
 10
51.621217
 20
65.083013
 11
51.681097
 21
65.083013
  0
LINE
  8
1-0
  6
CENTER1
 62
    2
 10
55.087873
 20
100.95891
 11
55.087873
 21
62.392216
  0
LINE
  8
1-0
  6
CENTER1
 62
    2
 10
53.191074
 20
85.495109
 11
56.504813
 21
85.495109
  0
LINE
  8
1-0
  6
CENTER1
 62
    2
 10
51.621217
 20
98.548383
 11
56.090574
 21
98.548383
  0
LINE
  8
1-0
  6
CONTINUOUS
 62
    7
 10
58.554555
 20
101.81505
 11
51.621217
 21
101.81505
  0
LINE
  8
1-0
  6
CONTINUOUS
 62
    7
 10
51.621217
 20
141.34843
 11
58.554555
 21
141.34843
  0
LINE
  8
1-0
  6
CONTINUOUS
 62
    7
 10
51.621217
 20
101.81505
 11
51.621217
 21
102.01501
  0
LINE
  8
1-0
  6
CONTINUOUS
 62
    7
 10
58.554555
 20
102.01501
 11
51.621217
 21
102.01501
  0
LINE
  8
1-0
  6
CONTINUOUS
 62
    7
 10
58.554555
 20
102.01501
 11
58.554555
 21
101.81505
  0
LINE
  8
1-0
  6
CONTINUOUS
 62
    7
 10
51.621217
 20
132.54693
 11
51.621217
 21
130.94968
  0
LINE
  8
1-0
  6
CONTINUOUS
 62
    7
 10
51.621217
 20
132.54693
 11
51.681097
 21
132.54693
  0
LINE
  8
1-0
  6
CONTINUOUS
 62
    7
 10
51.621217
 20
130.94968
 11
51.681097
 21
130.94968
  0
LINE
  8
1-0
  6
CONTINUOUS
 62
    7
 10
51.621217
 20
119.4803
 11
51.621217
 21
117.88302
  0
LINE
  8
1-0
  6
CONTINUOUS
 62
    7
 10
51.621217
 20
119.4803
 11
51.681097
 21
119.4803
  0
LINE
  8
1-0
  6
CONTINUOUS
 62
    7
 10
51.621217
 20
117.88302
 11
51.681097
 21
117.88302
  0
LINE
  8
1-0
  6
CONTINUOUS
 62
    7
 10
51.621217
 20
112.41359
 11
51.621217
 21
110.81631
  0
LINE
  8
1-0
  6
CONTINUOUS
 62
    7
 10
51.621217
 20
112.41359
 11
51.681097
 21
112.41359
  0
LINE
  8
1-0
  6
CONTINUOUS
 62
    7
 10
51.621217
 20
110.81631
 11
51.681097
 21
110.81631
  0
LINE
  8
1-0
  6
CONTINUOUS
 62
    7
 10
51.621217
 20
105.88029
 11
51.621217
 21
104.28304
  0
LINE
  8
1-0
  6
CONTINUOUS
 62
    7
 10
51.621217
 20
106.41362
 11
51.681097
 21
106.41362
  0
LINE
  8
1-0
  6
CONTINUOUS
 62
    7
 10
51.621217
 20
104.28304
 11
51.681097
 21
104.28304
  0
LINE
  8
1-0
  6
CONTINUOUS
 62
    7
 10
50.208112
 20
141.18087
 11
59.968104
 21
141.18087
  0
LINE
  8
1-0
  6
CONTINUOUS
 62
    7
 10
59.901419
 20
141.53941
 11
59.901419
 21
141.19987
  0
LINE
  8
1-0
  6
CONTINUOUS
 62
    7
 10
59.901419
 20
140.58444
 11
59.901419
 21
140.31418
  0
LINE
  8
1-0
  6
CONTINUOUS
 62
    7
 10
54.421468
 20
141.18087
 11
54.421468
 21
140.58088
  0
LINE
  8
1-0
  6
CONTINUOUS
 62
    7
 10
55.728124
 20
141.18087
 11
55.728124
 21
140.57763
  0
LINE
  8
1-0
  6
CONTINUOUS
 62
    7
 10
55.754773
 20
141.17379
 11
55.754773
 21
140.58508
  0
LINE
  8
1-0
  6
CONTINUOUS
 62
    7
 10
55.794809
 20
141.51818
 11
55.794809
 21
141.18121
  0
LINE
  8
1-0
  6
CONTINUOUS
 62
    7
 10
55.421447
 20
141.51659
 11
55.421447
 21
141.18121
  0
LINE
  8
1-0
  6
CONTINUOUS
 62
    7
 10
54.754819
 20
141.51659
 11
54.754819
 21
141.18121
  0
LINE
  8
1-0
  6
CONTINUOUS
 62
    7
 10
64.379486
 20
158.41946
 11
66.632289
 21
152.14502
  0
LINE
  8
1-0
  6
CONTINUOUS
 62
    7
 10
102.02651
 20
171.9362
 11
104.27933
 21
165.6617
  0
LINE
  8
1-0
  6
CONTINUOUS
 62
    7
 10
101.72493
 20
171.29662
 11
103.63982
 21
165.96325
  0
LINE
  8
1-0
  6
CONTINUOUS
 62
    7
 10
65.019068
 20
158.11788
 11
66.933906
 21
152.78456
  0
LINE
  8
1-0
  6
CONTINUOUS
 62
    7
 10
83.204373
 20
165.17417
 11
85.28658
 21
159.37475
  0
LINE
  8
1-0
  6
CONTINUOUS
 62
    7
 10
81.446078
 20
158.01445
 11
76.472513
 21
162.22548
  0
LINE
  8
1-0
  6
CONTINUOUS
 62
    7
 10
75.894692
 20
162.00315
 11
74.759958
 21
155.60099
  0
LINE
  8
1-0
  6
CONTINUOUS
 62
    7
 10
74.255551
 20
155.43281
 11
69.281825
 21
159.64389
  0
LINE
  8
1-0
  6
CONTINUOUS
 62
    7
 10
68.70414
 20
159.42149
 11
67.569381
 21
153.01928
  0
LINE
  8
1-0
  6
CONTINUOUS
 62
    7
 10
90.275845
 20
167.16655
 11
89.14116
 21
160.76434
  0
LINE
  8
1-0
  6
CONTINUOUS
 62
    7
 10
88.636717
 20
160.59618
 11
83.66304
 21
164.80711
  0
LINE
  8
1-0
  6
CONTINUOUS
 62
    7
 10
97.466446
 20
169.74824
 11
96.331835
 21
163.34608
  0
LINE
  8
1-0
  6
CONTINUOUS
 62
    7
 10
95.827268
 20
163.17787
 11
90.853641
 21
167.38885
  0
LINE
  8
1-0
  6
CONTINUOUS
 62
    7
 10
103.01782
 20
165.75951
 11
98.044218
 21
169.97054
  0
LINE
  8
1-0
  6
CONTINUOUS
 62
    7
 10
102.02657
 20
171.9362
 11
104.27933
 21
165.6617
  0
LINE
  8
1-0
  6
CONTINUOUS
 62
    7
 10
102.02657
 20
171.9362
 11
139.67361
 21
185.4528
  0
LINE
  8
1-0
  6
CONTINUOUS
 62
    7
 10
104.27933
 20
165.6617
 11
141.92639
 21
179.17832
  0
LINE
  8
1-0
  6
CONTINUOUS
 62
    7
 10
139.67361
 20
185.4528
 11
141.92639
 21
179.17832
  0
LINE
  8
1-0
  6
CONTINUOUS
 62
    7
 10
139.37193
 20
184.81327
 11
141.28681
 21
179.48
  0
LINE
  8
1-0
  6
CONTINUOUS
 62
    7
 10
102.6661
 20
171.63452
 11
139.37193
 21
184.81327
  0
LINE
  8
1-0
  6
CONTINUOUS
 62
    7
 10
102.6661
 20
171.63452
 11
104.58098
 21
166.30116
  0
LINE
  8
1-0
  6
CONTINUOUS
 62
    7
 10
104.58098
 20
166.30116
 11
141.28681
 21
179.48
  0
LINE
  8
1-0
  6
CONTINUOUS
 62
    7
 10
120.73242
 20
178.10156
 11
119.59761
 21
171.69933
  0
LINE
  8
1-0
  6
CONTINUOUS
 62
    7
 10
119.09318
 20
171.53119
 11
114.1195
 21
175.74212
  0
LINE
  8
1-0
  6
CONTINUOUS
 62
    7
 10
113.54178
 20
175.51982
 11
112.40701
 21
169.11762
  0
LINE
  8
1-0
  6
CONTINUOUS
 62
    7
 10
111.90253
 20
168.94945
 11
106.92895
 21
173.16048
  0
LINE
  8
1-0
  6
CONTINUOUS
 62
    7
 10
106.35116
 20
172.93818
 11
105.21642
 21
166.53598
  0
LINE
  8
1-0
  6
CONTINUOUS
 62
    7
 10
127.92288
 20
180.68315
 11
126.78823
 21
174.28109
  0
LINE
  8
1-0
  6
CONTINUOUS
 62
    7
 10
126.28369
 20
174.11283
 11
121.31005
 21
178.32386
  0
LINE
  8
1-0
  6
CONTINUOUS
 62
    7
 10
135.11348
 20
183.26484
 11
133.97874
 21
176.86278
  0
LINE
  8
1-0
  6
CONTINUOUS
 62
    7
 10
133.47433
 20
176.69452
 11
128.50064
 21
180.90557
  0
LINE
  8
1-0
  6
CONTINUOUS
 62
    7
 10
140.66493
 20
179.27616
 11
135.69119
 21
183.48724
  0
LINE
  8
1-0
  6
CONTINUOUS
 62
    7
 10
139.67361
 20
185.4528
 11
141.92639
 21
179.17832
  0
LINE
  8
1-0
  6
CONTINUOUS
 62
    7
 10
139.67361
 20
185.4528
 11
177.32067
 21
198.9695
  0
LINE
  8
1-0
  6
CONTINUOUS
 62
    7
 10
141.92639
 20
179.17832
 11
179.57353
 21
192.69502
  0
LINE
  8
1-0
  6
CONTINUOUS
 62
    7
 10
177.32067
 20
198.9695
 11
179.57353
 21
192.69502
  0
LINE
  8
1-0
  6
CONTINUOUS
 62
    7
 10
177.01896
 20
198.32989
 11
178.93387
 21
192.99665
  0
LINE
  8
1-0
  6
CONTINUOUS
 62
    7
 10
140.31317
 20
185.15122
 11
177.01896
 21
198.32989
  0
LINE
  8
1-0
  6
CONTINUOUS
 62
    7
 10
140.31317
 20
185.15122
 11
142.22807
 21
179.81783
  0
LINE
  8
1-0
  6
CONTINUOUS
 62
    7
 10
142.22807
 20
179.81783
 11
178.93387
 21
192.99665
  0
LINE
  8
1-0
  6
CONTINUOUS
 62
    7
 10
158.49845
 20
192.20751
 11
160.58067
 21
186.40807
  0
LINE
  8
1-0
  6
CONTINUOUS
 62
    7
 10
158.37944
 20
191.61816
 11
157.24459
 21
185.216
  0
LINE
  8
1-0
  6
CONTINUOUS
 62
    7
 10
156.74021
 20
185.04782
 11
151.76654
 21
189.25885
  0
LINE
  8
1-0
  6
CONTINUOUS
 62
    7
 10
151.18892
 20
189.03657
 11
150.05408
 21
182.63436
  0
LINE
  8
1-0
  6
CONTINUOUS
 62
    7
 10
149.5496
 20
182.4661
 11
144.57599
 21
186.67713
  0
LINE
  8
1-0
  6
CONTINUOUS
 62
    7
 10
143.99825
 20
186.45486
 11
142.86348
 21
180.05267
  0
LINE
  8
1-0
  6
CONTINUOUS
 62
    7
 10
165.56998
 20
194.19982
 11
164.43526
 21
187.79779
  0
LINE
  8
1-0
  6
CONTINUOUS
 62
    7
 10
163.93074
 20
187.62953
 11
158.9571
 21
191.84051
  0
LINE
  8
1-0
  6
CONTINUOUS
 62
    7
 10
172.76055
 20
196.78154
 11
171.62579
 21
190.37938
  0
LINE
  8
1-0
  6
CONTINUOUS
 62
    7
 10
171.12141
 20
190.21117
 11
166.14767
 21
194.42215
  0
LINE
  8
1-0
  6
CONTINUOUS
 62
    7
 10
178.31191
 20
192.79285
 11
173.33827
 21
197.00393
  0
LINE
  8
1-0
  6
CONTINUOUS
 62
    7
 10
66.632289
 20
152.14502
 11
138.74669
 21
178.03673
  0
LINE
  8
1-0
  6
CONTINUOUS
 62
    7
 10
65.019068
 20
158.11788
 11
101.69461
 21
171.28578
  0
LINE
  8
1-0
  6
CONTINUOUS
 62
    7
 10
66.933906
 20
152.78456
 11
103.63721
 21
165.96241
  0
LINE
  8
1-0
  6
CONTINUOUS
 62
    7
 10
64.379486
 20
158.41946
 11
136.76501
 21
184.4086
  0
LINE
  8
1-0
  6
CENTER1
 62
    2
 10
177.13215
 20
198.6362
 11
177.59946
 21
198.80401
  0
LINE
  8
1-0
  6
CENTER1
 62
    2
 10
179.24347
 20
192.84215
 11
179.73842
 21
193.01983
  0
LINE
  8
1-0
  6
CENTER1
 62
    2
 10
250.43587
 20
220.6163
 11
253.18027
 21
221.60161
  0
LINE
  8
1-0
  6
CONTINUOUS
 62
    7
 10
196.10041
 20
204.12723
 11
194.60731
 21
199.07768
  0
LINE
  8
1-0
  6
CONTINUOUS
 62
    7
 10
193.97344
 20
198.82724
 11
189.435
 21
202.0987
  0
LINE
  8
1-0
  6
CONTINUOUS
 62
    7
 10
177.97196
 20
198.63476
 11
179.87165
 21
193.34415
  0
LINE
  8
1-0
  6
CONTINUOUS
 62
    7
 10
186.87471
 20
196.04704
 11
182.07386
 21
199.85177
  0
LINE
  8
1-0
  6
CONTINUOUS
 62
    7
 10
188.76889
 20
201.92121
 11
187.40671
 21
196.29257
  0
LINE
  8
1-0
  6
CONTINUOUS
 62
    7
 10
181.48439
 20
199.7087
 11
180.2493
 21
193.50637
  0
LINE
  8
1-0
  6
CONTINUOUS
 62
    7
 10
196.44635
 20
204.14628
 11
197.80193
 21
200.37105
  0
LINE
  8
1-0
  6
CONTINUOUS
 62
    7
 10
192.76623
 20
203.0918
 11
194.20655
 21
199.0802
  0
LINE
  8
1-0
  6
CONTINUOUS
 62
    7
 10
196.83305
 20
204.29589
 11
201.01944
 21
201.59558
  0
LINE
  8
1-0
  6
CONTINUOUS
 62
    7
 10
201.71695
 20
201.89339
 11
203.35359
 21
206.34721
  0
LINE
  8
1-0
  6
CONTINUOUS
 62
    7
 10
204.18352
 20
206.56382
 11
208.12084
 21
204.34216
  0
LINE
  8
1-0
  6
CONTINUOUS
 62
    7
 10
208.91987
 20
204.66299
 11
210.62433
 21
208.53102
  0
LINE
  8
1-0
  6
CONTINUOUS
 62
    7
 10
211.55649
 20
208.79768
 11
215.24987
 21
207.05578
  0
LINE
  8
1-0
  6
CONTINUOUS
 62
    7
 10
216.18859
 20
210.56529
 11
217.28368
 21
207.51518
  0
LINE
  8
1-0
  6
CONTINUOUS
 62
    7
 10
215.22538
 20
210.28895
 11
216.34259
 21
207.17725
  0
LINE
  8
1-0
  6
CONTINUOUS
 62
    7
 10
177.48167
 20
198.4958
 11
215.24814
 21
210.31555
  0
LINE
  8
1-0
  6
CONTINUOUS
 62
    7
 10
216.18836
 20
210.60983
 11
246.89713
 21
220.22059
  0
LINE
  8
1-0
  6
CONTINUOUS
 62
    7
 10
179.40154
 20
193.15751
 11
216.32277
 21
207.12655
  0
LINE
  8
1-0
  6
CONTINUOUS
 62
    7
 10
217.30135
 20
207.49677
 11
247.42601
 21
218.89442
  0
LINE
  8
1-0
  6
CONTINUOUS
 62
    7
 10
220.33756
 20
211.87972
 11
224.10834
 21
210.05421
  0
LINE
  8
1-0
  6
CONTINUOUS
 62
    7
 10
225.03562
 20
210.42982
 11
226.82551
 21
213.93364
  0
LINE
  8
1-0
  6
CONTINUOUS
 62
    7
 10
215.5402
 20
210.89144
 11
217.0012
 21
206.82242
  0
LINE
  8
1-0
  6
CONTINUOUS
 62
    7
 10
232.54901
 20
213.28377
 11
234.46291
 21
216.32656
  0
LINE
  8
1-0
  6
CONTINUOUS
 62
    7
 10
235.04615
 20
216.48928
 11
235.73062
 21
214.5828
  0
LINE
  8
1-0
  6
CONTINUOUS
 62
    7
 10
235.5249
 20
216.64591
 11
238.29865
 21
215.38451
  0
LINE
  8
1-0
  6
CONTINUOUS
 62
    7
 10
239.15692
 20
215.76344
 11
240.45155
 21
218.18439
  0
LINE
  8
1-0
  6
CONTINUOUS
 62
    7
 10
241.56166
 20
218.58499
 11
243.9643
 21
217.60488
  0
LINE
  8
1-0
  6
CONTINUOUS
 62
    7
 10
64.088101
 20
157.75142
 11
65.969868
 21
152.51039
  0
LINE
  8
1-0
  6
CONTINUOUS
 62
    7
 10
45.772284
 20
146.69135
 11
46.991642
 21
148.77549
  0
LINE
  8
1-0
  6
CONTINUOUS
 62
    7
 10
60.628249
 20
155.90928
 11
65.523004
 21
152.37297
  0
LINE
  8
1-0
  6
CONTINUOUS
 62
    7
 10
227.89761
 20
214.28474
 11
231.36991
 21
212.82776
  0
LINE
  8
1-0
  6
CONTINUOUS
 62
    7
 10
217.66786
 20
207.60106
 11
219.41953
 21
211.62664
  0
LINE
  8
1-0
  6
CENTER1
 62
    2
 10
41.530324
 20
144.90147
 11
41.538984
 21
144.90023
  0
LINE
  8
1-0
  6
CENTER1
 62
    2
 10
39.947402
 20
145.58084
 11
40.282831
 21
144.64661
  0
LINE
  8
1-0
  6
CENTER1
 62
    2
 10
39.65134
 20
144.9472
 11
40.572311
 21
145.27788
  0
LINE
  8
1-0
  6
CONTINUOUS
 62
    7
 10
254.87548
 20
223.06021
 11
255.41609
 21
221.55432
  0
LINE
  8
1-0
  6
CONTINUOUS
 62
    7
 10
244.65216
 20
167.38682
 11
245.38552
 21
167.38682
  0
LINE
  8
1-0
  6
CONTINUOUS
 62
    7
 10
244.65216
 20
167.75788
 11
244.65216
 21
167.38682
  0
LINE
  8
1-0
  6
CONTINUOUS
 62
    7
 10
245.38552
 20
167.75788
 11
245.38552
 21
167.38682
  0
LINE
  8
1-0
  6
CONTINUOUS
 62
    7
 10
244.68544
 20
167.4202
 11
245.35214
 21
167.4202
  0
LINE
  8
1-0
  6
CONTINUOUS
 62
    7
 10
244.68544
 20
167.62021
 11
244.68544
 21
167.4202
  0
LINE
  8
1-0
  6
CONTINUOUS
 62
    7
 10
245.35214
 20
167.62021
 11
245.35214
 21
167.4202
  0
LINE
  8
1-0
  6
CONTINUOUS
 62
    7
 10
244.68544
 20
167.62021
 11
244.86518
 21
167.62021
  0
LINE
  8
1-0
  6
CONTINUOUS
 62
    7
 10
245.16005
 20
167.62021
 11
245.35214
 21
167.62021
  0
LINE
  8
1-0
  6
CENTER1
 62
    2
 10
244.81878
 20
167.57765
 11
244.81878
 21
167.47125
  0
LINE
  8
1-0
  6
CENTER1
 62
    2
 10
244.77036
 20
167.52024
 11
244.86446
 21
167.52024
  0
LINE
  8
1-0
  6
CENTER1
 62
    2
 10
245.16005
 20
167.52024
 11
245.27583
 21
167.52024
  0
LINE
  8
1-0
  6
CENTER1
 62
    2
 10
245.21885
 20
167.57201
 11
245.21885
 21
167.47125
  0
LINE
  8
1-0
  6
CONTINUOUS
 62
    7
 10
247.31879
 20
167.38682
 11
248.05218
 21
167.38682
  0
LINE
  8
1-0
  6
CONTINUOUS
 62
    7
 10
247.31879
 20
167.75788
 11
247.31879
 21
167.38682
  0
LINE
  8
1-0
  6
CONTINUOUS
 62
    7
 10
248.05218
 20
167.75788
 11
248.05218
 21
167.38682
  0
LINE
  8
1-0
  6
CONTINUOUS
 62
    7
 10
247.35217
 20
167.4202
 11
248.01882
 21
167.4202
  0
LINE
  8
1-0
  6
CONTINUOUS
 62
    7
 10
247.35217
 20
167.62021
 11
247.35217
 21
167.4202
  0
LINE
  8
1-0
  6
CONTINUOUS
 62
    7
 10
248.01882
 20
167.62021
 11
248.01882
 21
167.4202
  0
LINE
  8
1-0
  6
CONTINUOUS
 62
    7
 10
247.35217
 20
167.62021
 11
247.53186
 21
167.62021
  0
LINE
  8
1-0
  6
CONTINUOUS
 62
    7
 10
247.82666
 20
167.62021
 11
248.01882
 21
167.62021
  0
LINE
  8
1-0
  6
CENTER1
 62
    2
 10
247.48554
 20
167.57765
 11
247.48554
 21
167.47125
  0
LINE
  8
1-0
  6
CENTER1
 62
    2
 10
247.43695
 20
167.52024
 11
247.5311
 21
167.52024
  0
LINE
  8
1-0
  6
CENTER1
 62
    2
 10
247.82666
 20
167.52024
 11
247.94242
 21
167.52024
  0
LINE
  8
1-0
  6
CENTER1
 62
    2
 10
247.88553
 20
167.57201
 11
247.88553
 21
167.47125
  0
LINE
  8
1-0
  6
CONTINUOUS
 62
    7
 10
243.9448
 20
168.95376
 11
243.76813
 21
167.98404
  0
LINE
  8
1-0
  6
CONTINUOUS
 62
    7
 10
248.73244
 20
168.94213
 11
248.92228
 21
168.00968
  0
LINE
  8
1-0
  6
CONTINUOUS
 62
    7
 10
244.12761
 20
166.8525
 11
246.07142
 21
164.94687
  0
LINE
  8
1-0
  6
CONTINUOUS
 62
    7
 10
248.56953
 20
166.85433
 11
246.6321
 21
164.94741
  0
LINE
  8
1-0
  6
CONTINUOUS
 62
    7
 10
246.01884
 20
164.02016
 11
246.01884
 21
163.68913
  0
LINE
  8
1-0
  6
CONTINUOUS
 62
    7
 10
246.75216
 20
165.24518
 11
246.75216
 21
163.69576
  0
LINE
  8
1-0
  6
CONTINUOUS
 62
    7
 10
245.95221
 20
165.22301
 11
245.95221
 21
163.68913
  0
LINE
  8
1-0
  6
CONTINUOUS
 62
    7
 10
246.68547
 20
164.02016
 11
246.68547
 21
163.68913
  0
LINE
  8
1-0
  6
CONTINUOUS
 62
    7
 10
246.01719
 20
164.02016
 11
246.68547
 21
164.02016
  0
LINE
  8
1-0
  6
CONTINUOUS
 62
    7
 10
246.05217
 20
163.9868
 11
246.65217
 21
163.9868
  0
LINE
  8
1-0
  6
CONTINUOUS
 62
    7
 10
246.65217
 20
163.9868
 11
246.65217
 21
163.78687
  0
LINE
  8
1-0
  6
CONTINUOUS
 62
    7
 10
246.05217
 20
163.9868
 11
246.05217
 21
163.78687
  0
LINE
  8
1-0
  6
CONTINUOUS
 62
    7
 10
246.05217
 20
163.78687
 11
246.21313
 21
163.78687
  0
LINE
  8
1-0
  6
CONTINUOUS
 62
    7
 10
246.48534
 20
163.78687
 11
246.65217
 21
163.78687
  0
LINE
  8
1-0
  6
CENTER1
 62
    2
 10
246.51884
 20
163.94147
 11
246.51884
 21
163.83859
  0
LINE
  8
1-0
  6
CENTER1
 62
    2
 10
246.18552
 20
163.94147
 11
246.18552
 21
163.83859
  0
LINE
  8
1-0
  6
CENTER1
 62
    2
 10
246.10686
 20
163.88684
 11
246.2331
 21
163.88684
  0
LINE
  8
1-0
  6
CENTER1
 62
    2
 10
246.45896
 20
163.88684
 11
246.56836
 21
163.88684
  0
LINE
  8
1-0
  6
CONTINUOUS
 62
    7
 10
245.41893
 20
162.13467
 11
245.41893
 21
161.90128
  0
LINE
  8
1-0
  6
CONTINUOUS
 62
    7
 10
246.24201
 20
161.28689
 11
246.48591
 21
161.28689
  0
LINE
  8
1-0
  6
CONTINUOUS
 62
    7
 10
246.1465
 20
163.36523
 11
246.11327
 21
163.29595
  0
LINE
  8
1-0
  6
CONTINUOUS
 62
    7
 10
246.11327
 20
163.29595
 11
246.05475
 21
163.17738
  0
LINE
  8
1-0
  6
CONTINUOUS
 62
    7
 10
246.05475
 20
163.17738
 11
245.99249
 21
163.06148
  0
LINE
  8
1-0
  6
CONTINUOUS
 62
    7
 10
245.99249
 20
163.06148
 11
245.92435
 21
162.94993
  0
LINE
  8
1-0
  6
CONTINUOUS
 62
    7
 10
245.92435
 20
162.94993
 11
245.88119
 21
162.88787
  0
LINE
  8
1-0
  6
CONTINUOUS
 62
    7
 10
245.88119
 20
162.88787
 11
245.83997
 21
162.83403
  0
LINE
  8
1-0
  6
CONTINUOUS
 62
    7
 10
245.83997
 20
162.83403
 11
245.76475
 21
162.74386
  0
LINE
  8
1-0
  6
CONTINUOUS
 62
    7
 10
245.76475
 20
162.74386
 11
245.68814
 21
162.65419
  0
LINE
  8
1-0
  6
CONTINUOUS
 62
    7
 10
245.68814
 20
162.65419
 11
245.61383
 21
162.56189
  0
LINE
  8
1-0
  6
CONTINUOUS
 62
    7
 10
245.61383
 20
162.56189
 11
245.57353
 21
162.50595
  0
LINE
  8
1-0
  6
CONTINUOUS
 62
    7
 10
245.57353
 20
162.50595
 11
245.5395
 21
162.45322
  0
LINE
  8
1-0
  6
CONTINUOUS
 62
    7
 10
245.5395
 20
162.45322
 11
245.48813
 21
162.35786
  0
LINE
  8
1-0
  6
CONTINUOUS
 62
    7
 10
245.48813
 20
162.35786
 11
245.44802
 21
162.25774
  0
LINE
  8
1-0
  6
CONTINUOUS
 62
    7
 10
245.44802
 20
162.25774
 11
245.42202
 21
162.15387
  0
LINE
  8
1-0
  6
CONTINUOUS
 62
    7
 10
245.42202
 20
162.15387
 11
245.41437
 21
162.0922
  0
LINE
  8
1-0
  6
CONTINUOUS
 62
    7
 10
245.41437
 20
162.0922
 11
245.41437
 21
161.99842
  0
LINE
  8
1-0
  6
CONTINUOUS
 62
    7
 10
245.41437
 20
161.99842
 11
245.44446
 21
161.83719
  0
LINE
  8
1-0
  6
CONTINUOUS
 62
    7
 10
245.44446
 20
161.83719
 11
245.5088
 21
161.68373
  0
LINE
  8
1-0
  6
CONTINUOUS
 62
    7
 10
245.5088
 20
161.68373
 11
245.60267
 21
161.5462
  0
LINE
  8
1-0
  6
CONTINUOUS
 62
    7
 10
245.60267
 20
161.5462
 11
245.66906
 21
161.4769
  0
LINE
  8
1-0
  6
CONTINUOUS
 62
    7
 10
245.66906
 20
161.4769
 11
245.75015
 21
161.41189
  0
LINE
  8
1-0
  6
CONTINUOUS
 62
    7
 10
245.75015
 20
161.41189
 11
245.9074
 21
161.32744
  0
LINE
  8
1-0
  6
CONTINUOUS
 62
    7
 10
245.9074
 20
161.32744
 11
246.08048
 21
161.27852
  0
LINE
  8
1-0
  6
CONTINUOUS
 62
    7
 10
246.08048
 20
161.27852
 11
246.2624
 21
161.26585
  0
LINE
  8
1-0
  6
CONTINUOUS
 62
    7
 10
246.2624
 20
161.26585
 11
246.36922
 21
161.27536
  0
LINE
  8
1-0
  6
CONTINUOUS
 62
    7
 10
246.36922
 20
161.27536
 11
246.44592
 21
161.29
  0
LINE
  8
1-0
  6
CONTINUOUS
 62
    7
 10
246.44592
 20
161.29
 11
246.5737
 21
161.33044
  0
LINE
  8
1-0
  6
CONTINUOUS
 62
    7
 10
246.5737
 20
161.33044
 11
246.69037
 21
161.38943
  0
LINE
  8
1-0
  6
CONTINUOUS
 62
    7
 10
246.69037
 20
161.38943
 11
246.78927
 21
161.46653
  0
LINE
  8
1-0
  6
CONTINUOUS
 62
    7
 10
246.78927
 20
161.46653
 11
246.83606
 21
161.51933
  0
LINE
  8
1-0
  6
CONTINUOUS
 62
    7
 10
246.83606
 20
161.51933
 11
246.87842
 21
161.58634
  0
LINE
  8
1-0
  6
CONTINUOUS
 62
    7
 10
246.87842
 20
161.58634
 11
246.92796
 21
161.71639
  0
LINE
  8
1-0
  6
CONTINUOUS
 62
    7
 10
246.92796
 20
161.71639
 11
246.95528
 21
161.8603
  0
LINE
  8
1-0
  6
CONTINUOUS
 62
    7
 10
246.95528
 20
161.8603
 11
246.96889
 21
162.01263
  0
LINE
  8
1-0
  6
CONTINUOUS
 62
    7
 10
246.96889
 20
162.01263
 11
246.97394
 21
162.10282
  0
LINE
  8
1-0
  6
CONTINUOUS
 62
    7
 10
246.54965
 20
163.35469
 11
246.53399
 21
163.2858
  0
LINE
  8
1-0
  6
CONTINUOUS
 62
    7
 10
246.53399
 20
163.2858
 11
246.50511
 21
163.16797
  0
LINE
  8
1-0
  6
CONTINUOUS
 62
    7
 10
246.50511
 20
163.16797
 11
246.47148
 21
163.05222
  0
LINE
  8
1-0
  6
CONTINUOUS
 62
    7
 10
246.47148
 20
163.05222
 11
246.42996
 21
162.94013
  0
LINE
  8
1-0
  6
CONTINUOUS
 62
    7
 10
246.42996
 20
162.94013
 11
246.40099
 21
162.87728
  0
LINE
  8
1-0
  6
CONTINUOUS
 62
    7
 10
246.40099
 20
162.87728
 11
246.37803
 21
162.83348
  0
LINE
  8
1-0
  6
CONTINUOUS
 62
    7
 10
246.37803
 20
162.83348
 11
246.33465
 21
162.75962
  0
LINE
  8
1-0
  6
CONTINUOUS
 62
    7
 10
246.33465
 20
162.75962
 11
246.28932
 21
162.68658
  0
LINE
  8
1-0
  6
CONTINUOUS
 62
    7
 10
246.28932
 20
162.68658
 11
246.2449
 21
162.61297
  0
LINE
  8
1-0
  6
CONTINUOUS
 62
    7
 10
246.2449
 20
162.61297
 11
246.22068
 21
162.56962
  0
LINE
  8
1-0
  6
CONTINUOUS
 62
    7
 10
246.22068
 20
162.56962
 11
246.19554
 21
162.51993
  0
LINE
  8
1-0
  6
CONTINUOUS
 62
    7
 10
246.19554
 20
162.51993
 11
246.15672
 21
162.43219
  0
LINE
  8
1-0
  6
CONTINUOUS
 62
    7
 10
246.15672
 20
162.43219
 11
246.12215
 21
162.34237
  0
LINE
  8
1-0
  6
CONTINUOUS
 62
    7
 10
246.12215
 20
162.34237
 11
246.09018
 21
162.25136
  0
LINE
  8
1-0
  6
CONTINUOUS
 62
    7
 10
246.09018
 20
162.25136
 11
246.07217
 21
162.19831
  0
LINE
  8
1-0
  6
CONTINUOUS
 62
    7
 10
246.65565
 20
162.0922
 11
246.66068
 21
162.13278
  0
LINE
  8
1-0
  6
CONTINUOUS
 62
    7
 10
246.66068
 20
162.13278
 11
246.67169
 21
162.20301
  0
LINE
  8
1-0
  6
CONTINUOUS
 62
    7
 10
246.67169
 20
162.20301
 11
246.68938
 21
162.27407
  0
LINE
  8
1-0
  6
CONTINUOUS
 62
    7
 10
246.68938
 20
162.27407
 11
246.71759
 21
162.34647
  0
LINE
  8
1-0
  6
CONTINUOUS
 62
    7
 10
246.71759
 20
162.34647
 11
246.74058
 21
162.38923
  0
LINE
  8
1-0
  6
CONTINUOUS
 62
    7
 10
246.74058
 20
162.38923
 11
246.75166
 21
162.40705
  0
LINE
  8
1-0
  6
CONTINUOUS
 62
    7
 10
246.75166
 20
162.40705
 11
246.77292
 21
162.43575
  0
LINE
  8
1-0
  6
CONTINUOUS
 62
    7
 10
246.77292
 20
162.43575
 11
246.7962
 21
162.45881
  0
LINE
  8
1-0
  6
CONTINUOUS
 62
    7
 10
246.7962
 20
162.45881
 11
246.82107
 21
162.47227
  0
LINE
  8
1-0
  6
CONTINUOUS
 62
    7
 10
246.82107
 20
162.47227
 11
246.83606
 21
162.4741
  0
LINE
  8
1-0
  6
CONTINUOUS
 62
    7
 10
246.83606
 20
162.4741
 11
246.84937
 21
162.47163
  0
LINE
  8
1-0
  6
CONTINUOUS
 62
    7
 10
246.84937
 20
162.47163
 11
246.87211
 21
162.45931
  0
LINE
  8
1-0
  6
CONTINUOUS
 62
    7
 10
246.87211
 20
162.45931
 11
246.89339
 21
162.43946
  0
LINE
  8
1-0
  6
CONTINUOUS
 62
    7
 10
246.89339
 20
162.43946
 11
246.91188
 21
162.41497
  0
LINE
  8
1-0
  6
CONTINUOUS
 62
    7
 10
246.91188
 20
162.41497
 11
246.92088
 21
162.39982
  0
LINE
  8
1-0
  6
CONTINUOUS
 62
    7
 10
246.92088
 20
162.39982
 11
246.92932
 21
162.38215
  0
LINE
  8
1-0
  6
CONTINUOUS
 62
    7
 10
246.92932
 20
162.38215
 11
246.93991
 21
162.35162
  0
LINE
  8
1-0
  6
CONTINUOUS
 62
    7
 10
246.93991
 20
162.35162
 11
246.94645
 21
162.32109
  0
LINE
  8
1-0
  6
CONTINUOUS
 62
    7
 10
246.94645
 20
162.32109
 11
246.95068
 21
162.2904
  0
LINE
  8
1-0
  6
CONTINUOUS
 62
    7
 10
246.95068
 20
162.2904
 11
246.95268
 21
162.27254
  0
LINE
  8
1-0
  6
CONTINUOUS
 62
    7
 10
246.95268
 20
162.27254
 11
246.95543
 21
162.24913
  0
LINE
  8
1-0
  6
CONTINUOUS
 62
    7
 10
246.95543
 20
162.24913
 11
246.9603
 21
162.2085
  0
LINE
  8
1-0
  6
CONTINUOUS
 62
    7
 10
246.9603
 20
162.2085
 11
246.96552
 21
162.16762
  0
LINE
  8
1-0
  6
CONTINUOUS
 62
    7
 10
246.96552
 20
162.16762
 11
246.97087
 21
162.12665
  0
LINE
  8
1-0
  6
CONTINUOUS
 62
    7
 10
246.97087
 20
162.12665
 11
246.97394
 21
162.10282
  0
LINE
  8
1-0
  6
CONTINUOUS
 62
    7
 10
245.50694
 20
162.95349
 11
246.1942
 21
162.95349
  0
LINE
  8
1-0
  6
CONTINUOUS
 62
    7
 10
245.81881
 20
163.27096
 11
245.81881
 21
162.58362
  0
LINE
  8
1-0
  6
CONTINUOUS
 62
    7
 10
245.70744
 20
163.03329
 11
245.10814
 21
162.13093
  0
LINE
  8
1-0
  6
CONTINUOUS
 62
    7
 10
245.89077
 20
163.0716
 11
246.72672
 21
162.53275
  0
LINE
  8
1-0
  6
CONTINUOUS
 62
    7
 10
245.8389
 20
162.72847
 11
245.39121
 21
161.95522
  0
LINE
  8
1-0
  6
CONTINUOUS
 62
    7
 10
245.92687
 20
162.75445
 11
246.6437
 21
162.38844
  0
LINE
  8
1-0
  6
CONTINUOUS
 62
    7
 10
243.95213
 20
168.95351
 11
248.69849
 21
168.95351
  0
LINE
  8
1-0
  6
CONTINUOUS
 62
    7
 10
254.78811
 20
168.95351
 11
254.78811
 21
164.7942
  0
LINE
  8
1-0
  6
CONTINUOUS
 62
    7
 10
255.38818
 20
168.95351
 11
255.38818
 21
164.7942
  0
LINE
  8
1-0
  6
CONTINUOUS
 62
    7
 10
255.28821
 20
168.93461
 11
255.28821
 21
164.82958
  0
LINE
  8
1-0
  6
CONTINUOUS
 62
    7
 10
254.78811
 20
168.95351
 11
254.87976
 21
168.95351
  0
LINE
  8
1-0
  6
CONTINUOUS
 62
    7
 10
255.28727
 20
168.95351
 11
255.38818
 21
168.95351
  0
LINE
  8
1-0
  6
CONTINUOUS
 62
    7
 10
255.28727
 20
164.7942
 11
255.38818
 21
164.7942
  0
LINE
  8
1-0
  6
CENTER1
 62
    2
 10
242.79757
 20
167.75353
 11
256.8378
 21
167.75353
  0
LINE
  8
1-0
  6
CONTINUOUS
 62
    7
 10
254.67144
 20
165.62015
 11
254.7382
 21
165.62015
  0
LINE
  8
1-0
  6
CONTINUOUS
 62
    7
 10
255.43818
 20
165.62015
 11
255.50479
 21
165.62015
  0
LINE
  8
1-0
  6
CONTINUOUS
 62
    7
 10
255.39357
 20
165.55352
 11
255.43779
 21
165.55352
  0
LINE
  8
1-0
  6
CONTINUOUS
 62
    7
 10
255.39357
 20
164.88681
 11
255.43779
 21
164.88681
  0
LINE
  8
1-0
  6
CONTINUOUS
 62
    7
 10
254.47149
 20
165.45355
 11
254.66367
 21
165.45355
  0
LINE
  8
1-0
  6
CONTINUOUS
 62
    7
 10
254.47149
 20
165.45355
 11
254.47149
 21
164.98685
  0
LINE
  8
1-0
  6
CONTINUOUS
 62
    7
 10
254.47149
 20
164.98685
 11
254.66367
 21
164.98685
  0
LINE
  8
1-0
  6
CONTINUOUS
 62
    7
 10
255.57153
 20
165.38682
 11
255.51516
 21
165.38682
  0
LINE
  8
1-0
  6
CONTINUOUS
 62
    7
 10
255.57153
 20
165.38682
 11
255.57153
 21
165.05351
  0
LINE
  8
1-0
  6
CONTINUOUS
 62
    7
 10
255.57153
 20
165.05351
 11
255.51516
 21
165.05351
  0
LINE
  8
1-0
  6
CONTINUOUS
 62
    7
 10
254.41841
 20
165.38682
 11
254.47129
 21
165.38682
  0
LINE
  8
1-0
  6
CONTINUOUS
 62
    7
 10
254.41841
 20
165.05351
 11
254.47129
 21
165.05351
  0
LINE
  8
1-0
  6
CONTINUOUS
 62
    7
 10
254.28482
 20
165.31991
 11
254.41307
 21
165.38677
  0
LINE
  8
1-0
  6
CONTINUOUS
 62
    7
 10
254.28482
 20
165.31991
 11
254.28482
 21
165.1204
  0
LINE
  8
1-0
  6
CONTINUOUS
 62
    7
 10
254.28482
 20
165.1204
 11
254.41576
 21
165.05356
  0
LINE
  8
1-0
  6
CONTINUOUS
 62
    7
 10
254.41821
 20
165.38941
 11
254.41821
 21
165.05356
  0
LINE
  8
1-0
  6
CONTINUOUS
 62
    7
 10
254.78811
 20
164.7942
 11
254.88815
 21
164.7942
  0
LINE
  8
1-0
  6
CONTINUOUS
 62
    7
 10
254.88815
 20
168.93461
 11
254.88815
 21
164.7942
  0
LINE
  8
1-0
  6
CONTINUOUS
 62
    7
 10
254.73835
 20
164.88681
 11
254.78531
 21
164.88681
  0
LINE
  8
1-0
  6
CONTINUOUS
 62
    7
 10
254.73835
 20
165.55352
 11
254.78531
 21
165.55352
  0
LINE
  8
1-0
  6
CONTINUOUS
 62
    7
 10
254.88647
 20
165.38682
 11
255.27188
 21
165.38682
  0
LINE
  8
1-0
  6
CONTINUOUS
 62
    7
 10
254.88916
 20
165.05351
 11
255.27188
 21
165.05351
  0
LINE
  8
1-0
  6
CONTINUOUS
 62
    7
 10
254.67144
 20
165.62015
 11
254.67144
 21
163.28684
  0
LINE
  8
1-0
  6
CONTINUOUS
 62
    7
 10
255.50479
 20
165.62015
 11
255.50479
 21
163.28684
  0
LINE
  8
1-0
  6
CONTINUOUS
 62
    7
 10
254.7382
 20
165.62015
 11
254.7382
 21
163.28684
  0
LINE
  8
1-0
  6
CONTINUOUS
 62
    7
 10
254.67144
 20
163.28684
 11
254.7382
 21
163.28684
  0
LINE
  8
1-0
  6
CONTINUOUS
 62
    7
 10
255.43818
 20
165.62015
 11
255.43818
 21
163.28684
  0
LINE
  8
1-0
  6
CONTINUOUS
 62
    7
 10
255.43818
 20
163.28684
 11
255.50479
 21
163.28684
  0
LINE
  8
1-0
  6
CONTINUOUS
 62
    7
 10
254.63814
 20
164.02016
 11
254.63814
 21
163.3535
  0
LINE
  8
1-0
  6
CONTINUOUS
 62
    7
 10
255.53822
 20
164.02016
 11
255.53822
 21
163.3535
  0
LINE
  8
1-0
  6
CONTINUOUS
 62
    7
 10
254.67144
 20
164.02016
 11
254.63517
 21
164.02016
  0
LINE
  8
1-0
  6
CONTINUOUS
 62
    7
 10
254.66783
 20
163.3535
 11
254.63517
 21
163.3535
  0
LINE
  8
1-0
  6
CONTINUOUS
 62
    7
 10
255.53822
 20
163.3535
 11
255.50687
 21
163.3535
  0
LINE
  8
1-0
  6
CONTINUOUS
 62
    7
 10
255.53822
 20
164.02016
 11
255.50687
 21
164.02016
  0
LINE
  8
1-0
  6
CONTINUOUS
 62
    7
 10
254.52154
 20
163.85351
 11
254.52154
 21
163.52018
  0
LINE
  8
1-0
  6
CONTINUOUS
 62
    7
 10
255.65482
 20
163.85351
 11
255.65482
 21
163.52018
  0
LINE
  8
1-0
  6
CONTINUOUS
 62
    7
 10
254.52154
 20
163.85351
 11
254.63878
 21
163.85351
  0
LINE
  8
1-0
  6
CONTINUOUS
 62
    7
 10
254.73677
 20
163.85351
 11
255.44145
 21
163.85351
  0
LINE
  8
1-0
  6
CONTINUOUS
 62
    7
 10
255.53595
 20
163.85351
 11
255.65482
 21
163.85351
  0
LINE
  8
1-0
  6
CONTINUOUS
 62
    7
 10
254.52154
 20
163.52018
 11
254.63517
 21
163.52018
  0
LINE
  8
1-0
  6
CONTINUOUS
 62
    7
 10
254.73677
 20
163.52018
 11
255.43779
 21
163.52018
  0
LINE
  8
1-0
  6
CONTINUOUS
 62
    7
 10
255.53954
 20
163.52018
 11
255.65482
 21
163.52018
  0
LINE
  8
1-0
  6
CONTINUOUS
 62
    7
 10
254.82144
 20
164.28685
 11
254.82144
 21
163.86754
  0
LINE
  8
1-0
  6
CONTINUOUS
 62
    7
 10
254.82144
 20
164.28685
 11
255.35477
 21
164.28685
  0
LINE
  8
1-0
  6
CONTINUOUS
 62
    7
 10
255.35477
 20
164.28685
 11
255.35477
 21
163.86754
  0
LINE
  8
1-0
  6
CONTINUOUS
 62
    7
 10
254.92146
 20
161.31391
 11
254.9922
 21
161.24319
  0
LINE
  8
1-0
  6
CONTINUOUS
 62
    7
 10
255.18414
 20
161.24319
 11
254.9922
 21
161.24319
  0
LINE
  8
1-0
  6
CONTINUOUS
 62
    7
 10
255.18414
 20
161.24319
 11
255.25488
 21
161.31391
  0
LINE
  8
1-0
  6
CONTINUOUS
 62
    7
 10
254.92146
 20
163.54309
 11
254.92146
 21
161.31391
  0
LINE
  8
1-0
  6
CONTINUOUS
 62
    7
 10
255.25488
 20
163.51201
 11
255.25488
 21
161.31391
  0
LINE
  8
1-0
  6
CONTINUOUS
 62
    7
 10
255.0215
 20
162.48638
 11
255.0215
 21
161.31391
  0
LINE
  8
1-0
  6
CONTINUOUS
 62
    7
 10
255.15484
 20
162.48638
 11
255.0215
 21
162.48638
  0
LINE
  8
1-0
  6
CONTINUOUS
 62
    7
 10
255.15484
 20
162.48638
 11
255.15484
 21
161.31391
  0
LINE
  8
1-0
  6
CONTINUOUS
 62
    7
 10
255.0189
 20
162.4891
 11
254.92259
 21
162.29169
  0
LINE
  8
1-0
  6
CONTINUOUS
 62
    7
 10
255.16335
 20
162.47945
 11
255.24518
 21
162.29169
  0
LINE
  8
1-0
  6
CONTINUOUS
 62
    7
 10
58.554555
 20
62.615048
 11
51.621217
 21
62.615048
  0
LINE
  8
1-0
  6
CONTINUOUS
 62
    7
 10
51.621217
 20
62.615048
 11
58.554555
 21
62.615048
  0
LINE
  8
1-0
  6
CONTINUOUS
 62
    7
 10
58.554555
 20
23.415097
 11
51.621217
 21
23.415097
  0
LINE
  8
1-0
  6
CONTINUOUS
 62
    7
 10
51.621217
 20
62.415043
 11
51.621217
 21
62.615048
  0
LINE
  8
1-0
  6
CONTINUOUS
 62
    7
 10
58.554555
 20
62.615048
 11
58.554555
 21
62.415043
  0
LINE
  8
1-0
  6
CONTINUOUS
 62
    7
 10
51.621217
 20
62.415043
 11
58.554555
 21
62.415043
  0
LINE
  8
1-0
  6
CONTINUOUS
 62
    7
 10
51.621217
 20
23.415097
 11
51.621217
 21
23.615093
  0
LINE
  8
1-0
  6
CONTINUOUS
 62
    7
 10
58.554555
 20
23.615093
 11
51.621217
 21
23.615093
  0
LINE
  8
1-0
  6
CONTINUOUS
 62
    7
 10
58.554555
 20
23.615093
 11
58.554555
 21
23.415097
  0
LINE
  8
1-0
  6
CONTINUOUS
 62
    7
 10
51.621217
 20
46.948408
 11
51.695003
 21
46.948408
  0
LINE
  8
1-0
  6
CONTINUOUS
 62
    7
 10
51.621217
 20
45.615141
 11
51.695003
 21
45.615141
  0
LINE
  8
1-0
  6
CONTINUOUS
 62
    7
 10
51.621217
 20
46.948408
 11
51.621217
 21
45.615141
  0
LINE
  8
1-0
  6
CONTINUOUS
 62
    7
 10
51.621217
 20
60.14691
 11
51.621217
 21
58.549773
  0
LINE
  8
1-0
  6
CONTINUOUS
 62
    7
 10
51.621217
 20
60.14691
 11
51.681097
 21
60.14691
  0
LINE
  8
1-0
  6
CONTINUOUS
 62
    7
 10
51.621217
 20
58.549773
 11
51.681097
 21
58.549773
  0
LINE
  8
1-0
  6
CONTINUOUS
 62
    7
 10
51.621217
 20
53.613645
 11
51.621217
 21
52.016372
  0
LINE
  8
1-0
  6
CONTINUOUS
 62
    7
 10
51.621217
 20
53.613645
 11
51.681097
 21
53.613645
  0
LINE
  8
1-0
  6
CONTINUOUS
 62
    7
 10
51.621217
 20
52.016372
 11
51.681097
 21
52.016372
  0
LINE
  8
1-0
  6
CONTINUOUS
 62
    7
 10
51.621217
 20
47.080306
 11
51.621217
 21
45.483033
  0
LINE
  8
1-0
  6
CONTINUOUS
 62
    7
 10
51.621217
 20
47.080306
 11
51.681097
 21
47.080306
  0
LINE
  8
1-0
  6
CONTINUOUS
 62
    7
 10
51.621217
 20
45.483033
 11
51.681097
 21
45.483033
  0
LINE
  8
1-0
  6
CONTINUOUS
 62
    7
 10
51.621217
 20
40.546905
 11
51.621217
 21
38.949706
  0
LINE
  8
1-0
  6
CONTINUOUS
 62
    7
 10
51.621217
 20
40.546905
 11
51.681097
 21
40.546905
  0
LINE
  8
1-0
  6
CONTINUOUS
 62
    7
 10
51.621217
 20
38.949706
 11
51.681097
 21
38.949706
  0
LINE
  8
1-0
  6
CONTINUOUS
 62
    7
 10
51.621217
 20
34.013572
 11
51.621217
 21
32.416364
  0
LINE
  8
1-0
  6
CONTINUOUS
 62
    7
 10
51.621217
 20
34.013572
 11
51.681097
 21
34.013572
  0
LINE
  8
1-0
  6
CONTINUOUS
 62
    7
 10
51.621217
 20
32.416364
 11
51.681097
 21
32.416364
  0
LINE
  8
1-0
  6
CONTINUOUS
 62
    7
 10
51.621217
 20
27.480236
 11
51.621217
 21
25.882963
  0
LINE
  8
1-0
  6
CONTINUOUS
 62
    7
 10
51.621217
 20
27.480236
 11
51.681097
 21
27.480236
  0
LINE
  8
1-0
  6
CONTINUOUS
 62
    7
 10
51.621217
 20
25.882963
 11
51.681097
 21
25.882963
  0
LINE
  8
1-0
  6
CENTER1
 62
    2
 10
53.191074
 20
46.295105
 11
56.504813
 21
46.295105
  0
LINE
  8
1-0
  6
CENTER1
 62
    2
 10
51.621217
 20
59.348372
 11
56.090574
 21
59.348372
  0
LINE
  8
1-0
  6
CONTINUOUS
 62
    7
 10
58.554555
 20
62.615048
 11
51.621217
 21
62.615048
  0
LINE
  8
1-0
  6
CONTINUOUS
 62
    7
 10
51.621217
 20
62.615048
 11
51.621217
 21
62.815103
  0
LINE
  8
1-0
  6
CONTINUOUS
 62
    7
 10
58.554555
 20
62.815103
 11
51.621217
 21
62.815103
  0
LINE
  8
1-0
  6
CONTINUOUS
 62
    7
 10
58.554555
 20
62.815103
 11
58.554555
 21
62.615048
  0
LINE
  8
1-0
  6
CONTINUOUS
 62
    7
 10
121.04871
 20
178.14125
 11
122.93359
 21
172.89147
  0
LINE
  8
1-0
  6
CONTINUOUS
 62
    7
 10
60.901917
 20
145.53076
 11
62.109374
 21
146.31915
  0
LINE
  8
1-0
  6
CONTINUOUS
 62
    7
 10
60.89922
 20
145.52883
 11
61.487657
 21
144.99622
  0
LINE
  8
1-0
  6
CONTINUOUS
 62
    7
 10
62.112987
 20
146.31336
 11
62.353845
 21
145.55273
  0
LINE
  8
1-0
  6
CONTINUOUS
 62
    7
 10
60.869107
 20
145.58099
 11
62.076514
 21
146.36938
  0
LINE
  8
1-0
  6
CONTINUOUS
 62
    7
 10
59.643265
 20
144.50938
 11
60.988719
 21
145.44544
  0
LINE
  8
1-0
  6
CONTINUOUS
 62
    7
 10
39.259024
 20
145.60573
 11
40.150401
 21
145.51616
  0
LINE
  8
1-0
  6
CONTINUOUS
 62
    7
 10
39.052387
 20
146.01599
 11
39.020938
 21
147.12724
  0
LINE
  8
1-0
  6
CONTINUOUS
 62
    7
 10
38.266568
 20
145.89811
 11
39.052387
 21
146.01599
  0
LINE
  8
1-0
  6
CONTINUOUS
 62
    7
 10
38.266568
 20
145.89811
 11
37.989955
 21
146.89905
  0
LINE
  8
1-0
  6
CONTINUOUS
 62
    7
 10
37.992083
 20
146.98462
 11
39.021804
 21
147.13917
  0
LINE
  8
1-0
  6
CONTINUOUS
 62
    7
 10
37.990375
 20
146.70486
 11
38.240809
 21
145.03618
  0
LINE
  8
1-0
  6
CONTINUOUS
 62
    7
 10
35.835051
 20
187.14781
 11
32.432803
 21
191.80953
  0
LINE
  8
1-0
  6
CONTINUOUS
 62
    7
 10
33.108437
 20
186.65674
 11
39.32994
 21
145.19959
  0
LINE
  8
1-0
  6
CONTINUOUS
 62
    7
 10
32.019133
 20
186.49457
 11
37.355742
 21
150.93376
  0
LINE
  8
1-0
  6
CONTINUOUS
 62
    7
 10
32.14748
 20
185.75611
 11
33.202316
 21
185.91447
  0
LINE
  8
1-0
  6
CONTINUOUS
 62
    7
 10
34.53379
 20
188.5502
 11
62.109374
 21
146.31915
  0
LINE
  8
1-0
  6
CONTINUOUS
 62
    7
 10
33.326382
 20
187.76186
 11
34.53379
 21
188.5502
  0
LINE
  8
1-0
  6
CONTINUOUS
 62
    7
 10
33.326382
 20
187.76186
 11
60.901917
 21
145.53076
  0
LINE
  8
1-0
  6
CONTINUOUS
 62
    7
 10
31.119071
 20
191.24527
 11
31.989886
 21
186.48522
  0
LINE
  8
1-0
  6
CONTINUOUS
 62
    7
 10
34.207614
 20
186.06135
 11
33.206498
 21
186.04082
  0
LINE
  8
1-0
  6
CONTINUOUS
 62
    7
 10
34.207614
 20
186.08516
 11
34.334799
 21
186.16822
  0
LINE
  8
1-0
  6
CONTINUOUS
 62
    7
 10
35.56888
 20
186.97401
 11
35.835051
 21
187.14781
  0
LINE
  8
1-0
  6
CONTINUOUS
 62
    7
 10
58.417572
 20
150.18703
 11
58.646998
 21
150.16788
  0
LINE
  8
1-0
  6
CONTINUOUS
 62
    7
 10
58.417572
 20
150.18748
 11
58.417572
 21
150.38751
  0
LINE
  8
1-0
  6
CONTINUOUS
 62
    7
 10
58.417572
 20
150.388
 11
58.646998
 21
150.40711
  0
LINE
  8
1-0
  6
CONTINUOUS
 62
    7
 10
58.768145
 20
151.57512
 11
59.937174
 21
155.55796
  0
LINE
  8
1-0
  6
CONTINUOUS
 62
    7
 10
53.613256
 20
152.19095
 11
56.975295
 21
150.44299
  0
LINE
  8
1-0
  6
CONTINUOUS
 62
    7
 10
66.587923
 20
152.1671
 11
59.629013
 21
150.17723
  0
LINE
  8
1-0
  6
CONTINUOUS
 62
    7
 10
65.969868
 20
152.51039
 11
59.32048
 21
150.60902
  0
LINE
  8
1-0
  6
CONTINUOUS
 62
    7
 10
64.088101
 20
157.75142
 11
57.084119
 21
154.06046
  0
LINE
  8
1-0
  6
CONTINUOUS
 62
    7
 10
64.33366
 20
158.44586
 11
56.800008
 21
154.47586
  0
LINE
  8
1-0
  6
CONTINUOUS
 62
    7
 10
53.224651
 20
152.00374
 11
53.782158
 21
150.4509
  0
LINE
  8
1-0
  6
CONTINUOUS
 62
    7
 10
53.887666
 20
150.15709
 11
54.200059
 21
149.287
  0
LINE
  8
1-0
  6
CONTINUOUS
 62
    7
 10
51.56866
 20
148.41729
 11
52.184117
 21
150.12126
  0
LINE
  8
1-0
  6
CONTINUOUS
 62
    7
 10
52.306773
 20
150.46078
 11
52.789058
 21
151.79594
  0
LINE
  8
1-0
  6
CONTINUOUS
 62
    7
 10
55.730821
 20
153.34731
 11
50.119974
 21
150.3905
  0
LINE
  8
1-0
  6
CONTINUOUS
 62
    7
 10
49.626456
 20
150.13042
 11
44.856707
 21
147.61693
  0
LINE
  8
1-0
  6
CONTINUOUS
 62
    7
 10
55.476601
 20
153.77845
 11
49.065708
 21
150.40013
  0
LINE
  8
1-0
  6
CONTINUOUS
 62
    7
 10
50.501452
 20
147.52565
 11
50.501452
 21
144.55778
  0
LINE
  8
1-0
  6
CONTINUOUS
 62
    7
 10
50.968124
 20
147.69324
 11
50.968124
 21
144.5316
  0
LINE
  8
1-0
  6
CONTINUOUS
 62
    7
 10
48.090696
 20
149.31446
 11
50.65249
 21
148.13977
  0
LINE
  8
1-0
  6
CONTINUOUS
 62
    7
 10
55.749181
 20
148.03421
 11
55.752348
 21
148.01743
  0
LINE
  8
1-0
  6
CONTINUOUS
 62
    7
 10
55.822769
 20
147.50088
 11
55.822769
 21
147.36748
  0
LINE
  8
1-0
  6
CONTINUOUS
 62
    7
 10
50.536688
 20
148.09731
 11
45.2899
 21
146.59698
  0
LINE
  8
1-0
  6
CONTINUOUS
 62
    7
 10
57.800383
 20
150.17436
 11
56.396582
 21
149.77292
  0
LINE
  8
1-0
  6
CONTINUOUS
 62
    7
 10
56.152211
 20
149.70309
 11
50.424103
 21
148.06509
  0
LINE
  8
1-0
  6
CONTINUOUS
 62
    7
 10
58.091793
 20
149.73763
 11
56.398463
 21
149.25339
  0
LINE
  8
1-0
  6
CONTINUOUS
 62
    7
 10
56.143625
 20
149.18055
 11
50.474927
 21
147.55959
  0
LINE
  8
1-0
  6
CONTINUOUS
 62
    7
 10
50.274798
 20
141.18087
 11
59.968104
 21
141.18087
  0
LINE
  8
1-0
  6
CONTINUOUS
 62
    7
 10
50.274798
 20
140.58088
 11
59.968104
 21
140.58088
  0
LINE
  8
1-0
  6
CONTINUOUS
 62
    7
 10
50.274798
 20
141.34749
 11
50.274798
 21
140.31418
  0
LINE
  8
1-0
  6
CONTINUOUS
 62
    7
 10
50.274798
 20
141.34749
 11
59.876626
 21
141.34749
  0
LINE
  8
1-0
  6
CONTINUOUS
 62
    7
 10
54.356095
 20
147.36748
 11
54.356095
 21
147.67893
  0
LINE
  8
1-0
  6
CONTINUOUS
 62
    7
 10
54.356095
 20
147.36748
 11
55.822769
 21
147.36748
  0
LINE
  8
1-0
  6
CONTINUOUS
 62
    7
 10
54.344762
 20
147.63415
 11
55.822769
 21
147.63415
  0
LINE
  8
1-0
  6
CONTINUOUS
 62
    7
 10
55.822769
 20
147.36934
 11
55.822769
 21
147.63415
  0
LINE
  8
1-0
  6
CONTINUOUS
 62
    7
 10
54.48944
 20
147.35474
 11
54.48944
 21
145.63567
  0
LINE
  8
1-0
  6
CONTINUOUS
 62
    7
 10
55.747053
 20
148.03421
 11
55.820196
 21
147.67893
  0
LINE
  8
1-0
  6
CONTINUOUS
 62
    7
 10
56.381489
 20
150.14814
 11
56.381489
 21
144.52974
  0
LINE
  8
1-0
  6
CONTINUOUS
 62
    7
 10
56.154809
 20
150.14814
 11
56.154809
 21
144.5653
  0
LINE
  8
1-0
  6
CONTINUOUS
 62
    7
 10
54.222749
 20
145.63419
 11
54.222749
 21
144.97135
  0
LINE
  8
1-0
  6
CONTINUOUS
 62
    7
 10
55.95614
 20
145.63419
 11
55.95614
 21
144.98817
  0
LINE
  8
1-0
  6
CONTINUOUS
 62
    7
 10
41.754801
 20
150.14814
 11
41.754801
 21
144.5653
  0
LINE
  8
1-0
  6
CONTINUOUS
 62
    7
 10
41.528122
 20
150.14814
 11
41.528122
 21
144.5653
  0
LINE
  8
1-0
  6
CONTINUOUS
 62
    7
 10
48.603193
 20
150.1564
 11
41.790581
 21
146.56635
  0
LINE
  8
1-0
  6
CONTINUOUS
 62
    7
 10
41.478262
 20
146.40175
 11
39.877822
 21
145.55837
  0
LINE
  8
1-0
  6
CONTINUOUS
 62
    7
 10
50.573383
 20
147.58778
 11
41.861052
 21
145.09645
  0
LINE
  8
1-0
  6
CONTINUOUS
 62
    7
 10
41.48623
 20
144.98926
 11
40.5226
 21
144.71371
  0
LINE
  8
1-0
  6
CONTINUOUS
 62
    7
 10
177.33222
 20
198.97301
 11
251.71444
 21
222.25225
  0
LINE
  8
1-0
  6
CONTINUOUS
 62
    7
 10
251.71444
 20
222.25225
 11
252.34967
 21
220.22265
  0
LINE
  8
1-0
  6
CONTINUOUS
 62
    7
 10
179.57848
 20
192.68987
 11
252.34967
 21
220.22265
  0
LINE
  8
1-0
  6
CONTINUOUS
 62
    7
 10
251.71127
 20
222.25089
 11
253.64632
 21
222.9942
  0
LINE
  8
1-0
  6
CONTINUOUS
 62
    7
 10
252.35303
 20
220.22245
 11
254.38832
 21
220.85372
  0
LINE
  8
1-0
  6
CONTINUOUS
 62
    7
 10
254.54493
 20
222.94157
 11
254.87548
 21
223.06021
  0
LINE
  8
1-0
  6
CONTINUOUS
 62
    7
 10
255.08524
 20
221.43555
 11
255.41609
 21
221.55432
  0
LINE
  8
1-0
  6
CONTINUOUS
 62
    7
 10
251.63434
 20
222.28009
 11
251.63434
 21
226.12669
  0
LINE
  8
1-0
  6
CONTINUOUS
 62
    7
 10
247.30105
 20
225.45998
 11
247.30105
 21
220.93609
  0
LINE
  8
1-0
  6
CONTINUOUS
 62
    7
 10
247.96765
 20
226.12669
 11
251.63434
 21
226.12669
  0
LINE
  8
1-0
  6
CONTINUOUS
 62
    7
 10
247.96765
 20
225.89996
 11
251.40766
 21
225.89996
  0
LINE
  8
1-0
  6
CONTINUOUS
 62
    7
 10
251.40766
 20
222.28009
 11
251.40766
 21
225.89996
  0
LINE
  8
1-0
  6
CONTINUOUS
 62
    7
 10
247.52771
 20
225.45998
 11
247.52771
 21
220.93609
  0
LINE
  8
1-0
  6
CONTINUOUS
 62
    7
 10
247.55604
 20
223.80946
 11
251.35622
 21
223.80946
  0
LINE
  8
1-0
  6
CONTINUOUS
 62
    7
 10
247.55604
 20
223.58281
 11
251.35622
 21
223.58281
  0
LINE
  8
1-0
  6
CONTINUOUS
 62
    7
 10
55.165792
 20
154.36822
 11
48.754898
 21
150.9899
  0
LINE
  8
1-0
  6
CONTINUOUS
 62
    7
 10
44.480672
 20
148.73751
 11
45.415723
 21
146.13313
  0
LINE
  8
1-0
  6
CONTINUOUS
 62
    7
 10
48.930531
 20
151.08242
 11
47.668712
 21
150.4175
  0
LINE
  8
1-0
  6
CONTINUOUS
 62
    7
 10
47.204243
 20
150.17273
 11
44.480672
 21
148.73751
  0
LINE
  8
1-0
  6
CONTINUOUS
 62
    7
 10
47.297478
 20
149.99579
 11
44.727617
 21
148.64157
  0
LINE
  8
1-0
  6
CONTINUOUS
 62
    7
 10
44.727617
 20
148.64157
 11
44.882638
 21
148.20974
  0
LINE
  8
1-0
  6
CONTINUOUS
 62
    7
 10
55.259052
 20
154.1913
 11
48.220428
 21
150.48218
  0
LINE
  8
1-0
  6
CONTINUOUS
 62
    7
 10
63.838879
 20
158.93873
 11
56.489224
 21
155.06566
  0
LINE
  8
1-0
  6
CONTINUOUS
 62
    7
 10
63.838879
 20
158.93873
 11
64.047719
 21
158.35715
  0
LINE
  8
1-0
  6
CONTINUOUS
 62
    7
 10
64.467921
 20
159.15957
 11
64.675127
 21
158.58242
  0
LINE
  8
1-0
  6
CONTINUOUS
 62
    7
 10
63.728472
 20
158.65447
 11
56.582459
 21
154.88874
  0
LINE
  8
1-0
  6
CONTINUOUS
 62
    7
 10
63.728472
 20
158.65447
 11
63.859466
 21
158.2896
  0
LINE
  8
1-0
  6
CONTINUOUS
 62
    7
 10
64.723774
 20
159.0389
 11
64.863379
 21
158.65004
  0
LINE
  8
1-0
  6
CONTINUOUS
 62
    7
 10
64.723774
 20
159.0389
 11
101.36693
 21
172.19517
  0
LINE
  8
1-0
  6
CONTINUOUS
 62
    7
 10
101.50739
 20
171.80392
 11
101.36693
 21
172.19517
  0
LINE
  8
1-0
  6
CONTINUOUS
 62
    7
 10
64.467921
 20
159.15957
 11
101.48759
 21
172.45103
  0
LINE
  8
1-0
  6
CONTINUOUS
 62
    7
 10
101.69563
 20
171.87147
 11
101.48759
 21
172.45103
  0
LINE
  8
1-0
  6
CONTINUOUS
 62
    7
 10
102.32307
 20
172.09679
 11
102.11504
 21
172.67629
  0
LINE
  8
1-0
  6
CONTINUOUS
 62
    7
 10
102.51132
 20
172.16439
 11
102.37085
 21
172.55564
  0
LINE
  8
1-0
  6
CONTINUOUS
 62
    7
 10
102.11504
 20
172.67629
 11
139.13458
 21
185.96767
  0
LINE
  8
1-0
  6
CONTINUOUS
 62
    7
 10
139.36171
 20
185.33517
 11
139.13458
 21
185.96767
  0
LINE
  8
1-0
  6
CONTINUOUS
 62
    7
 10
139.97754
 20
185.5928
 11
139.76208
 21
186.19289
  0
LINE
  8
1-0
  6
CONTINUOUS
 62
    7
 10
140.16575
 20
185.6604
 11
140.01789
 21
186.07229
  0
LINE
  8
1-0
  6
CONTINUOUS
 62
    7
 10
139.17346
 20
185.26762
 11
139.01396
 21
185.71187
  0
LINE
  8
1-0
  6
CONTINUOUS
 62
    7
 10
102.37085
 20
172.55564
 11
139.01396
 21
185.71187
  0
LINE
  8
1-0
  6
CONTINUOUS
 62
    7
 10
246.50439
 20
221.32024
 11
247.56257
 21
218.37294
  0
LINE
  8
1-0
  6
CONTINUOUS
 62
    7
 10
177.41364
 20
199.69702
 11
177.64208
 21
199.06073
  0
LINE
  8
1-0
  6
CONTINUOUS
 62
    7
 10
176.78164
 20
199.48432
 11
177.00154
 21
198.87196
  0
LINE
  8
1-0
  6
CONTINUOUS
 62
    7
 10
139.76208
 20
186.19289
 11
176.78164
 21
199.48432
  0
LINE
  8
1-0
  6
CONTINUOUS
 62
    7
 10
140.01789
 20
186.07229
 11
176.66099
 21
199.22849
  0
LINE
  8
1-0
  6
CONTINUOUS
 62
    7
 10
176.66099
 20
199.22849
 11
176.81332
 21
198.80438
  0
LINE
  8
1-0
  6
CONTINUOUS
 62
    7
 10
177.67233
 20
199.5684
 11
177.83033
 21
199.1283
  0
LINE
  8
1-0
  6
CONTINUOUS
 62
    7
 10
177.41364
 20
199.69702
 11
214.98368
 21
211.45521
  0
LINE
  8
1-0
  6
CONTINUOUS
 62
    7
 10
215.62044
 20
211.65455
 11
246.50439
 21
221.32024
  0
LINE
  8
1-0
  6
CONTINUOUS
 62
    7
 10
177.67233
 20
199.5684
 11
214.86031
 21
211.20705
  0
LINE
  8
1-0
  6
CONTINUOUS
 62
    7
 10
215.87909
 20
211.52595
 11
246.38107
 21
221.07208
  0
LINE
  8
1-0
  6
CONTINUOUS
 62
    7
 10
214.86031
 20
211.20705
 11
215.01298
 21
210.78156
  0
LINE
  8
1-0
  6
CONTINUOUS
 62
    7
 10
214.98368
 20
211.45521
 11
215.20613
 21
210.83562
  0
LINE
  8
1-0
  6
CONTINUOUS
 62
    7
 10
215.62044
 20
211.65455
 11
215.84215
 21
211.03689
  0
LINE
  8
1-0
  6
CONTINUOUS
 62
    7
 10
215.87909
 20
211.52595
 11
216.03636
 21
211.08789
  0
LINE
  8
1-0
  6
CONTINUOUS
 62
    7
 10
30.777183
 20
191.46252
 11
27.387752
 21
149.19732
  0
LINE
  8
1-0
  6
CONTINUOUS
 62
    7
 10
32.833061
 20
151.00151
 11
30.775154
 21
191.32286
  0
LINE
  8
1-0
  6
CONTINUOUS
 62
    7
 10
31.694814
 20
192.43392
 11
247.29076
 21
222.14832
  0
LINE
  8
1-0
  6
CONTINUOUS
 62
    7
 10
247.58576
 20
222.18895
 11
251.37846
 21
222.71169
  0
LINE
  8
1-0
  6
CONTINUOUS
 62
    7
 10
251.65738
 20
222.75012
 11
253.89782
 21
223.0589
  0
LINE
  8
1-0
  6
CONTINUOUS
 62
    7
 10
244.93278
 20
217.95531
 11
246.2333
 21
220.02331
  0
LINE
  8
1-0
  6
CONTINUOUS
 62
    7
 10
246.38107
 20
221.07208
 11
246.53265
 21
220.64975
  0
LINE
  8
1-0
  6
CONTINUOUS
 62
    7
 10
145.87059
 20
206.84437
 11
33.392325
 21
190.52455
  0
LINE
  8
1-0
  6
CONTINUOUS
 62
    7
 10
51.637869
 20
23.415097
 11
55.254227
 21
23.415097
  0
LINE
  8
1-0
  6
CENTER2
 62
    4
 10
55.087873
 20
14.692085
 11
55.087873
 21
26.71977
  0
LINE
  8
1-0
  6
CONTINUOUS
 62
    7
 10
58.537902
 20
23.415097
 11
54.921569
 21
23.415097
  0
LINE
  8
1-0
  6
CONTINUOUS
 62
    7
 10
146.43316
 20
207.60421
 11
253.53557
 21
220.73099
  0
LINE
  8
1-0
  6
CONTINUOUS
 62
    7
 10
63.088147
 20
134.55077
 11
63.088147
 21
129.18345
  0
LINE
  8
1-0
  6
CONTINUOUS
 62
    7
 10
63.288128
 20
122.32546
 11
44.815013
 21
122.32546
  0
LINE
  8
1-0
  6
CONTINUOUS
 62
    7
 10
63.088147
 20
122.15873
 11
45.032092
 21
122.15873
  0
LINE
  8
1-0
  6
CONTINUOUS
 62
    7
 10
50.088129
 20
129.15074
 11
63.421201
 21
129.15074
  0
LINE
  8
1-0
  6
CONTINUOUS
 62
    7
 10
63.421201
 20
129.15074
 11
63.421201
 21
128.65076
  0
LINE
  8
1-0
  6
CONTINUOUS
 62
    7
 10
50.088129
 20
128.65076
 11
63.421201
 21
128.65076
  0
LINE
  8
1-0
  6
CONTINUOUS
 62
    7
 10
45.041099
 20
119.07741
 11
63.0879
 21
119.07741
  0
LINE
  8
1-0
  6
CONTINUOUS
 62
    7
 10
45.041099
 20
118.91079
 11
63.092898
 21
118.91079
  0
LINE
  8
1-0
  6
CONTINUOUS
 62
    7
 10
63.421201
 20
116.69078
 11
63.421201
 21
116.19073
  0
LINE
  8
1-0
  6
CONTINUOUS
 62
    7
 10
44.688101
 20
116.19073
 11
63.421201
 21
116.19073
  0
LINE
  8
1-0
  6
CONTINUOUS
 62
    7
 10
63.421201
 20
105.32407
 11
63.421201
 21
104.85739
  0
LINE
  8
1-0
  6
CONTINUOUS
 62
    7
 10
59.087862
 20
105.32407
 11
63.421201
 21
105.32407
  0
LINE
  8
1-0
  6
CONTINUOUS
 62
    7
 10
59.087862
 20
105.32407
 11
59.087862
 21
104.85739
  0
LINE
  8
1-0
  6
CONTINUOUS
 62
    7
 10
59.087862
 20
104.85739
 11
63.421201
 21
104.85739
  0
LINE
  8
1-0
  6
CONTINUOUS
 62
    7
 10
63.088147
 20
122.15873
 11
63.088147
 21
116.70513
  0
LINE
  8
1-0
  6
CONTINUOUS
 62
    7
 10
63.088147
 20
116.20063
 11
63.088147
 21
105.31353
  0
LINE
  8
1-0
  6
CONTINUOUS
 62
    7
 10
63.288128
 20
122.32546
 11
63.288128
 21
116.73166
  0
LINE
  8
1-0
  6
CONTINUOUS
 62
    7
 10
63.288128
 20
116.17405
 11
63.288128
 21
105.3401
  0
LINE
  8
1-0
  6
CONTINUOUS
 62
    7
 10
63.061226
 20
110.60404
 11
59.834462
 21
110.60404
  0
LINE
  8
1-0
  6
CONTINUOUS
 62
    7
 10
63.044301
 20
115.89603
 11
59.760279
 21
113.54248
  0
LINE
  8
1-0
  6
CONTINUOUS
 62
    7
 10
63.034453
 20
116.16779
 11
59.814345
 21
113.8601
  0
LINE
  8
1-0
  6
CONTINUOUS
 62
    7
 10
59.797593
 20
113.49802
 11
63.031978
 21
111.05903
  0
LINE
  8
1-0
  6
CONTINUOUS
 62
    7
 10
59.828474
 20
113.19087
 11
62.89549
 21
110.87803
  0
LINE
  8
1-0
  6
CONTINUOUS
 62
    7
 10
63.061226
 20
110.83072
 11
59.834462
 21
110.83072
  0
LINE
  8
1-0
  6
CONTINUOUS
 62
    7
 10
59.845671
 20
107.92864
 11
63.024802
 21
105.63114
  0
LINE
  8
1-0
  6
CONTINUOUS
 62
    7
 10
59.829612
 20
107.66059
 11
63.043509
 21
105.33792
  0
LINE
  8
1-0
  6
CONTINUOUS
 62
    7
 10
63.068005
 20
110.39307
 11
59.81531
 21
108.00067
  0
LINE
  8
1-0
  6
CONTINUOUS
 62
    7
 10
62.956608
 20
110.59255
 11
59.847626
 21
108.30581
  0
LINE
  8
1-0
  6
CONTINUOUS
 62
    7
 10
62.914692
 20
139.39415
 11
63.141396
 21
139.39415
  0
LINE
  8
1-0
  6
CONTINUOUS
 62
    7
 10
63.141396
 20
145.92998
 11
63.141396
 21
139.39415
  0
LINE
  8
1-0
  6
CONTINUOUS
 62
    7
 10
62.914692
 20
145.94097
 11
62.914692
 21
139.39415
  0
LINE
  8
1-0
  6
CONTINUOUS
 62
    7
 10
62.878615
 20
144.59415
 11
62.34073
 21
144.59415
  0
LINE
  8
1-0
  6
CONTINUOUS
 62
    7
 10
62.878615
 20
144.3675
 11
62.34073
 21
144.3675
  0
LINE
  8
1-0
  6
CONTINUOUS
 62
    7
 10
62.917908
 20
142.47738
 11
62.242497
 21
143.33706
  0
LINE
  8
1-0
  6
CONTINUOUS
 62
    7
 10
62.906526
 20
142.85881
 11
62.273674
 21
143.66422
  0
LINE
  8
1-0
  6
CONTINUOUS
 62
    7
 10
58.054528
 20
112.51204
 11
58.054528
 21
105.75798
  0
LINE
  8
1-0
  6
CONTINUOUS
 62
    7
 10
55.521215
 20
104.34836
 11
54.654557
 21
104.34836
  0
LINE
  8
1-0
  6
CONTINUOUS
 62
    7
 10
55.321209
 20
104.01506
 11
54.854537
 21
104.01506
  0
LINE
  8
1-0
  6
CONTINUOUS
 62
    7
 10
55.521215
 20
104.34836
 11
55.521215
 21
102.02075
  0
LINE
  8
1-0
  6
CONTINUOUS
 62
    7
 10
55.321209
 20
104.01506
 11
55.321209
 21
102.02075
  0
LINE
  8
1-0
  6
CONTINUOUS
 62
    7
 10
54.654557
 20
104.34836
 11
54.654557
 21
102.02075
  0
LINE
  8
1-0
  6
CONTINUOUS
 62
    7
 10
54.854537
 20
104.01506
 11
54.854537
 21
102.02075
  0
LINE
  8
1-0
  6
CONTINUOUS
 62
    7
 10
58.474533
 20
105.20812
 11
58.474533
 21
102.10003
  0
LINE
  8
1-0
  6
CONTINUOUS
 62
    7
 10
58.054528
 20
73.312063
 11
58.054528
 21
66.557977
  0
LINE
  8
1-0
  6
CONTINUOUS
 62
    7
 10
55.521215
 20
65.148337
 11
54.654557
 21
65.148337
  0
LINE
  8
1-0
  6
CONTINUOUS
 62
    7
 10
55.321209
 20
64.815011
 11
54.854537
 21
64.815011
  0
LINE
  8
1-0
  6
CONTINUOUS
 62
    7
 10
55.521215
 20
65.148337
 11
55.521215
 21
62.820782
  0
LINE
  8
1-0
  6
CONTINUOUS
 62
    7
 10
55.321209
 20
64.815011
 11
55.321209
 21
62.820782
  0
LINE
  8
1-0
  6
CONTINUOUS
 62
    7
 10
54.654557
 20
65.148337
 11
54.654557
 21
62.820782
  0
LINE
  8
1-0
  6
CONTINUOUS
 62
    7
 10
54.854537
 20
64.815011
 11
54.854537
 21
62.820782
  0
LINE
  8
1-0
  6
CONTINUOUS
 62
    7
 10
58.054528
 20
34.112022
 11
58.054528
 21
27.357967
  0
LINE
  8
1-0
  6
CONTINUOUS
 62
    7
 10
55.521215
 20
25.948352
 11
54.654557
 21
25.948352
  0
LINE
  8
1-0
  6
CONTINUOUS
 62
    7
 10
55.321209
 20
25.615001
 11
54.854537
 21
25.615001
  0
LINE
  8
1-0
  6
CONTINUOUS
 62
    7
 10
55.521215
 20
25.948352
 11
55.521215
 21
23.620769
  0
LINE
  8
1-0
  6
CONTINUOUS
 62
    7
 10
55.321209
 20
25.615001
 11
55.321209
 21
23.620769
  0
LINE
  8
1-0
  6
CONTINUOUS
 62
    7
 10
54.654557
 20
25.948352
 11
54.654557
 21
23.620769
  0
LINE
  8
1-0
  6
CONTINUOUS
 62
    7
 10
54.854537
 20
25.615001
 11
54.854537
 21
23.620769
  0
LINE
  8
1-0
  6
CONTINUOUS
 62
    7
 10
58.474533
 20
101.51855
 11
58.474533
 21
73.959762
  0
LINE
  8
1-0
  6
CONTINUOUS
 62
    7
 10
58.474533
 20
65.969169
 11
58.474533
 21
62.900062
  0
LINE
  8
1-0
  6
CONTINUOUS
 62
    7
 10
58.474533
 20
62.318516
 11
58.474533
 21
34.66523
  0
LINE
  8
1-0
  6
CONTINUOUS
 62
    7
 10
51.607508
 20
101.81505
 11
58.554555
 21
101.81505
  0
LINE
  8
1-1
  6
CONTINUOUS
 62
    7
 10
255.08818
 20
78.505398
 11
228.42149
 21
78.505398
  0
LINE
  8
1-1
  6
CONTINUOUS
 62
    7
 10
188.42148
 20
73.838714
 11
228.42149
 21
78.505398
  0
LINE
  8
1-1
  6
CONTINUOUS
 62
    7
 10
228.42149
 20
78.505398
 11
255.08818
 21
81.83871
  0
LINE
  8
1-1
  6
CONTINUOUS
 62
    4
 10
55.088121
 20
126.54986
 11
255.08818
 21
126.54986
  0
LINE
  8
1-1
  6
CONTINUOUS
 62
    4
 10
255.08818
 20
120.37183
 11
255.08818
 21
127.5663
  0
LINE
  8
1-1
  6
CONTINUOUS
 62
    7
 10
121.75479
 20
74.108987
 11
121.75479
 21
91.838706
  0
LINE
  8
1-1
  6
CONTINUOUS
 62
    7
 10
188.42148
 20
91.838706
 11
188.42148
 21
73.838714
  0
LINE
  8
1-1
  6
CONTINUOUS
 62
    7
 10
228.42149
 20
91.838706
 11
228.42149
 21
78.505398
  0
LINE
  8
1-1
  6
CONTINUOUS
 62
    7
 10
255.08818
 20
91.838706
 11
255.08818
 21
73.838714
  0
LINE
  8
1-1
  6
CONTINUOUS
 62
    7
 10
132.22387
 20
99.963442
 11
160.8069
 21
99.963442
  0
LINE
  8
1-1
  6
CONTINUOUS
 62
    4
 10
55.088121
 20
116.55256
 11
55.088121
 21
73.838714
  0
LINE
  8
1-1
  6
CONTINUOUS
 62
    7
 10
255.08818
 20
73.838714
 11
55.088121
 21
73.838714
  0
LINE
  8
1-1
  6
CONTINUOUS
 62
    7
 10
255.08818
 20
91.838706
 11
55.088121
 21
91.838706
  0
LINE
  8
0-0
  6
CONTINUOUS
 62
    7
 10
5.3320621
 20
283.78378
 11
197.99637
 21
283.78378
  0
LINE
  8
0-0
  6
CONTINUOUS
 62
    7
 10
206.05585
 20
283.78378
 11
409.45945
 21
283.78378
  0
LINE
  8
0-0
  6
CONTINUOUS
 62
    7
 10
409.45945
 20
283.78378
 11
409.45945
 21
4.0540435
  0
LINE
  8
0-0
  6
CONTINUOUS
 62
    7
 10
5.3320621
 20
4.0540435
 11
5.3320621
 21
283.78378
  0
LINE
  8
0-0
  6
CONTINUOUS
 62
    7
 10
5.3320621
 20
4.0540435
 11
409.45945
 21
4.0540435
  0
LINE
  8
0-0
  6
CONTINUOUS
 62
    7
 10
340.80495
 20
2104.9596
 11
353.19624
 21
2104.9596
  0
LINE
  8
0-0
  6
CONTINUOUS
 62
    7
 10
340.80495
 20
-1895.0404
 11
353.19624
 21
-1895.0404
  0
LINE
  8
0-0
  6
CONTINUOUS
 62
    7
 10
373.90277
 20
-1895.0404
 11
354.98973
 21
-1895.0404
  0
LINE
  8
0-0
  6
CONTINUOUS
 62
    7
 10
373.90277
 20
2104.9596
 11
354.98973
 21
2104.9596
  0
LINE
  8
1-1
  6
CONTINUOUS
 62
    7
 10
48.551404
 20
20.291531
 11
48.551404
 21
20.191698
  0
LINE
  8
1-1
  6
CONTINUOUS
 62
    7
 10
47.476352
 20
20.161773
 11
47.476352
 21
20.291531
  0
LINE
  8
1-1
  6
CONTINUOUS
 62
    7
 10
48.883765
 20
20.291531
 11
48.883765
 21
20.191698
  0
LINE
  8
1-1
  6
CONTINUOUS
 62
    7
 10
48.551404
 20
23.419764
 11
48.551404
 21
23.289858
  0
LINE
  8
1-1
  6
CONTINUOUS
 62
    7
 10
48.883765
 20
23.413974
 11
48.883765
 21
23.28666
  0
LINE
  8
1-1
  6
CONTINUOUS
 62
    7
 10
47.476352
 20
23.288442
 11
62.69937
 21
23.288442
  0
LINE
  8
1-1
  6
CONTINUOUS
 62
    7
 10
48.060038
 20
23.28666
 11
48.060038
 21
20.324805
  0
LINE
  8
1-1
  6
CONTINUOUS
 62
    7
 10
47.980041
 20
23.28666
 11
47.980041
 21
20.324805
  0
LINE
  8
1-1
  6
CONTINUOUS
 62
    7
 10
47.476352
 20
23.415097
 11
47.476352
 21
20.289833
  0
LINE
  8
1-1
  6
CONTINUOUS
 62
    7
 10
52.087839
 20
21.875115
 11
52.087839
 21
21.748441
  0
LINE
  8
1-1
  6
CONTINUOUS
 62
    7
 10
52.087839
 20
21.875115
 11
58.087858
 21
21.875115
  0
LINE
  8
1-1
  6
CONTINUOUS
 62
    7
 10
58.087858
 20
21.875115
 11
58.087858
 21
21.748441
  0
LINE
  8
1-1
  6
CONTINUOUS
 62
    7
 10
52.087839
 20
21.748441
 11
58.087858
 21
21.748441
  0
LINE
  8
1-1
  6
CONTINUOUS
 62
    7
 10
57.754532
 20
23.279664
 11
57.754532
 21
21.896821
  0
LINE
  8
1-1
  6
CONTINUOUS
 62
    7
 10
52.42119
 20
23.279664
 11
52.42119
 21
21.880163
  0
LINE
  8
1-1
  6
CENTER2
 62
    2
 10
48.020052
 20
22.245118
 11
48.020052
 21
21.501184
  0
LINE
  8
1-1
  6
CONTINUOUS
 62
    7
 10
48.342095
 20
20.312647
 11
48.342095
 21
23.277833
  0
LINE
  8
1-1
  6
CONTINUOUS
 62
    7
 10
49.049203
 20
23.288442
 11
49.049203
 21
20.294386
  0
LINE
  8
1-1
  6
CONTINUOUS
 62
    7
 10
46.82655
 20
23.981749
 11
49.914228
 21
23.981749
  0
LINE
  8
1-1
  6
CONTINUOUS
 62
    7
 10
46.82655
 20
23.495103
 11
49.914228
 21
23.495103
  0
LINE
  8
1-1
  6
CONTINUOUS
 62
    7
 10
46.82655
 20
24.061756
 11
49.914228
 21
24.061756
  0
LINE
  8
1-1
  6
CONTINUOUS
 62
    7
 10
49.914228
 20
24.061756
 11
49.914228
 21
23.981749
  0
LINE
  8
1-1
  6
CONTINUOUS
 62
    7
 10
49.914228
 20
23.495103
 11
49.914228
 21
23.415691
  0
LINE
  8
1-1
  6
CONTINUOUS
 62
    7
 10
49.325
 20
24.061756
 11
49.325
 21
23.981749
  0
LINE
  8
1-1
  6
CONTINUOUS
 62
    7
 10
49.325
 20
23.495103
 11
49.325
 21
23.419402
  0
LINE
  8
1-1
  6
CONTINUOUS
 62
    7
 10
49.344993
 20
23.981749
 11
49.344993
 21
23.495103
  0
LINE
  8
1-1
  6
CONTINUOUS
 62
    7
 10
49.894235
 20
23.981749
 11
49.894235
 21
23.495103
  0
LINE
  8
1-1
  6
CONTINUOUS
 62
    7
 10
49.384979
 20
23.981749
 11
49.384979
 21
23.495103
  0
LINE
  8
1-1
  6
CONTINUOUS
 62
    7
 10
49.854249
 20
23.981749
 11
49.854249
 21
23.495103
  0
LINE
  8
1-1
  6
CONTINUOUS
 62
    7
 10
46.846544
 20
23.981749
 11
46.846544
 21
23.495103
  0
LINE
  8
1-1
  6
CONTINUOUS
 62
    7
 10
46.82655
 20
24.061756
 11
46.82655
 21
23.981749
  0
LINE
  8
1-1
  6
CONTINUOUS
 62
    7
 10
46.82655
 20
23.495103
 11
46.82655
 21
23.415097
  0
LINE
  8
1-1
  6
CONTINUOUS
 62
    7
 10
48.913186
 20
24.121751
 11
48.913186
 21
24.061756
  0
LINE
  8
1-1
  6
CONTINUOUS
 62
    7
 10
48.913186
 20
24.121751
 11
49.713183
 21
24.121751
  0
LINE
  8
1-1
  6
CONTINUOUS
 62
    7
 10
49.713183
 20
24.121751
 11
49.713183
 21
24.061756
  0
LINE
  8
1-1
  6
CONTINUOUS
 62
    7
 10
48.94753
 20
24.428412
 11
49.678839
 21
24.428412
  0
LINE
  8
1-1
  6
CONTINUOUS
 62
    7
 10
48.94753
 20
24.428412
 11
48.94753
 21
24.129109
  0
LINE
  8
1-1
  6
CONTINUOUS
 62
    7
 10
48.94753
 20
24.428412
 11
48.987517
 21
24.468414
  0
LINE
  8
1-1
  6
CONTINUOUS
 62
    7
 10
49.678839
 20
24.428412
 11
49.638803
 21
24.468414
  0
LINE
  8
1-1
  6
CONTINUOUS
 62
    7
 10
49.678839
 20
24.428412
 11
49.678839
 21
24.119014
  0
LINE
  8
1-1
  6
CONTINUOUS
 62
    7
 10
49.130339
 20
24.428412
 11
49.130339
 21
24.124061
  0
LINE
  8
1-1
  6
CONTINUOUS
 62
    7
 10
49.49603
 20
24.428412
 11
49.49603
 21
24.119014
  0
LINE
  8
1-1
  6
CONTINUOUS
 62
    7
 10
48.94753
 20
24.775075
 11
49.678839
 21
24.775075
  0
LINE
  8
1-1
  6
CONTINUOUS
 62
    7
 10
48.94753
 20
24.775075
 11
48.987517
 21
24.815077
  0
LINE
  8
1-1
  6
CONTINUOUS
 62
    7
 10
49.678839
 20
24.775075
 11
49.638803
 21
24.815077
  0
LINE
  8
1-1
  6
CONTINUOUS
 62
    7
 10
48.987517
 20
24.815077
 11
49.638803
 21
24.815077
  0
LINE
  8
1-1
  6
CONTINUOUS
 62
    7
 10
49.130339
 20
24.775075
 11
49.130339
 21
24.470724
  0
LINE
  8
1-1
  6
CONTINUOUS
 62
    7
 10
49.49603
 20
24.775075
 11
49.49603
 21
24.465677
  0
LINE
  8
1-1
  6
CONTINUOUS
 62
    7
 10
48.94753
 20
24.775075
 11
48.94753
 21
24.468414
  0
LINE
  8
1-1
  6
CONTINUOUS
 62
    7
 10
48.94753
 20
24.468414
 11
49.678839
 21
24.468414
  0
LINE
  8
1-1
  6
CONTINUOUS
 62
    7
 10
49.678839
 20
24.775075
 11
49.678839
 21
24.468414
  0
LINE
  8
1-1
  6
CONTINUOUS
 62
    7
 10
49.099854
 20
25.128435
 11
49.099854
 21
24.815077
  0
LINE
  8
1-1
  6
CONTINUOUS
 62
    7
 10
49.099854
 20
25.128435
 11
49.133184
 21
25.161774
  0
LINE
  8
1-1
  6
CONTINUOUS
 62
    7
 10
49.493185
 20
25.161774
 11
49.133184
 21
25.161774
  0
LINE
  8
1-1
  6
CONTINUOUS
 62
    7
 10
49.526515
 20
25.128435
 11
49.526515
 21
24.815077
  0
LINE
  8
1-1
  6
CONTINUOUS
 62
    7
 10
49.493185
 20
25.161774
 11
49.526515
 21
25.128435
  0
LINE
  8
1-1
  6
CONTINUOUS
 62
    7
 10
49.133184
 20
25.161774
 11
49.133184
 21
24.815077
  0
LINE
  8
1-1
  6
CONTINUOUS
 62
    7
 10
49.493185
 20
25.161774
 11
49.493185
 21
24.815077
  0
LINE
  8
1-1
  6
CONTINUOUS
 62
    7
 10
49.099854
 20
23.128428
 11
49.133184
 21
23.161768
  0
LINE
  8
1-1
  6
CONTINUOUS
 62
    7
 10
49.493185
 20
23.161768
 11
49.133184
 21
23.161768
  0
LINE
  8
1-1
  6
CONTINUOUS
 62
    7
 10
49.493185
 20
23.161768
 11
49.526515
 21
23.128428
  0
LINE
  8
1-1
  6
CONTINUOUS
 62
    7
 10
49.133184
 20
23.161768
 11
49.133184
 21
23.288244
  0
LINE
  8
1-1
  6
CONTINUOUS
 62
    7
 10
49.493185
 20
23.161768
 11
49.493185
 21
23.29052
  0
LINE
  8
1-1
  6
CONTINUOUS
 62
    7
 10
47.476352
 20
20.288447
 11
49.099854
 21
20.288447
  0
LINE
  8
1-1
  6
CONTINUOUS
 62
    7
 10
47.476352
 20
20.161773
 11
49.099854
 21
20.161773
  0
LINE
  8
1-1
  6
CONTINUOUS
 62
    7
 10
48.94753
 20
14.775126
 11
49.678839
 21
14.775126
  0
LINE
  8
1-1
  6
CONTINUOUS
 62
    7
 10
48.94753
 20
14.775126
 11
48.987517
 21
14.735121
  0
LINE
  8
1-1
  6
CONTINUOUS
 62
    7
 10
49.678839
 20
14.775126
 11
49.638803
 21
14.735121
  0
LINE
  8
1-1
  6
CONTINUOUS
 62
    7
 10
49.130339
 20
14.775126
 11
49.130339
 21
15.079477
  0
LINE
  8
1-1
  6
CONTINUOUS
 62
    7
 10
48.94753
 20
14.215136
 11
49.678839
 21
14.215136
  0
LINE
  8
1-1
  6
CONTINUOUS
 62
    7
 10
48.94753
 20
14.215136
 11
48.987517
 21
14.175134
  0
LINE
  8
1-1
  6
CONTINUOUS
 62
    7
 10
49.678839
 20
14.215136
 11
49.638803
 21
14.175134
  0
LINE
  8
1-1
  6
CONTINUOUS
 62
    7
 10
48.987517
 20
14.175134
 11
49.638803
 21
14.175134
  0
LINE
  8
1-1
  6
CONTINUOUS
 62
    7
 10
49.130339
 20
14.215136
 11
49.130339
 21
14.519487
  0
LINE
  8
1-1
  6
CONTINUOUS
 62
    7
 10
49.49603
 20
14.215136
 11
49.49603
 21
14.524534
  0
LINE
  8
1-1
  6
CONTINUOUS
 62
    7
 10
48.94753
 20
14.215136
 11
48.94753
 21
14.521797
  0
LINE
  8
1-1
  6
CONTINUOUS
 62
    7
 10
49.678839
 20
14.215136
 11
49.678839
 21
14.521797
  0
LINE
  8
1-1
  6
CONTINUOUS
 62
    7
 10
49.099854
 20
13.861776
 11
49.099854
 21
14.175134
  0
LINE
  8
1-1
  6
CONTINUOUS
 62
    7
 10
49.526515
 20
13.861776
 11
49.526515
 21
14.175134
  0
LINE
  8
1-1
  6
CONTINUOUS
 62
    7
 10
49.133184
 20
13.828437
 11
49.133184
 21
14.175134
  0
LINE
  8
1-1
  6
CONTINUOUS
 62
    7
 10
49.493185
 20
13.828437
 11
49.493185
 21
14.175134
  0
LINE
  8
1-1
  6
CONTINUOUS
 62
    7
 10
49.099854
 20
13.861776
 11
49.133184
 21
13.828437
  0
LINE
  8
1-1
  6
CONTINUOUS
 62
    7
 10
49.493185
 20
13.828437
 11
49.133184
 21
13.828437
  0
LINE
  8
1-1
  6
CONTINUOUS
 62
    7
 10
49.493185
 20
13.828437
 11
49.133184
 21
13.828437
  0
LINE
  8
1-1
  6
CONTINUOUS
 62
    7
 10
49.493185
 20
13.828437
 11
49.526515
 21
13.861776
  0
LINE
  8
1-1
  6
CONTINUOUS
 62
    7
 10
48.94753
 20
14.775126
 11
48.94753
 21
15.081784
  0
LINE
  8
1-1
  6
CONTINUOUS
 62
    7
 10
48.94753
 20
15.081784
 11
49.678839
 21
15.081784
  0
LINE
  8
1-1
  6
CONTINUOUS
 62
    7
 10
49.678839
 20
14.775126
 11
49.678839
 21
15.081784
  0
LINE
  8
1-1
  6
CONTINUOUS
 62
    7
 10
49.49603
 20
14.775126
 11
49.49603
 21
15.081784
  0
LINE
  8
1-1
  6
CONTINUOUS
 62
    7
 10
47.793199
 20
24.428412
 11
47.061915
 21
24.428412
  0
LINE
  8
1-1
  6
CONTINUOUS
 62
    7
 10
47.793199
 20
24.428412
 11
47.793199
 21
24.129109
  0
LINE
  8
1-1
  6
CONTINUOUS
 62
    7
 10
47.793199
 20
24.428412
 11
47.753213
 21
24.468414
  0
LINE
  8
1-1
  6
CONTINUOUS
 62
    7
 10
47.061915
 20
24.428412
 11
47.101926
 21
24.468414
  0
LINE
  8
1-1
  6
CONTINUOUS
 62
    7
 10
47.061915
 20
24.428412
 11
47.061915
 21
24.119014
  0
LINE
  8
1-1
  6
CONTINUOUS
 62
    7
 10
47.61039
 20
24.428412
 11
47.61039
 21
24.124061
  0
LINE
  8
1-1
  6
CONTINUOUS
 62
    7
 10
47.244724
 20
24.428412
 11
47.244724
 21
24.119014
  0
LINE
  8
1-1
  6
CONTINUOUS
 62
    7
 10
47.793199
 20
24.775075
 11
47.061915
 21
24.775075
  0
LINE
  8
1-1
  6
CONTINUOUS
 62
    7
 10
47.793199
 20
24.775075
 11
47.753213
 21
24.815077
  0
LINE
  8
1-1
  6
CONTINUOUS
 62
    7
 10
47.061915
 20
24.775075
 11
47.101926
 21
24.815077
  0
LINE
  8
1-1
  6
CONTINUOUS
 62
    7
 10
47.753213
 20
24.815077
 11
47.101926
 21
24.815077
  0
LINE
  8
1-1
  6
CONTINUOUS
 62
    7
 10
47.61039
 20
24.775075
 11
47.61039
 21
24.470724
  0
LINE
  8
1-1
  6
CONTINUOUS
 62
    7
 10
47.244724
 20
24.775075
 11
47.244724
 21
24.465677
  0
LINE
  8
1-1
  6
CONTINUOUS
 62
    7
 10
47.793199
 20
24.775075
 11
47.793199
 21
24.468414
  0
LINE
  8
1-1
  6
CONTINUOUS
 62
    7
 10
47.793199
 20
24.468414
 11
47.061915
 21
24.468414
  0
LINE
  8
1-1
  6
CONTINUOUS
 62
    7
 10
47.061915
 20
24.775075
 11
47.061915
 21
24.468414
  0
LINE
  8
1-1
  6
CONTINUOUS
 62
    7
 10
47.640875
 20
25.128435
 11
47.640875
 21
24.815077
  0
LINE
  8
1-1
  6
CONTINUOUS
 62
    7
 10
47.640875
 20
25.128435
 11
47.607569
 21
25.161774
  0
LINE
  8
1-1
  6
CONTINUOUS
 62
    7
 10
47.247545
 20
25.161774
 11
47.607569
 21
25.161774
  0
LINE
  8
1-1
  6
CONTINUOUS
 62
    7
 10
47.214239
 20
25.128435
 11
47.214239
 21
24.815077
  0
LINE
  8
1-1
  6
CONTINUOUS
 62
    7
 10
47.247545
 20
25.161774
 11
47.214239
 21
25.128435
  0
LINE
  8
1-1
  6
CONTINUOUS
 62
    7
 10
47.607569
 20
25.161774
 11
47.607569
 21
24.815077
  0
LINE
  8
1-1
  6
CONTINUOUS
 62
    7
 10
47.247545
 20
25.161774
 11
47.247545
 21
24.815077
  0
LINE
  8
1-1
  6
CONTINUOUS
 62
    7
 10
47.247545
 20
23.161768
 11
47.214239
 21
23.128428
  0
LINE
  8
1-1
  6
CONTINUOUS
 62
    7
 10
47.793199
 20
14.775126
 11
47.061915
 21
14.775126
  0
LINE
  8
1-1
  6
CONTINUOUS
 62
    7
 10
47.793199
 20
14.775126
 11
47.753213
 21
14.735121
  0
LINE
  8
1-1
  6
CONTINUOUS
 62
    7
 10
47.061915
 20
14.775126
 11
47.101926
 21
14.735121
  0
LINE
  8
1-1
  6
CONTINUOUS
 62
    7
 10
47.61039
 20
14.775126
 11
47.61039
 21
15.079477
  0
LINE
  8
1-1
  6
CONTINUOUS
 62
    7
 10
47.793199
 20
14.215136
 11
47.061915
 21
14.215136
  0
LINE
  8
1-1
  6
CONTINUOUS
 62
    7
 10
47.793199
 20
14.215136
 11
47.753213
 21
14.175134
  0
LINE
  8
1-1
  6
CONTINUOUS
 62
    7
 10
47.061915
 20
14.215136
 11
47.101926
 21
14.175134
  0
LINE
  8
1-1
  6
CONTINUOUS
 62
    7
 10
47.753213
 20
14.175134
 11
47.101926
 21
14.175134
  0
LINE
  8
1-1
  6
CONTINUOUS
 62
    7
 10
47.61039
 20
14.215136
 11
47.61039
 21
14.519487
  0
LINE
  8
1-1
  6
CONTINUOUS
 62
    7
 10
47.244724
 20
14.215136
 11
47.244724
 21
14.524534
  0
LINE
  8
1-1
  6
CONTINUOUS
 62
    7
 10
47.793199
 20
14.215136
 11
47.793199
 21
14.521797
  0
LINE
  8
1-1
  6
CONTINUOUS
 62
    7
 10
47.793199
 20
14.521797
 11
47.061915
 21
14.521797
  0
LINE
  8
1-1
  6
CONTINUOUS
 62
    7
 10
47.061915
 20
14.215136
 11
47.061915
 21
14.521797
  0
LINE
  8
1-1
  6
CONTINUOUS
 62
    7
 10
47.640875
 20
13.861776
 11
47.640875
 21
14.175134
  0
LINE
  8
1-1
  6
CONTINUOUS
 62
    7
 10
47.214239
 20
13.861776
 11
47.214239
 21
14.175134
  0
LINE
  8
1-1
  6
CONTINUOUS
 62
    7
 10
47.607569
 20
13.828437
 11
47.607569
 21
14.175134
  0
LINE
  8
1-1
  6
CONTINUOUS
 62
    7
 10
47.247545
 20
13.828437
 11
47.247545
 21
14.175134
  0
LINE
  8
1-1
  6
CONTINUOUS
 62
    7
 10
47.640875
 20
13.861776
 11
47.607569
 21
13.828437
  0
LINE
  8
1-1
  6
CONTINUOUS
 62
    7
 10
47.247545
 20
13.828437
 11
47.607569
 21
13.828437
  0
LINE
  8
1-1
  6
CONTINUOUS
 62
    7
 10
47.247545
 20
13.828437
 11
47.607569
 21
13.828437
  0
LINE
  8
1-1
  6
CONTINUOUS
 62
    7
 10
47.247545
 20
13.828437
 11
47.214239
 21
13.861776
  0
LINE
  8
1-1
  6
CONTINUOUS
 62
    7
 10
47.793199
 20
14.775126
 11
47.793199
 21
15.081784
  0
LINE
  8
1-1
  6
CONTINUOUS
 62
    7
 10
47.793199
 20
15.081784
 11
47.061915
 21
15.081784
  0
LINE
  8
1-1
  6
CONTINUOUS
 62
    7
 10
47.061915
 20
14.775126
 11
47.061915
 21
15.081784
  0
LINE
  8
1-1
  6
CONTINUOUS
 62
    7
 10
47.244724
 20
14.775126
 11
47.244724
 21
15.081784
  0
LINE
  8
1-1
  6
CONTINUOUS
 62
    7
 10
47.247545
 20
23.161768
 11
47.476352
 21
23.161768
  0
LINE
  8
1-1
  6
CONTINUOUS
 62
    7
 10
47.247545
 20
23.161768
 11
47.247545
 21
23.415097
  0
LINE
  8
1-1
  6
CONTINUOUS
 62
    7
 10
47.827543
 20
24.121751
 11
47.827543
 21
24.061756
  0
LINE
  8
1-1
  6
CONTINUOUS
 62
    7
 10
47.827543
 20
24.121751
 11
47.027571
 21
24.121751
  0
LINE
  8
1-1
  6
CONTINUOUS
 62
    7
 10
47.027571
 20
24.121751
 11
47.027571
 21
24.061756
  0
LINE
  8
1-1
  6
CONTINUOUS
 62
    7
 10
46.296237
 20
14.521797
 11
50.444566
 21
14.521797
  0
LINE
  8
1-1
  6
CONTINUOUS
 62
    7
 10
46.296237
 20
14.735121
 11
46.296237
 21
14.521797
  0
LINE
  8
1-1
  6
CONTINUOUS
 62
    7
 10
49.69027
 20
14.735121
 11
49.69027
 21
14.521797
  0
LINE
  8
1-1
  6
CONTINUOUS
 62
    7
 10
46.296237
 20
14.735121
 11
50.444566
 21
14.735121
  0
LINE
  8
1-1
  6
CONTINUOUS
 62
    7
 10
50.444566
 20
14.735121
 11
50.444566
 21
14.521797
  0
LINE
  8
1-1
  6
CONTINUOUS
 62
    7
 10
49.526515
 20
23.288442
 11
49.526515
 21
15.081784
  0
LINE
  8
1-1
  6
CONTINUOUS
 62
    7
 10
49.526515
 20
14.175134
 11
49.526515
 21
13.861776
  0
LINE
  8
1-1
  6
CONTINUOUS
 62
    7
 10
49.099854
 20
23.288442
 11
49.099854
 21
15.081784
  0
LINE
  8
1-1
  6
CONTINUOUS
 62
    7
 10
49.099854
 20
14.175134
 11
49.099854
 21
13.861776
  0
LINE
  8
1-1
  6
CONTINUOUS
 62
    7
 10
47.214239
 20
23.415097
 11
47.214239
 21
15.081784
  0
LINE
  8
1-1
  6
CONTINUOUS
 62
    7
 10
47.214239
 20
14.175134
 11
47.214239
 21
13.861776
  0
LINE
  8
1-1
  6
CONTINUOUS
 62
    7
 10
47.640875
 20
20.161773
 11
47.640875
 21
15.081784
  0
LINE
  8
1-1
  6
CONTINUOUS
 62
    7
 10
47.640875
 20
14.175134
 11
47.640875
 21
13.861776
  0
LINE
  8
1-1
  6
CONTINUOUS
 62
    7
 10
49.099854
 20
15.861783
 11
49.133184
 21
15.828443
  0
LINE
  8
1-1
  6
CONTINUOUS
 62
    7
 10
49.493185
 20
15.828443
 11
49.133184
 21
15.828443
  0
LINE
  8
1-1
  6
CONTINUOUS
 62
    7
 10
49.493185
 20
15.828443
 11
49.133184
 21
15.828443
  0
LINE
  8
1-1
  6
CONTINUOUS
 62
    7
 10
49.493185
 20
15.828443
 11
49.526515
 21
15.861783
  0
LINE
  8
1-1
  6
CONTINUOUS
 62
    7
 10
47.640875
 20
15.861783
 11
47.607569
 21
15.828443
  0
LINE
  8
1-1
  6
CONTINUOUS
 62
    7
 10
47.247545
 20
15.828443
 11
47.607569
 21
15.828443
  0
LINE
  8
1-1
  6
CONTINUOUS
 62
    7
 10
47.247545
 20
15.828443
 11
47.607569
 21
15.828443
  0
LINE
  8
1-1
  6
CONTINUOUS
 62
    7
 10
47.247545
 20
15.828443
 11
47.214239
 21
15.861783
  0
LINE
  8
1-1
  6
CONTINUOUS
 62
    7
 10
47.247545
 20
15.828443
 11
47.247545
 21
15.084178
  0
LINE
  8
1-1
  6
CONTINUOUS
 62
    7
 10
47.607569
 20
15.828443
 11
47.607569
 21
15.089588
  0
LINE
  8
1-1
  6
CONTINUOUS
 62
    7
 10
49.133184
 20
15.828443
 11
49.133184
 21
15.086668
  0
LINE
  8
1-1
  6
CONTINUOUS
 62
    7
 10
49.493185
 20
15.828443
 11
49.493185
 21
15.079938
  0
LINE
  8
1-1
  6
CONTINUOUS
 62
    7
 10
61.624342
 20
20.291531
 11
61.624342
 21
20.191698
  0
LINE
  8
1-1
  6
CONTINUOUS
 62
    7
 10
62.69937
 20
20.161773
 11
62.69937
 21
20.291531
  0
LINE
  8
1-1
  6
CONTINUOUS
 62
    7
 10
61.291981
 20
20.291531
 11
61.291981
 21
20.191698
  0
LINE
  8
1-1
  6
CONTINUOUS
 62
    7
 10
61.624342
 20
23.419764
 11
61.624342
 21
23.289858
  0
LINE
  8
1-1
  6
CONTINUOUS
 62
    7
 10
61.291981
 20
23.413974
 11
61.291981
 21
23.28666
  0
LINE
  8
1-1
  6
CONTINUOUS
 62
    7
 10
62.115708
 20
23.28666
 11
62.115708
 21
20.324805
  0
LINE
  8
1-1
  6
CONTINUOUS
 62
    7
 10
62.195681
 20
23.28666
 11
62.195681
 21
20.324805
  0
LINE
  8
1-1
  6
CONTINUOUS
 62
    7
 10
62.69937
 20
23.415097
 11
62.69937
 21
20.289833
  0
LINE
  8
1-1
  6
CENTER2
 62
    2
 10
62.155695
 20
22.245118
 11
62.155695
 21
21.501184
  0
LINE
  8
1-1
  6
CONTINUOUS
 62
    7
 10
61.833627
 20
20.312647
 11
61.833627
 21
23.277833
  0
LINE
  8
1-1
  6
CONTINUOUS
 62
    7
 10
61.126518
 20
23.288442
 11
61.126518
 21
20.294386
  0
LINE
  8
1-1
  6
CONTINUOUS
 62
    7
 10
63.349196
 20
23.981749
 11
60.261493
 21
23.981749
  0
LINE
  8
1-1
  6
CONTINUOUS
 62
    7
 10
63.349196
 20
23.495103
 11
60.261493
 21
23.495103
  0
LINE
  8
1-1
  6
CONTINUOUS
 62
    7
 10
63.349196
 20
24.061756
 11
60.261493
 21
24.061756
  0
LINE
  8
1-1
  6
CONTINUOUS
 62
    7
 10
60.261493
 20
24.061756
 11
60.261493
 21
23.981749
  0
LINE
  8
1-1
  6
CONTINUOUS
 62
    7
 10
60.261493
 20
23.495103
 11
60.261493
 21
23.415691
  0
LINE
  8
1-1
  6
CONTINUOUS
 62
    7
 10
60.850747
 20
24.061756
 11
60.850747
 21
23.981749
  0
LINE
  8
1-1
  6
CONTINUOUS
 62
    7
 10
60.850747
 20
23.495103
 11
60.850747
 21
23.419402
  0
LINE
  8
1-1
  6
CONTINUOUS
 62
    7
 10
60.830753
 20
23.981749
 11
60.830753
 21
23.495103
  0
LINE
  8
1-1
  6
CONTINUOUS
 62
    7
 10
60.281487
 20
23.981749
 11
60.281487
 21
23.495103
  0
LINE
  8
1-1
  6
CONTINUOUS
 62
    7
 10
60.790767
 20
23.981749
 11
60.790767
 21
23.495103
  0
LINE
  8
1-1
  6
CONTINUOUS
 62
    7
 10
60.321473
 20
23.981749
 11
60.321473
 21
23.495103
  0
LINE
  8
1-1
  6
CONTINUOUS
 62
    7
 10
63.349196
 20
24.061756
 11
63.349196
 21
23.981749
  0
LINE
  8
1-1
  6
CONTINUOUS
 62
    7
 10
63.349196
 20
23.495103
 11
63.349196
 21
23.415097
  0
LINE
  8
1-1
  6
CONTINUOUS
 62
    7
 10
61.262536
 20
24.121751
 11
61.262536
 21
24.061756
  0
LINE
  8
1-1
  6
CONTINUOUS
 62
    7
 10
61.262536
 20
24.121751
 11
60.462563
 21
24.121751
  0
LINE
  8
1-1
  6
CONTINUOUS
 62
    7
 10
60.462563
 20
24.121751
 11
60.462563
 21
24.061756
  0
LINE
  8
1-1
  6
CONTINUOUS
 62
    7
 10
61.228191
 20
24.428412
 11
60.496908
 21
24.428412
  0
LINE
  8
1-1
  6
CONTINUOUS
 62
    7
 10
61.228191
 20
24.428412
 11
61.228191
 21
24.129109
  0
LINE
  8
1-1
  6
CONTINUOUS
 62
    7
 10
61.228191
 20
24.428412
 11
61.188205
 21
24.468414
  0
LINE
  8
1-1
  6
CONTINUOUS
 62
    7
 10
60.496908
 20
24.428412
 11
60.536919
 21
24.468414
  0
LINE
  8
1-1
  6
CONTINUOUS
 62
    7
 10
60.496908
 20
24.428412
 11
60.496908
 21
24.119014
  0
LINE
  8
1-1
  6
CONTINUOUS
 62
    7
 10
61.045383
 20
24.428412
 11
61.045383
 21
24.124061
  0
LINE
  8
1-1
  6
CONTINUOUS
 62
    7
 10
60.679716
 20
24.428412
 11
60.679716
 21
24.119014
  0
LINE
  8
1-1
  6
CONTINUOUS
 62
    7
 10
61.228191
 20
24.775075
 11
60.496908
 21
24.775075
  0
LINE
  8
1-1
  6
CONTINUOUS
 62
    7
 10
61.228191
 20
24.775075
 11
61.188205
 21
24.815077
  0
LINE
  8
1-1
  6
CONTINUOUS
 62
    7
 10
60.496908
 20
24.775075
 11
60.536919
 21
24.815077
  0
LINE
  8
1-1
  6
CONTINUOUS
 62
    7
 10
61.188205
 20
24.815077
 11
60.536919
 21
24.815077
  0
LINE
  8
1-1
  6
CONTINUOUS
 62
    7
 10
61.045383
 20
24.775075
 11
61.045383
 21
24.470724
  0
LINE
  8
1-1
  6
CONTINUOUS
 62
    7
 10
60.679716
 20
24.775075
 11
60.679716
 21
24.465677
  0
LINE
  8
1-1
  6
CONTINUOUS
 62
    7
 10
61.228191
 20
24.775075
 11
61.228191
 21
24.468414
  0
LINE
  8
1-1
  6
CONTINUOUS
 62
    7
 10
61.228191
 20
24.468414
 11
60.496908
 21
24.468414
  0
LINE
  8
1-1
  6
CONTINUOUS
 62
    7
 10
60.496908
 20
24.775075
 11
60.496908
 21
24.468414
  0
LINE
  8
1-1
  6
CONTINUOUS
 62
    7
 10
61.075867
 20
25.128435
 11
61.075867
 21
24.815077
  0
LINE
  8
1-1
  6
CONTINUOUS
 62
    7
 10
61.075867
 20
25.128435
 11
61.042562
 21
25.161774
  0
LINE
  8
1-1
  6
CONTINUOUS
 62
    7
 10
60.682537
 20
25.161774
 11
61.042562
 21
25.161774
  0
LINE
  8
1-1
  6
CONTINUOUS
 62
    7
 10
60.649232
 20
25.128435
 11
60.649232
 21
24.815077
  0
LINE
  8
1-1
  6
CONTINUOUS
 62
    7
 10
60.682537
 20
25.161774
 11
60.649232
 21
25.128435
  0
LINE
  8
1-1
  6
CONTINUOUS
 62
    7
 10
61.042562
 20
25.161774
 11
61.042562
 21
24.815077
  0
LINE
  8
1-1
  6
CONTINUOUS
 62
    7
 10
60.682537
 20
25.161774
 11
60.682537
 21
24.815077
  0
LINE
  8
1-1
  6
CONTINUOUS
 62
    7
 10
61.075867
 20
23.128428
 11
61.042562
 21
23.161768
  0
LINE
  8
1-1
  6
CONTINUOUS
 62
    7
 10
60.682537
 20
23.161768
 11
61.042562
 21
23.161768
  0
LINE
  8
1-1
  6
CONTINUOUS
 62
    7
 10
60.682537
 20
23.161768
 11
60.649232
 21
23.128428
  0
LINE
  8
1-1
  6
CONTINUOUS
 62
    7
 10
61.042562
 20
23.161768
 11
61.042562
 21
23.288244
  0
LINE
  8
1-1
  6
CONTINUOUS
 62
    7
 10
60.682537
 20
23.161768
 11
60.682537
 21
23.29052
  0
LINE
  8
1-1
  6
CONTINUOUS
 62
    7
 10
62.69937
 20
20.288447
 11
61.075867
 21
20.288447
  0
LINE
  8
1-1
  6
CONTINUOUS
 62
    7
 10
61.228191
 20
14.775126
 11
60.496908
 21
14.775126
  0
LINE
  8
1-1
  6
CONTINUOUS
 62
    7
 10
61.228191
 20
14.775126
 11
61.188205
 21
14.735121
  0
LINE
  8
1-1
  6
CONTINUOUS
 62
    7
 10
60.496908
 20
14.775126
 11
60.536919
 21
14.735121
  0
LINE
  8
1-1
  6
CONTINUOUS
 62
    7
 10
61.045383
 20
14.775126
 11
61.045383
 21
15.079477
  0
LINE
  8
1-1
  6
CONTINUOUS
 62
    7
 10
61.228191
 20
14.215136
 11
60.496908
 21
14.215136
  0
LINE
  8
1-1
  6
CONTINUOUS
 62
    7
 10
61.228191
 20
14.215136
 11
61.188205
 21
14.175134
  0
LINE
  8
1-1
  6
CONTINUOUS
 62
    7
 10
60.496908
 20
14.215136
 11
60.536919
 21
14.175134
  0
LINE
  8
1-1
  6
CONTINUOUS
 62
    7
 10
61.188205
 20
14.175134
 11
60.536919
 21
14.175134
  0
LINE
  8
1-1
  6
CONTINUOUS
 62
    7
 10
61.045383
 20
14.215136
 11
61.045383
 21
14.519487
  0
LINE
  8
1-1
  6
CONTINUOUS
 62
    7
 10
60.679716
 20
14.215136
 11
60.679716
 21
14.524534
  0
LINE
  8
1-1
  6
CONTINUOUS
 62
    7
 10
61.228191
 20
14.215136
 11
61.228191
 21
14.521797
  0
LINE
  8
1-1
  6
CONTINUOUS
 62
    7
 10
60.496908
 20
14.215136
 11
60.496908
 21
14.521797
  0
LINE
  8
1-1
  6
CONTINUOUS
 62
    7
 10
61.075867
 20
13.861776
 11
61.075867
 21
14.175134
  0
LINE
  8
1-1
  6
CONTINUOUS
 62
    7
 10
60.649232
 20
13.861776
 11
60.649232
 21
14.175134
  0
LINE
  8
1-1
  6
CONTINUOUS
 62
    7
 10
61.042562
 20
13.828437
 11
61.042562
 21
14.175134
  0
LINE
  8
1-1
  6
CONTINUOUS
 62
    7
 10
60.682537
 20
13.828437
 11
60.682537
 21
14.175134
  0
LINE
  8
1-1
  6
CONTINUOUS
 62
    7
 10
61.075867
 20
13.861776
 11
61.042562
 21
13.828437
  0
LINE
  8
1-1
  6
CONTINUOUS
 62
    7
 10
60.682537
 20
13.828437
 11
61.042562
 21
13.828437
  0
LINE
  8
1-1
  6
CONTINUOUS
 62
    7
 10
60.682537
 20
13.828437
 11
61.042562
 21
13.828437
  0
LINE
  8
1-1
  6
CONTINUOUS
 62
    7
 10
60.682537
 20
13.828437
 11
60.649232
 21
13.861776
  0
LINE
  8
1-1
  6
CONTINUOUS
 62
    7
 10
61.228191
 20
14.775126
 11
61.228191
 21
15.081784
  0
LINE
  8
1-1
  6
CONTINUOUS
 62
    7
 10
61.228191
 20
15.081784
 11
60.496908
 21
15.081784
  0
LINE
  8
1-1
  6
CONTINUOUS
 62
    7
 10
60.496908
 20
14.775126
 11
60.496908
 21
15.081784
  0
LINE
  8
1-1
  6
CONTINUOUS
 62
    7
 10
60.679716
 20
14.775126
 11
60.679716
 21
15.081784
  0
LINE
  8
1-1
  6
CONTINUOUS
 62
    7
 10
62.382548
 20
24.428412
 11
63.113831
 21
24.428412
  0
LINE
  8
1-1
  6
CONTINUOUS
 62
    7
 10
62.382548
 20
24.428412
 11
62.382548
 21
24.129109
  0
LINE
  8
1-1
  6
CONTINUOUS
 62
    7
 10
62.382548
 20
24.428412
 11
62.422534
 21
24.468414
  0
LINE
  8
1-1
  6
CONTINUOUS
 62
    7
 10
63.113831
 20
24.428412
 11
63.073795
 21
24.468414
  0
LINE
  8
1-1
  6
CONTINUOUS
 62
    7
 10
63.113831
 20
24.428412
 11
63.113831
 21
24.119014
  0
LINE
  8
1-1
  6
CONTINUOUS
 62
    7
 10
62.565356
 20
24.428412
 11
62.565356
 21
24.124061
  0
LINE
  8
1-1
  6
CONTINUOUS
 62
    7
 10
62.931023
 20
24.428412
 11
62.931023
 21
24.119014
  0
LINE
  8
1-1
  6
CONTINUOUS
 62
    7
 10
62.382548
 20
24.775075
 11
63.113831
 21
24.775075
  0
LINE
  8
1-1
  6
CONTINUOUS
 62
    7
 10
62.382548
 20
24.775075
 11
62.422534
 21
24.815077
  0
LINE
  8
1-1
  6
CONTINUOUS
 62
    7
 10
63.113831
 20
24.775075
 11
63.073795
 21
24.815077
  0
LINE
  8
1-1
  6
CONTINUOUS
 62
    7
 10
62.422534
 20
24.815077
 11
63.073795
 21
24.815077
  0
LINE
  8
1-1
  6
CONTINUOUS
 62
    7
 10
62.565356
 20
24.775075
 11
62.565356
 21
24.470724
  0
LINE
  8
1-1
  6
CONTINUOUS
 62
    7
 10
62.931023
 20
24.775075
 11
62.931023
 21
24.465677
  0
LINE
  8
1-1
  6
CONTINUOUS
 62
    7
 10
62.382548
 20
24.775075
 11
62.382548
 21
24.468414
  0
LINE
  8
1-1
  6
CONTINUOUS
 62
    7
 10
62.382548
 20
24.468414
 11
63.113831
 21
24.468414
  0
LINE
  8
1-1
  6
CONTINUOUS
 62
    7
 10
63.113831
 20
24.775075
 11
63.113831
 21
24.468414
  0
LINE
  8
1-1
  6
CONTINUOUS
 62
    7
 10
62.534872
 20
25.128435
 11
62.534872
 21
24.815077
  0
LINE
  8
1-1
  6
CONTINUOUS
 62
    7
 10
62.534872
 20
25.128435
 11
62.568177
 21
25.161774
  0
LINE
  8
1-1
  6
CONTINUOUS
 62
    7
 10
62.928202
 20
25.161774
 11
62.568177
 21
25.161774
  0
LINE
  8
1-1
  6
CONTINUOUS
 62
    7
 10
62.961507
 20
25.128435
 11
62.961507
 21
24.815077
  0
LINE
  8
1-1
  6
CONTINUOUS
 62
    7
 10
62.928202
 20
25.161774
 11
62.961507
 21
25.128435
  0
LINE
  8
1-1
  6
CONTINUOUS
 62
    7
 10
62.568177
 20
25.161774
 11
62.568177
 21
24.815077
  0
LINE
  8
1-1
  6
CONTINUOUS
 62
    7
 10
62.928202
 20
25.161774
 11
62.928202
 21
24.815077
  0
LINE
  8
1-1
  6
CONTINUOUS
 62
    7
 10
62.928202
 20
23.161768
 11
62.961507
 21
23.128428
  0
LINE
  8
1-1
  6
CONTINUOUS
 62
    7
 10
62.382548
 20
14.775126
 11
63.113831
 21
14.775126
  0
LINE
  8
1-1
  6
CONTINUOUS
 62
    7
 10
62.382548
 20
14.775126
 11
62.422534
 21
14.735121
  0
LINE
  8
1-1
  6
CONTINUOUS
 62
    7
 10
63.113831
 20
14.775126
 11
63.073795
 21
14.735121
  0
LINE
  8
1-1
  6
CONTINUOUS
 62
    7
 10
62.565356
 20
14.775126
 11
62.565356
 21
15.079477
  0
LINE
  8
1-1
  6
CONTINUOUS
 62
    7
 10
62.382548
 20
14.215136
 11
63.113831
 21
14.215136
  0
LINE
  8
1-1
  6
CONTINUOUS
 62
    7
 10
62.382548
 20
14.215136
 11
62.422534
 21
14.175134
  0
LINE
  8
1-1
  6
CONTINUOUS
 62
    7
 10
63.113831
 20
14.215136
 11
63.073795
 21
14.175134
  0
LINE
  8
1-1
  6
CONTINUOUS
 62
    7
 10
62.422534
 20
14.175134
 11
63.073795
 21
14.175134
  0
LINE
  8
1-1
  6
CONTINUOUS
 62
    7
 10
62.565356
 20
14.215136
 11
62.565356
 21
14.519487
  0
LINE
  8
1-1
  6
CONTINUOUS
 62
    7
 10
62.931023
 20
14.215136
 11
62.931023
 21
14.524534
  0
LINE
  8
1-1
  6
CONTINUOUS
 62
    7
 10
62.382548
 20
14.215136
 11
62.382548
 21
14.521797
  0
LINE
  8
1-1
  6
CONTINUOUS
 62
    7
 10
62.382548
 20
14.521797
 11
63.113831
 21
14.521797
  0
LINE
  8
1-1
  6
CONTINUOUS
 62
    7
 10
63.113831
 20
14.215136
 11
63.113831
 21
14.521797
  0
LINE
  8
1-1
  6
CONTINUOUS
 62
    7
 10
62.534872
 20
13.861776
 11
62.534872
 21
14.175134
  0
LINE
  8
1-1
  6
CONTINUOUS
 62
    7
 10
62.961507
 20
13.861776
 11
62.961507
 21
14.175134
  0
LINE
  8
1-1
  6
CONTINUOUS
 62
    7
 10
62.568177
 20
13.828437
 11
62.568177
 21
14.175134
  0
LINE
  8
1-1
  6
CONTINUOUS
 62
    7
 10
62.928202
 20
13.828437
 11
62.928202
 21
14.175134
  0
LINE
  8
1-1
  6
CONTINUOUS
 62
    7
 10
62.534872
 20
13.861776
 11
62.568177
 21
13.828437
  0
LINE
  8
1-1
  6
CONTINUOUS
 62
    7
 10
62.928202
 20
13.828437
 11
62.568177
 21
13.828437
  0
LINE
  8
1-1
  6
CONTINUOUS
 62
    7
 10
62.928202
 20
13.828437
 11
62.568177
 21
13.828437
  0
LINE
  8
1-1
  6
CONTINUOUS
 62
    7
 10
62.928202
 20
13.828437
 11
62.961507
 21
13.861776
  0
LINE
  8
1-1
  6
CONTINUOUS
 62
    7
 10
62.382548
 20
14.775126
 11
62.382548
 21
15.081784
  0
LINE
  8
1-1
  6
CONTINUOUS
 62
    7
 10
62.382548
 20
15.081784
 11
63.113831
 21
15.081784
  0
LINE
  8
1-1
  6
CONTINUOUS
 62
    7
 10
63.113831
 20
14.775126
 11
63.113831
 21
15.081784
  0
LINE
  8
1-1
  6
CONTINUOUS
 62
    7
 10
62.931023
 20
14.775126
 11
62.931023
 21
15.081784
  0
LINE
  8
1-1
  6
CONTINUOUS
 62
    7
 10
62.928202
 20
23.161768
 11
62.69937
 21
23.161768
  0
LINE
  8
1-1
  6
CONTINUOUS
 62
    7
 10
62.928202
 20
23.161768
 11
62.928202
 21
23.415097
  0
LINE
  8
1-1
  6
CONTINUOUS
 62
    7
 10
62.348203
 20
24.121751
 11
62.348203
 21
24.061756
  0
LINE
  8
1-1
  6
CONTINUOUS
 62
    7
 10
62.348203
 20
24.121751
 11
63.148176
 21
24.121751
  0
LINE
  8
1-1
  6
CONTINUOUS
 62
    7
 10
63.148176
 20
24.121751
 11
63.148176
 21
24.061756
  0
LINE
  8
1-1
  6
CONTINUOUS
 62
    7
 10
63.879509
 20
14.521797
 11
59.731156
 21
14.521797
  0
LINE
  8
1-1
  6
CONTINUOUS
 62
    7
 10
63.879509
 20
14.735121
 11
63.879509
 21
14.521797
  0
LINE
  8
1-1
  6
CONTINUOUS
 62
    7
 10
60.485451
 20
14.735121
 11
60.485451
 21
14.521797
  0
LINE
  8
1-1
  6
CONTINUOUS
 62
    7
 10
63.879509
 20
14.735121
 11
59.731156
 21
14.735121
  0
LINE
  8
1-1
  6
CONTINUOUS
 62
    7
 10
59.731156
 20
14.735121
 11
59.731156
 21
14.521797
  0
LINE
  8
1-1
  6
CONTINUOUS
 62
    7
 10
60.649232
 20
14.175134
 11
60.649232
 21
13.861776
  0
LINE
  8
1-1
  6
CONTINUOUS
 62
    7
 10
61.075867
 20
14.175134
 11
61.075867
 21
13.861776
  0
LINE
  8
1-1
  6
CONTINUOUS
 62
    7
 10
62.961507
 20
23.415097
 11
62.961507
 21
15.081784
  0
LINE
  8
1-1
  6
CONTINUOUS
 62
    7
 10
62.961507
 20
14.175134
 11
62.961507
 21
13.861776
  0
LINE
  8
1-1
  6
CONTINUOUS
 62
    7
 10
62.534872
 20
20.161773
 11
62.534872
 21
15.081784
  0
LINE
  8
1-1
  6
CONTINUOUS
 62
    7
 10
62.534872
 20
14.175134
 11
62.534872
 21
13.861776
  0
LINE
  8
1-1
  6
CONTINUOUS
 62
    7
 10
61.075867
 20
15.861783
 11
61.042562
 21
15.828443
  0
LINE
  8
1-1
  6
CONTINUOUS
 62
    7
 10
60.682537
 20
15.828443
 11
61.042562
 21
15.828443
  0
LINE
  8
1-1
  6
CONTINUOUS
 62
    7
 10
60.682537
 20
15.828443
 11
61.042562
 21
15.828443
  0
LINE
  8
1-1
  6
CONTINUOUS
 62
    7
 10
60.682537
 20
15.828443
 11
60.649232
 21
15.861783
  0
LINE
  8
1-1
  6
CONTINUOUS
 62
    7
 10
62.534872
 20
15.861783
 11
62.568177
 21
15.828443
  0
LINE
  8
1-1
  6
CONTINUOUS
 62
    7
 10
62.928202
 20
15.828443
 11
62.568177
 21
15.828443
  0
LINE
  8
1-1
  6
CONTINUOUS
 62
    7
 10
62.928202
 20
15.828443
 11
62.568177
 21
15.828443
  0
LINE
  8
1-1
  6
CONTINUOUS
 62
    7
 10
62.928202
 20
15.828443
 11
62.961507
 21
15.861783
  0
LINE
  8
1-1
  6
CONTINUOUS
 62
    7
 10
62.928202
 20
15.828443
 11
62.928202
 21
15.084178
  0
LINE
  8
1-1
  6
CONTINUOUS
 62
    7
 10
62.568177
 20
15.828443
 11
62.568177
 21
15.089588
  0
LINE
  8
1-1
  6
CONTINUOUS
 62
    7
 10
61.042562
 20
15.828443
 11
61.042562
 21
15.086668
  0
LINE
  8
1-1
  6
CONTINUOUS
 62
    7
 10
60.682537
 20
15.828443
 11
60.682537
 21
15.079938
  0
LINE
  8
1-1
  6
CONTINUOUS
 62
    7
 10
46.82655
 20
23.415097
 11
63.329203
 21
23.415097
  0
LINE
  8
1-1
  6
CONTINUOUS
 62
    7
 10
63.329203
 20
23.981749
 11
63.329203
 21
23.415097
  0
LINE
  8
1-1
  6
CONTINUOUS
 62
    7
 10
60.649232
 20
20.161773
 11
60.649232
 21
15.081784
  0
LINE
  8
1-1
  6
CONTINUOUS
 62
    7
 10
61.075867
 20
20.161773
 11
61.075867
 21
15.081784
  0
LINE
  8
1-1
  6
CONTINUOUS
 62
    7
 10
60.649232
 20
23.288442
 11
60.649232
 21
20.029591
  0
LINE
  8
1-1
  6
CONTINUOUS
 62
    7
 10
61.075867
 20
23.288442
 11
61.075867
 21
20.067335
  0
LINE
  8
1-1
  6
CONTINUOUS
 62
    7
 10
61.075867
 20
20.161773
 11
62.69937
 21
20.161773
  0
LINE
  8
1-1
  6
CONTINUOUS
 62
    7
 10
49.526515
 20
20.288447
 11
60.649232
 21
20.288447
  0
LINE
  8
1-1
  6
CONTINUOUS
 62
    7
 10
61.075867
 20
20.288447
 11
62.69937
 21
20.288447
  0
LINE
  8
1-1
  6
CENTER1
 62
    2
 10
55.087873
 20
27.666261
 11
55.087873
 21
14.508318
  0
LINE
  8
1-0
  6
CONTINUOUS
 62
    7
 10
58.474533
 20
26.90149
 11
58.474533
 21
23.615093
  0
LINE
  8
1-0
  6
CONTINUOUS
 62
    7
 10
57.787887
 20
62.224811
 11
57.787887
 21
23.615093
  0
LINE
  8
1-0
  6
CONTINUOUS
 62
    7
 10
57.12121
 20
62.224811
 11
57.12121
 21
23.615093
  0
LINE
  8
1-1
  6
CONTINUOUS
 62
    7
 10
40.087873
 20
6.8284482
 11
70.087885
 21
6.8284482
  0
LINE
  8
1-1
  6
CONTINUOUS
 62
    7
 10
70.087885
 20
20.161773
 11
61.075867
 21
20.161773
  0
LINE
  8
1-1
  6
CONTINUOUS
 62
    7
 10
40.087873
 20
20.161773
 11
40.087873
 21
6.8284482
  0
LINE
  8
1-1
  6
CONTINUOUS
 62
    7
 10
40.087873
 20
20.161773
 11
70.087885
 21
20.161773
  0
LINE
  8
1-1
  6
CONTINUOUS
 62
    7
 10
70.087885
 20
20.161773
 11
70.087885
 21
6.8284482
  0
LINE
  8
1-0
  6
CENTER1
 62
    2
 10
55.088121
 20
165.66845
 11
55.088121
 21
118.99576
  0
LINE
  8
1-1
  6
CONTINUOUS
 62
    7
 10
47.476575
 20
255.69572
 11
47.476575
 21
255.36234
  0
LINE
  8
1-1
  6
CENTER1
 62
    2
 10
48.667676
 20
268.31342
 11
61.612045
 21
255.36905
  0
LINE
  8
1-1
  6
CENTER1
 62
    2
 10
48.703753
 20
255.50861
 11
61.482807
 21
268.28764
  0
LINE
  8
1-1
  6
CENTER1
 62
    2
 10
55.088121
 20
265.95002
 11
55.088121
 21
257.68766
  0
LINE
  8
1-1
  6
CONTINUOUS
 62
    7
 10
61.746306
 20
269.37694
 11
62.699592
 21
268.42358
  0
LINE
  8
1-1
  6
CONTINUOUS
 62
    7
 10
61.618404
 20
269.50484
 11
62.699592
 21
268.42358
  0
LINE
  8
1-1
  6
CONTINUOUS
 62
    7
 10
61.618726
 20
254.28148
 11
61.285449
 21
254.28148
  0
LINE
  8
1-1
  6
CONTINUOUS
 62
    7
 10
61.618726
 20
254.28148
 11
62.699592
 21
255.36234
  0
LINE
  8
1-1
  6
CENTER1
 62
    2
 10
51.452611
 20
261.89295
 11
59.346832
 21
261.89295
  0
LINE
  8
1-1
  6
CONTINUOUS
 62
    7
 10
60.847876
 20
253.63267
 11
63.346276
 21
256.13107
  0
LINE
  8
1-1
  6
CONTINUOUS
 62
    7
 10
60.258574
 20
254.22194
 11
60.828032
 21
253.65241
  0
LINE
  8
1-1
  6
CONTINUOUS
 62
    7
 10
62.757072
 20
256.72034
 11
63.349072
 21
256.12834
  0
LINE
  8
1-1
  6
CENTER1
 62
    2
 10
62.480014
 20
256.38459
 11
62.997633
 21
255.86697
  0
LINE
  8
1-1
  6
CENTER1
 62
    2
 10
60.594349
 20
254.4989
 11
61.044492
 21
254.04886
  0
LINE
  8
1-1
  6
CENTER1
 62
    2
 10
60.602861
 20
253.97693
 11
62.988379
 21
256.36245
  0
LINE
  8
1-1
  6
CONTINUOUS
 62
    7
 10
49.915515
 20
269.5619
 11
49.323515
 21
270.1539
  0
LINE
  8
1-1
  6
CENTER1
 62
    2
 10
49.579665
 20
269.28487
 11
49.06207
 21
269.80246
  0
LINE
  8
1-1
  6
CONTINUOUS
 62
    7
 10
62.699592
 20
268.42358
 11
62.699666
 21
268.09028
  0
LINE
  8
1-1
  6
CONTINUOUS
 62
    7
 10
61.285449
 20
269.50452
 11
61.618726
 21
269.50452
  0
LINE
  8
1-1
  6
CONTINUOUS
 62
    7
 10
61.618726
 20
269.50452
 11
62.699592
 21
268.42358
  0
LINE
  8
1-1
  6
CONTINUOUS
 62
    7
 10
61.285449
 20
269.50442
 11
61.618726
 21
269.50442
  0
LINE
  8
1-1
  6
CENTER1
 62
    2
 10
62.699592
 20
268.42358
 11
62.699592
 21
268.09028
  0
LINE
  8
1-1
  6
CONTINUOUS
 62
    7
 10
62.699592
 20
268.42358
 11
62.699592
 21
268.09028
  0
LINE
  8
1-1
  6
CONTINUOUS
 62
    7
 10
62.699592
 20
268.42358
 11
61.618726
 21
269.50442
  0
LINE
  8
1-1
  6
CONTINUOUS
 62
    7
 10
63.348404
 20
267.6527
 11
60.850004
 21
270.15118
  0
LINE
  8
1-1
  6
CONTINUOUS
 62
    7
 10
62.759126
 20
267.06343
 11
63.328683
 21
267.63296
  0
LINE
  8
1-1
  6
CONTINUOUS
 62
    7
 10
60.260726
 20
269.5619
 11
60.852726
 21
270.1539
  0
LINE
  8
1-1
  6
CENTER1
 62
    2
 10
60.596502
 20
269.28487
 11
61.114097
 21
269.80246
  0
LINE
  8
1-1
  6
CENTER1
 62
    2
 10
62.482167
 20
267.39928
 11
62.93221
 21
267.84932
  0
LINE
  8
1-1
  6
CENTER1
 62
    2
 10
63.004141
 20
267.40769
 11
60.618623
 21
269.79321
  0
LINE
  8
1-1
  6
CONTINUOUS
 62
    7
 10
47.604155
 20
255.23476
 11
48.557516
 21
254.28148
  0
LINE
  8
1-1
  6
CONTINUOUS
 62
    7
 10
48.557516
 20
254.28148
 11
48.890792
 21
254.28148
  0
LINE
  8
1-1
  6
CONTINUOUS
 62
    7
 10
47.476575
 20
255.69565
 11
47.476575
 21
255.36234
  0
LINE
  8
1-1
  6
CENTER1
 62
    2
 10
48.557516
 20
254.28148
 11
48.890792
 21
254.28148
  0
LINE
  8
1-1
  6
CONTINUOUS
 62
    7
 10
48.557516
 20
254.28148
 11
48.890792
 21
254.28148
  0
LINE
  8
1-1
  6
CONTINUOUS
 62
    7
 10
48.557516
 20
254.28148
 11
47.476649
 21
255.36234
  0
LINE
  8
1-1
  6
CONTINUOUS
 62
    7
 10
49.917668
 20
254.22194
 11
49.348111
 21
253.65241
  0
LINE
  8
1-1
  6
CONTINUOUS
 62
    7
 10
62.420901
 20
268.14917
 11
62.420901
 21
267.88253
  0
LINE
  8
1-1
  6
CONTINUOUS
 62
    7
 10
62.420901
 20
255.9025
 11
62.420901
 21
255.63584
  0
LINE
  8
1-1
  6
CONTINUOUS
 62
    7
 10
59.487477
 20
268.14917
 11
62.420901
 21
268.14917
  0
LINE
  8
1-1
  6
CONTINUOUS
 62
    7
 10
59.487477
 20
268.14917
 11
59.487477
 21
267.95948
  0
LINE
  8
1-1
  6
CONTINUOUS
 62
    7
 10
59.487477
 20
255.90315
 11
59.487477
 21
255.63584
  0
LINE
  8
1-1
  6
CONTINUOUS
 62
    7
 10
59.487477
 20
255.63584
 11
62.420901
 21
255.63584
  0
LINE
  8
1-1
  6
CENTER1
 62
    2
 10
49.56754
 20
264.76634
 11
49.56754
 21
258.91221
  0
LINE
  8
1-1
  6
CONTINUOUS
 62
    7
 10
38.114021
 20
268.14917
 11
38.114021
 21
267.95948
  0
LINE
  8
1-1
  6
CONTINUOUS
 62
    7
 10
38.115432
 20
255.90315
 11
38.115432
 21
255.63584
  0
LINE
  8
1-1
  6
CONTINUOUS
 62
    7
 10
38.114194
 20
268.14917
 11
41.047272
 21
268.14917
  0
LINE
  8
1-1
  6
CONTINUOUS
 62
    7
 10
38.114194
 20
255.63584
 11
41.048781
 21
255.63584
  0
LINE
  8
1-1
  6
CONTINUOUS
 62
    7
 10
56.954139
 20
266.22584
 11
59.420841
 21
263.69226
  0
LINE
  8
1-1
  6
CONTINUOUS
 62
    7
 10
59.420841
 20
263.69226
 11
59.420841
 21
260.62885
  0
LINE
  8
1-1
  6
CONTINUOUS
 62
    7
 10
54.08735
 20
266.22584
 11
56.954139
 21
266.22584
  0
LINE
  8
1-1
  6
CONTINUOUS
 62
    7
 10
54.08735
 20
257.55916
 11
56.954139
 21
257.55916
  0
LINE
  8
1-1
  6
CONTINUOUS
 62
    7
 10
54.08735
 20
257.55916
 11
56.954139
 21
257.55916
  0
LINE
  8
1-1
  6
CONTINUOUS
 62
    7
 10
54.054169
 20
266.62585
 11
56.057491
 21
266.62585
  0
LINE
  8
1-1
  6
CONTINUOUS
 62
    7
 10
54.054169
 20
266.49248
 11
56.057491
 21
266.49248
  0
LINE
  8
1-1
  6
CONTINUOUS
 62
    7
 10
50.254161
 20
264.89254
 11
50.254161
 21
265.99246
  0
LINE
  8
1-1
  6
CONTINUOUS
 62
    7
 10
47.920828
 20
264.89254
 11
47.920828
 21
265.99246
  0
LINE
  8
1-1
  6
CONTINUOUS
 62
    7
 10
50.254161
 20
258.89249
 11
50.254161
 21
257.79245
  0
LINE
  8
1-1
  6
CONTINUOUS
 62
    7
 10
47.920828
 20
258.89249
 11
47.920828
 21
257.79245
  0
LINE
  8
1-1
  6
CONTINUOUS
 62
    7
 10
50.496949
 20
262.72583
 11
50.992818
 21
262.72583
  0
LINE
  8
1-1
  6
CONTINUOUS
 62
    7
 10
50.496949
 20
261.05918
 11
50.992818
 21
261.05918
  0
LINE
  8
1-1
  6
CONTINUOUS
 62
    7
 10
50.500834
 20
263.4925
 11
51.000835
 21
263.4925
  0
LINE
  8
1-1
  6
CONTINUOUS
 62
    7
 10
50.500834
 20
263.4925
 11
50.500834
 21
260.29251
  0
LINE
  8
1-1
  6
CONTINUOUS
 62
    7
 10
51.000835
 20
263.4925
 11
51.000835
 21
260.29251
  0
LINE
  8
1-1
  6
CONTINUOUS
 62
    7
 10
50.500834
 20
260.29251
 11
51.000835
 21
260.29251
  0
LINE
  8
1-1
  6
CONTINUOUS
 62
    7
 10
48.734881
 20
262.99646
 11
46.300147
 21
263.42651
  0
LINE
  8
1-1
  6
CONTINUOUS
 62
    7
 10
46.294703
 20
263.44296
 11
45.967365
 21
261.58974
  0
LINE
  8
1-1
  6
CONTINUOUS
 62
    7
 10
48.41019
 20
261.15825
 11
45.967365
 21
261.58974
  0
LINE
  8
1-1
  6
CONTINUOUS
 62
    7
 10
54.08735
 20
266.22584
 11
47.770533
 21
263.1806
  0
LINE
  8
1-1
  6
CONTINUOUS
 62
    7
 10
51.320899
 20
264.85297
 11
51.320899
 21
258.92998
  0
LINE
  8
1-1
  6
CONTINUOUS
 62
    7
 10
53.446209
 20
260.11777
 11
53.576362
 21
260.35048
  0
LINE
  8
1-1
  6
CONTINUOUS
 62
    7
 10
53.446209
 20
260.11777
 11
54.43535
 21
259.56459
  0
LINE
  8
1-1
  6
CONTINUOUS
 62
    7
 10
54.43535
 20
259.56459
 11
54.565478
 21
259.79728
  0
LINE
  8
1-1
  6
CONTINUOUS
 62
    7
 10
53.576362
 20
260.35048
 11
54.565478
 21
259.79728
  0
LINE
  8
1-1
  6
CONTINUOUS
 62
    7
 10
53.598335
 20
260.08251
 11
53.672567
 21
260.21521
  0
LINE
  8
1-1
  6
CONTINUOUS
 62
    7
 10
54.325684
 20
259.67574
 11
54.399842
 21
259.80844
  0
LINE
  8
1-1
  6
CONTINUOUS
 62
    7
 10
53.576437
 20
260.19771
 11
53.690333
 21
260.13405
  0
LINE
  8
1-1
  6
CONTINUOUS
 62
    7
 10
54.305023
 20
259.79018
 11
54.421889
 21
259.72488
  0
LINE
  8
1-1
  6
CONTINUOUS
 62
    7
 10
53.836224
 20
260.20061
 11
54.294878
 21
261.02067
  0
LINE
  8
1-1
  6
CONTINUOUS
 62
    7
 10
54.301485
 20
259.93973
 11
54.80166
 21
260.83405
  0
LINE
  8
1-1
  6
CONTINUOUS
 62
    7
 10
53.034816
 20
257.67504
 11
54.171158
 21
259.70687
  0
LINE
  8
1-1
  6
CONTINUOUS
 62
    7
 10
52.666922
 20
258.10989
 11
53.70461
 21
259.96524
  0
LINE
  8
1-1
  6
CONTINUOUS
 62
    7
 10
52.213315
 20
257.98172
 11
51.631485
 21
258.30708
  0
LINE
  8
1-1
  6
CONTINUOUS
 62
    7
 10
51.371129
 20
257.84167
 11
51.631485
 21
258.30708
  0
LINE
  8
1-1
  6
CONTINUOUS
 62
    7
 10
54.08735
 20
257.55916
 11
53.207157
 21
257.98347
  0
LINE
  8
1-1
  6
CONTINUOUS
 62
    7
 10
47.587552
 20
260.69269
 11
47.587552
 21
261.24258
  0
LINE
  8
1-1
  6
CONTINUOUS
 62
    7
 10
51.16954
 20
257.49609
 11
51.059553
 21
257.55761
  0
LINE
  8
1-1
  6
CONTINUOUS
 62
    7
 10
51.271609
 20
257.66809
 11
51.157143
 21
257.73217
  0
LINE
  8
1-1
  6
CONTINUOUS
 62
    7
 10
51.175899
 20
257.49253
 11
51.369372
 21
257.83855
  0
LINE
  8
1-1
  6
CONTINUOUS
 62
    7
 10
51.059553
 20
257.55761
 11
51.173425
 21
257.76125
  0
LINE
  8
1-1
  6
CONTINUOUS
 62
    7
 10
51.289202
 20
257.4903
 11
51.201905
 21
257.53912
  0
LINE
  8
1-1
  6
CONTINUOUS
 62
    7
 10
51.289202
 20
257.4903
 11
51.452784
 21
257.7828
  0
LINE
  8
1-1
  6
CONTINUOUS
 62
    7
 10
51.288707
 20
257.69674
 11
51.173425
 21
257.76125
  0
LINE
  8
1-1
  6
CONTINUOUS
 62
    7
 10
38.114194
 20
266.8825
 11
41.030347
 21
266.8825
  0
LINE
  8
1-1
  6
CONTINUOUS
 62
    7
 10
38.114194
 20
266.74913
 11
41.047272
 21
266.74913
  0
LINE
  8
1-1
  6
CONTINUOUS
 62
    7
 10
41.047272
 20
268.14917
 11
41.047272
 21
267.8926
  0
LINE
  8
1-1
  6
CONTINUOUS
 62
    7
 10
41.047272
 20
266.89324
 11
41.047272
 21
266.74913
  0
LINE
  8
1-1
  6
CONTINUOUS
 62
    7
 10
38.114194
 20
256.90251
 11
41.030347
 21
256.90251
  0
LINE
  8
1-1
  6
CONTINUOUS
 62
    7
 10
38.114194
 20
257.03588
 11
41.047272
 21
257.03588
  0
LINE
  8
1-1
  6
CONTINUOUS
 62
    7
 10
41.047272
 20
256.89177
 11
41.047272
 21
257.03588
  0
LINE
  8
1-1
  6
CENTER1
 62
    2
 10
23.601577
 20
267.6125
 11
35.948403
 21
267.6125
  0
LINE
  8
1-1
  6
CENTER1
 62
    2
 10
23.601577
 20
255.37251
 11
36.480621
 21
255.37251
  0
LINE
  8
1-1
  6
CONTINUOUS
 62
    7
 10
24.780875
 20
271.39251
 11
38.114194
 21
271.39251
  0
LINE
  8
1-1
  6
CENTER1
 62
    2
 10
28.114211
 20
271.39251
 11
28.114211
 21
251.68581
  0
LINE
  8
1-1
  6
CONTINUOUS
 62
    7
 10
24.780875
 20
271.39251
 11
24.780875
 21
252.39252
  0
LINE
  8
1-1
  6
CONTINUOUS
 62
    7
 10
37.580887
 20
270.9925
 11
37.580887
 21
267.82586
  0
LINE
  8
1-1
  6
CONTINUOUS
 62
    7
 10
37.580887
 20
266.15918
 11
37.580887
 21
257.62582
  0
LINE
  8
1-1
  6
CONTINUOUS
 62
    7
 10
33.580899
 20
268.9458
 11
33.580899
 21
267.82586
  0
LINE
  8
1-1
  6
CONTINUOUS
 62
    7
 10
33.580899
 20
268.9458
 11
35.847497
 21
268.9458
  0
LINE
  8
1-1
  6
CONTINUOUS
 62
    7
 10
35.847497
 20
268.9458
 11
35.847497
 21
267.82586
  0
LINE
  8
1-1
  6
CONTINUOUS
 62
    7
 10
35.841954
 20
267.82586
 11
37.580887
 21
267.82586
  0
LINE
  8
1-1
  6
CONTINUOUS
 62
    7
 10
28.914159
 20
271.21247
 11
27.314213
 21
271.21247
  0
LINE
  8
1-1
  6
CONTINUOUS
 62
    7
 10
29.31417
 20
269.61253
 11
26.914202
 21
269.61253
  0
LINE
  8
1-1
  6
CONTINUOUS
 62
    7
 10
29.38088
 20
268.54586
 11
29.38088
 21
269.54579
  0
LINE
  8
1-1
  6
CONTINUOUS
 62
    7
 10
26.847566
 20
268.54586
 11
26.847566
 21
269.54579
  0
LINE
  8
1-1
  6
CONTINUOUS
 62
    7
 10
26.914202
 20
268.47915
 11
29.31417
 21
268.47915
  0
LINE
  8
1-1
  6
CONTINUOUS
 62
    7
 10
27.247479
 20
271.14584
 11
27.247479
 21
269.63524
  0
LINE
  8
1-1
  6
CONTINUOUS
 62
    7
 10
28.980869
 20
271.14584
 11
28.980869
 21
269.63524
  0
LINE
  8
1-1
  6
CONTINUOUS
 62
    7
 10
29.38088
 20
266.61247
 11
26.847566
 21
266.61247
  0
LINE
  8
1-1
  6
CONTINUOUS
 62
    7
 10
29.447516
 20
266.41254
 11
29.447516
 21
266.54583
  0
LINE
  8
1-1
  6
CONTINUOUS
 62
    7
 10
26.780832
 20
266.41254
 11
26.780832
 21
266.54583
  0
LINE
  8
1-1
  6
CONTINUOUS
 62
    7
 10
26.847566
 20
266.34583
 11
29.38088
 21
266.34583
  0
LINE
  8
1-1
  6
CONTINUOUS
 62
    7
 10
27.214198
 20
268.49714
 11
27.214198
 21
266.6478
  0
LINE
  8
1-1
  6
CONTINUOUS
 62
    7
 10
29.014249
 20
268.49714
 11
29.014249
 21
266.6241
  0
LINE
  8
1-1
  6
CONTINUOUS
 62
    7
 10
26.880822
 20
266.33962
 11
26.880822
 21
263.61248
  0
LINE
  8
1-1
  6
CONTINUOUS
 62
    7
 10
26.880822
 20
263.61248
 11
29.347525
 21
263.61248
  0
LINE
  8
1-1
  6
CONTINUOUS
 62
    7
 10
29.347525
 20
266.33962
 11
29.347525
 21
263.61248
  0
LINE
  8
1-1
  6
CONTINUOUS
 62
    7
 10
26.180815
 20
265.07916
 11
26.894877
 21
265.07916
  0
LINE
  8
1-1
  6
CONTINUOUS
 62
    7
 10
28.780863
 20
263.62463
 11
28.780863
 21
263.42445
  0
LINE
  8
1-1
  6
CONTINUOUS
 62
    7
 10
27.447484
 20
263.62463
 11
27.447484
 21
263.42445
  0
LINE
  8
1-1
  6
CONTINUOUS
 62
    7
 10
28.714153
 20
262.15919
 11
27.514219
 21
262.15919
  0
LINE
  8
1-1
  6
CONTINUOUS
 62
    7
 10
28.847524
 20
263.41248
 11
27.380849
 21
263.41248
  0
LINE
  8
1-1
  6
CONTINUOUS
 62
    7
 10
27.447484
 20
262.22583
 11
27.447484
 21
262.29091
  0
LINE
  8
1-1
  6
CONTINUOUS
 62
    7
 10
28.780863
 20
262.22583
 11
28.780863
 21
262.29536
  0
LINE
  8
1-1
  6
CONTINUOUS
 62
    7
 10
27.314213
 20
262.3592
 11
27.314213
 21
263.34584
  0
LINE
  8
1-1
  6
CONTINUOUS
 62
    7
 10
28.847524
 20
262.29247
 11
27.380849
 21
262.29247
  0
LINE
  8
1-1
  6
CONTINUOUS
 62
    7
 10
28.914159
 20
262.3592
 11
28.914159
 21
263.34584
  0
LINE
  8
1-1
  6
CONTINUOUS
 62
    7
 10
27.302806
 20
262.85252
 11
28.904583
 21
262.85252
  0
LINE
  8
1-1
  6
CONTINUOUS
 62
    7
 10
25.914174
 20
271.27921
 11
30.314198
 21
271.27921
  0
LINE
  8
1-1
  6
CONTINUOUS
 62
    7
 10
29.33696
 20
265.07916
 11
30.314198
 21
265.07916
  0
LINE
  8
1-1
  6
CONTINUOUS
 62
    7
 10
25.914174
 20
271.27921
 11
25.914174
 21
265.07916
  0
LINE
  8
1-1
  6
CONTINUOUS
 62
    7
 10
30.314198
 20
271.27921
 11
30.314198
 21
265.07916
  0
LINE
  8
1-1
  6
CONTINUOUS
 62
    7
 10
25.914174
 20
265.07916
 11
30.314198
 21
265.07916
  0
LINE
  8
1-1
  6
CENTER1
 62
    2
 10
26.21417
 20
269.9558
 11
26.21417
 21
269.56801
  0
LINE
  8
1-1
  6
CENTER1
 62
    2
 10
30.014178
 20
270.06158
 11
30.014178
 21
269.56801
  0
LINE
  8
1-1
  6
CENTER1
 62
    2
 10
29.762408
 20
269.81253
 11
30.150195
 21
269.81253
  0
LINE
  8
1-1
  6
CENTER1
 62
    2
 10
25.990385
 20
269.81253
 11
26.413433
 21
269.81253
  0
LINE
  8
1-1
  6
CENTER1
 62
    2
 10
26.21417
 20
265.26917
 11
26.21417
 21
265.65695
  0
LINE
  8
1-1
  6
CENTER1
 62
    2
 10
30.014178
 20
265.16339
 11
30.014178
 21
265.65695
  0
LINE
  8
1-1
  6
CENTER1
 62
    2
 10
29.762408
 20
265.41253
 11
30.150195
 21
265.41253
  0
LINE
  8
1-1
  6
CENTER1
 62
    2
 10
25.990385
 20
265.41253
 11
26.413433
 21
265.41253
  0
LINE
  8
1-1
  6
CONTINUOUS
 62
    7
 10
30.326496
 20
270.9925
 11
37.580887
 21
270.9925
  0
LINE
  8
1-1
  6
CONTINUOUS
 62
    7
 10
26.880822
 20
263.74585
 11
29.347525
 21
263.74585
  0
LINE
  8
1-1
  6
CONTINUOUS
 62
    7
 10
26.880822
 20
263.87912
 11
29.347525
 21
263.87912
  0
LINE
  8
1-1
  6
CONTINUOUS
 62
    7
 10
26.880822
 20
264.01249
 11
29.347525
 21
264.01249
  0
LINE
  8
1-1
  6
CONTINUOUS
 62
    7
 10
26.880822
 20
264.14586
 11
29.347525
 21
264.14586
  0
LINE
  8
1-1
  6
CONTINUOUS
 62
    7
 10
26.880822
 20
264.27913
 11
29.347525
 21
264.27913
  0
LINE
  8
1-1
  6
CONTINUOUS
 62
    7
 10
26.880822
 20
264.4125
 11
29.347525
 21
264.4125
  0
LINE
  8
1-1
  6
CONTINUOUS
 62
    7
 10
26.880822
 20
264.54587
 11
29.347525
 21
264.54587
  0
LINE
  8
1-1
  6
CONTINUOUS
 62
    7
 10
26.880822
 20
264.67915
 11
29.347525
 21
264.67915
  0
LINE
  8
1-1
  6
CONTINUOUS
 62
    7
 10
26.880822
 20
264.81252
 11
29.347525
 21
264.81252
  0
LINE
  8
1-1
  6
CONTINUOUS
 62
    7
 10
26.880822
 20
264.94579
 11
29.347525
 21
264.94579
  0
LINE
  8
1-1
  6
CONTINUOUS
 62
    7
 10
26.880822
 20
265.07916
 11
29.347525
 21
265.07916
  0
LINE
  8
1-1
  6
CONTINUOUS
 62
    7
 10
26.880822
 20
265.21253
 11
29.347525
 21
265.21253
  0
LINE
  8
1-1
  6
CONTINUOUS
 62
    7
 10
26.880822
 20
265.34587
 11
29.347525
 21
265.34587
  0
LINE
  8
1-1
  6
CONTINUOUS
 62
    7
 10
26.880822
 20
265.47917
 11
29.347525
 21
265.47917
  0
LINE
  8
1-1
  6
CONTINUOUS
 62
    7
 10
26.880822
 20
265.61251
 11
29.347525
 21
265.61251
  0
LINE
  8
1-1
  6
CONTINUOUS
 62
    7
 10
26.880822
 20
265.74581
 11
29.347525
 21
265.74581
  0
LINE
  8
1-1
  6
CONTINUOUS
 62
    7
 10
26.880822
 20
265.87918
 11
29.347525
 21
265.87918
  0
LINE
  8
1-1
  6
CONTINUOUS
 62
    7
 10
26.880822
 20
266.01245
 11
29.347525
 21
266.01245
  0
LINE
  8
1-1
  6
CONTINUOUS
 62
    7
 10
26.880822
 20
266.14582
 11
29.347525
 21
266.14582
  0
LINE
  8
1-1
  6
CONTINUOUS
 62
    7
 10
25.280876
 20
271.39251
 11
25.280876
 21
252.39252
  0
LINE
  8
1-1
  6
CONTINUOUS
 62
    7
 10
25.25007
 20
270.9925
 11
25.849345
 21
270.9925
  0
LINE
  8
1-1
  6
CONTINUOUS
 62
    7
 10
25.25007
 20
261.99247
 11
29.080884
 21
261.99247
  0
LINE
  8
1-1
  6
CONTINUOUS
 62
    7
 10
25.25007
 20
261.79254
 11
29.078905
 21
261.79254
  0
LINE
  8
1-1
  6
CONTINUOUS
 62
    7
 10
25.847538
 20
258.57248
 11
25.847538
 21
252.39557
  0
LINE
  8
1-1
  6
CENTER1
 62
    2
 10
26.180815
 20
258.00955
 11
26.180815
 21
257.00705
  0
LINE
  8
1-1
  6
CENTER1
 62
    2
 10
25.782536
 20
257.43918
 11
26.450846
 21
257.43918
  0
LINE
  8
1-1
  6
CENTER1
 62
    2
 10
30.047532
 20
258.00955
 11
30.047532
 21
257.00705
  0
LINE
  8
1-1
  6
CENTER1
 62
    2
 10
30.445886
 20
257.43918
 11
29.777501
 21
257.43918
  0
LINE
  8
1-1
  6
CENTER1
 62
    2
 10
26.180815
 20
252.73545
 11
26.180815
 21
253.73788
  0
LINE
  8
1-1
  6
CENTER1
 62
    2
 10
25.782536
 20
253.30582
 11
26.450846
 21
253.30582
  0
LINE
  8
1-1
  6
CENTER1
 62
    2
 10
30.047532
 20
252.73545
 11
30.047532
 21
253.73788
  0
LINE
  8
1-1
  6
CENTER1
 62
    2
 10
30.445886
 20
253.30582
 11
29.777501
 21
253.30582
  0
LINE
  8
1-1
  6
CONTINUOUS
 62
    7
 10
29.180874
 20
260.77254
 11
27.047547
 21
260.77254
  0
LINE
  8
1-1
  6
CONTINUOUS
 62
    7
 10
29.247535
 20
260.70581
 11
29.247535
 21
260.54925
  0
LINE
  8
1-1
  6
CONTINUOUS
 62
    7
 10
26.980838
 20
260.70581
 11
26.980838
 21
260.53918
  0
LINE
  8
1-1
  6
CONTINUOUS
 62
    7
 10
26.847566
 20
260.53918
 11
26.847566
 21
260.01456
  0
LINE
  8
1-1
  6
CONTINUOUS
 62
    7
 10
26.847566
 20
260.53918
 11
29.38088
 21
260.53918
  0
LINE
  8
1-1
  6
CONTINUOUS
 62
    7
 10
29.38088
 20
260.53918
 11
29.38088
 21
260.01456
  0
LINE
  8
1-1
  6
CONTINUOUS
 62
    7
 10
26.514191
 20
260.0058
 11
29.714182
 21
260.0058
  0
LINE
  8
1-1
  6
CONTINUOUS
 62
    7
 10
29.614166
 20
259.33915
 11
29.614166
 21
257.14074
  0
LINE
  8
1-1
  6
CONTINUOUS
 62
    7
 10
29.647546
 20
257.13918
 11
26.580826
 21
257.13918
  0
LINE
  8
1-1
  6
CONTINUOUS
 62
    7
 10
29.714182
 20
256.93918
 11
29.714182
 21
257.07255
  0
LINE
  8
1-1
  6
CONTINUOUS
 62
    7
 10
26.514191
 20
256.93918
 11
26.514191
 21
257.07255
  0
LINE
  8
1-1
  6
CONTINUOUS
 62
    7
 10
26.580826
 20
256.87254
 11
29.647546
 21
256.87254
  0
LINE
  8
1-1
  6
CONTINUOUS
 62
    7
 10
25.847538
 20
258.57248
 11
26.584538
 21
258.57248
  0
LINE
  8
1-1
  6
CONTINUOUS
 62
    7
 10
29.647546
 20
254.50586
 11
26.580826
 21
254.50586
  0
LINE
  8
1-1
  6
CONTINUOUS
 62
    7
 10
29.714182
 20
253.70583
 11
29.714182
 21
254.43922
  0
LINE
  8
1-1
  6
CONTINUOUS
 62
    7
 10
26.514191
 20
253.70583
 11
26.514191
 21
254.43922
  0
LINE
  8
1-1
  6
CONTINUOUS
 62
    7
 10
26.580826
 20
253.6392
 11
29.647546
 21
253.6392
  0
LINE
  8
1-1
  6
CONTINUOUS
 62
    7
 10
29.047529
 20
256.80655
 11
29.047529
 21
254.53426
  0
LINE
  8
1-1
  6
CONTINUOUS
 62
    7
 10
27.180843
 20
256.80655
 11
27.180843
 21
254.53426
  0
LINE
  8
1-1
  6
CONTINUOUS
 62
    7
 10
27.314213
 20
252.37253
 11
27.314213
 21
253.66545
  0
LINE
  8
1-1
  6
CONTINUOUS
 62
    7
 10
28.914159
 20
252.37253
 11
28.914159
 21
253.66545
  0
LINE
  8
1-1
  6
CONTINUOUS
 62
    7
 10
28.847524
 20
252.30579
 11
27.380849
 21
252.30579
  0
LINE
  8
1-1
  6
CONTINUOUS
 62
    7
 10
27.547499
 20
251.75252
 11
27.547499
 21
252.30424
  0
LINE
  8
1-1
  6
CONTINUOUS
 62
    7
 10
28.680873
 20
251.75252
 11
28.680873
 21
252.30424
  0
LINE
  8
1-1
  6
CONTINUOUS
 62
    7
 10
28.614138
 20
251.68581
 11
27.614209
 21
251.68581
  0
LINE
  8
1-1
  6
CONTINUOUS
 62
    7
 10
24.780875
 20
252.39252
 11
27.305528
 21
252.39252
  0
LINE
  8
1-1
  6
CONTINUOUS
 62
    7
 10
29.714182
 20
260.0058
 11
29.714182
 21
259.33915
  0
LINE
  8
1-1
  6
CONTINUOUS
 62
    7
 10
26.614181
 20
259.33205
 11
26.614181
 21
257.14074
  0
LINE
  8
1-1
  6
CONTINUOUS
 62
    7
 10
26.614429
 20
259.20588
 11
29.614166
 21
259.20588
  0
LINE
  8
1-1
  6
CONTINUOUS
 62
    7
 10
26.614429
 20
259.07251
 11
29.614166
 21
259.07251
  0
LINE
  8
1-1
  6
CONTINUOUS
 62
    7
 10
26.614429
 20
258.93914
 11
29.614166
 21
258.93914
  0
LINE
  8
1-1
  6
CONTINUOUS
 62
    7
 10
26.614429
 20
258.80586
 11
29.614166
 21
258.80586
  0
LINE
  8
1-1
  6
CONTINUOUS
 62
    7
 10
26.614429
 20
258.67249
 11
29.614166
 21
258.67249
  0
LINE
  8
1-1
  6
CONTINUOUS
 62
    7
 10
26.614429
 20
258.53912
 11
29.614166
 21
258.53912
  0
LINE
  8
1-1
  6
CONTINUOUS
 62
    7
 10
26.614429
 20
258.40585
 11
29.614166
 21
258.40585
  0
LINE
  8
1-1
  6
CONTINUOUS
 62
    7
 10
26.614429
 20
258.27248
 11
29.614166
 21
258.27248
  0
LINE
  8
1-1
  6
CONTINUOUS
 62
    7
 10
26.614429
 20
258.13921
 11
29.614166
 21
258.13921
  0
LINE
  8
1-1
  6
CONTINUOUS
 62
    7
 10
26.614429
 20
258.00584
 11
29.614166
 21
258.00584
  0
LINE
  8
1-1
  6
CONTINUOUS
 62
    7
 10
26.614429
 20
257.87247
 11
29.614166
 21
257.87247
  0
LINE
  8
1-1
  6
CONTINUOUS
 62
    7
 10
26.614429
 20
257.7392
 11
29.614166
 21
257.7392
  0
LINE
  8
1-1
  6
CONTINUOUS
 62
    7
 10
26.614429
 20
257.60583
 11
29.614166
 21
257.60583
  0
LINE
  8
1-1
  6
CONTINUOUS
 62
    7
 10
26.614429
 20
257.47246
 11
29.614166
 21
257.47246
  0
LINE
  8
1-1
  6
CONTINUOUS
 62
    7
 10
26.614429
 20
257.33919
 11
29.614166
 21
257.33919
  0
LINE
  8
1-1
  6
CONTINUOUS
 62
    7
 10
26.514191
 20
259.33915
 11
30.547559
 21
259.33915
  0
LINE
  8
1-1
  6
CONTINUOUS
 62
    7
 10
26.514191
 20
260.0058
 11
26.514191
 21
259.33915
  0
LINE
  8
1-1
  6
CONTINUOUS
 62
    7
 10
29.620699
 20
259.1725
 11
30.547559
 21
259.1725
  0
LINE
  8
1-1
  6
CONTINUOUS
 62
    7
 10
30.547559
 20
259.33915
 11
30.547559
 21
259.1725
  0
LINE
  8
1-1
  6
CONTINUOUS
 62
    7
 10
30.414189
 20
257.57248
 11
30.414189
 21
259.17846
  0
LINE
  8
1-1
  6
CONTINUOUS
 62
    7
 10
30.347553
 20
257.50584
 11
29.620699
 21
257.50584
  0
LINE
  8
1-1
  6
CONTINUOUS
 62
    7
 10
30.380834
 20
257.52432
 11
30.380834
 21
252.39557
  0
LINE
  8
1-1
  6
CONTINUOUS
 62
    7
 10
25.381535
 20
255.95914
 11
25.849345
 21
255.95914
  0
LINE
  8
1-1
  6
CONTINUOUS
 62
    7
 10
30.393948
 20
255.95914
 11
37.580887
 21
255.95914
  0
LINE
  8
1-1
  6
CONTINUOUS
 62
    7
 10
25.314652
 20
257.62582
 11
25.782536
 21
257.62582
  0
LINE
  8
1-1
  6
CONTINUOUS
 62
    7
 10
30.460831
 20
257.62582
 11
37.580887
 21
257.62582
  0
LINE
  8
1-1
  6
CONTINUOUS
 62
    7
 10
25.314652
 20
266.15918
 11
25.849345
 21
266.15918
  0
LINE
  8
1-1
  6
CONTINUOUS
 62
    7
 10
30.327164
 20
266.15918
 11
37.580887
 21
266.15918
  0
LINE
  8
1-1
  6
CONTINUOUS
 62
    7
 10
25.314652
 20
267.82586
 11
25.782536
 21
267.82586
  0
LINE
  8
1-1
  6
CONTINUOUS
 62
    7
 10
31.04756
 20
254.25918
 11
37.478323
 21
254.25918
  0
LINE
  8
1-1
  6
CONTINUOUS
 62
    7
 10
30.58084
 20
252.79251
 11
30.58084
 21
252.39252
  0
LINE
  8
1-1
  6
CONTINUOUS
 62
    7
 10
30.58084
 20
252.79251
 11
37.914189
 21
252.79251
  0
LINE
  8
1-1
  6
CONTINUOUS
 62
    7
 10
37.914189
 20
252.79251
 11
37.914189
 21
252.39252
  0
LINE
  8
1-1
  6
CONTINUOUS
 62
    7
 10
31.04756
 20
254.25918
 11
31.04756
 21
252.86345
  0
LINE
  8
1-1
  6
CONTINUOUS
 62
    7
 10
37.580887
 20
255.95914
 11
37.580887
 21
252.86345
  0
LINE
  8
1-1
  6
DASHED1
 62
    7
 10
31.04756
 20
253.99247
 11
37.478323
 21
253.99247
  0
LINE
  8
1-1
  6
CONTINUOUS
 62
    7
 10
41.220851
 20
256.23586
 11
58.95417
 21
256.23586
  0
LINE
  8
1-1
  6
CONTINUOUS
 62
    7
 10
41.220851
 20
254.23582
 11
58.95417
 21
254.23582
  0
LINE
  8
1-1
  6
CONTINUOUS
 62
    7
 10
58.95417
 20
256.23586
 11
58.95417
 21
254.23582
  0
LINE
  8
1-1
  6
CONTINUOUS
 62
    7
 10
58.916683
 20
255.9025
 11
62.420901
 21
255.9025
  0
LINE
  8
1-1
  6
CONTINUOUS
 62
    7
 10
56.420856
 20
254.50247
 11
56.420856
 21
254.24929
  0
LINE
  8
1-1
  6
CONTINUOUS
 62
    7
 10
41.554226
 20
254.50247
 11
56.420856
 21
254.50247
  0
LINE
  8
1-1
  6
CONTINUOUS
 62
    7
 10
41.554226
 20
254.50247
 11
41.554226
 21
254.23582
  0
LINE
  8
1-1
  6
CONTINUOUS
 62
    7
 10
57.799566
 20
255.15251
 11
58.754189
 21
255.15251
  0
LINE
  8
1-1
  6
CONTINUOUS
 62
    7
 10
57.824261
 20
255.05252
 11
58.754189
 21
255.05252
  0
LINE
  8
1-1
  6
CONTINUOUS
 62
    7
 10
58.754189
 20
255.15251
 11
58.754189
 21
255.05252
  0
LINE
  8
1-1
  6
CONTINUOUS
 62
    7
 10
56.426721
 20
254.3179
 11
57.824261
 21
255.05252
  0
LINE
  8
1-1
  6
CONTINUOUS
 62
    7
 10
56.424568
 20
254.42972
 11
57.799566
 21
255.15251
  0
LINE
  8
1-1
  6
CONTINUOUS
 62
    7
 10
37.780893
 20
255.28581
 11
37.780893
 21
255.1858
  0
LINE
  8
1-1
  6
CONTINUOUS
 62
    7
 10
38.114194
 20
255.18862
 11
38.114194
 21
252.39252
  0
LINE
  8
1-1
  6
CONTINUOUS
 62
    7
 10
37.780893
 20
255.28581
 11
38.583315
 21
255.28581
  0
LINE
  8
1-1
  6
CONTINUOUS
 62
    7
 10
37.780893
 20
255.1858
 11
38.569112
 21
255.1858
  0
LINE
  8
1-1
  6
CONTINUOUS
 62
    7
 10
38.583315
 20
255.28581
 11
41.546036
 21
254.42534
  0
LINE
  8
1-1
  6
CONTINUOUS
 62
    7
 10
38.569112
 20
255.1858
 11
41.551579
 21
254.31956
  0
LINE
  8
1-1
  6
CONTINUOUS
 62
    7
 10
41.220851
 20
256.23586
 11
41.220851
 21
254.52493
  0
LINE
  8
1-1
  6
CONTINUOUS
 62
    7
 10
41.220851
 20
254.41848
 11
41.220851
 21
254.23582
  0
LINE
  8
1-1
  6
CONTINUOUS
 62
    7
 10
41.048781
 20
267.88253
 11
41.048781
 21
268.14917
  0
LINE
  8
1-1
  6
CONTINUOUS
 62
    7
 10
38.115432
 20
267.88186
 11
38.115432
 21
268.14917
  0
LINE
  8
1-1
  6
CONTINUOUS
 62
    7
 10
38.114194
 20
268.14917
 11
41.048781
 21
268.14917
  0
LINE
  8
1-1
  6
CONTINUOUS
 62
    7
 10
41.220851
 20
267.54915
 11
58.95417
 21
267.54915
  0
LINE
  8
1-1
  6
CONTINUOUS
 62
    7
 10
41.220851
 20
269.54918
 11
58.95417
 21
269.54918
  0
LINE
  8
1-1
  6
CONTINUOUS
 62
    7
 10
58.95417
 20
267.54915
 11
58.95417
 21
269.54918
  0
LINE
  8
1-1
  6
CONTINUOUS
 62
    7
 10
38.114194
 20
267.88253
 11
41.182201
 21
267.88253
  0
LINE
  8
1-1
  6
CONTINUOUS
 62
    7
 10
56.420856
 20
269.28247
 11
56.420856
 21
269.53572
  0
LINE
  8
1-1
  6
CONTINUOUS
 62
    7
 10
41.554226
 20
269.28247
 11
56.420856
 21
269.28247
  0
LINE
  8
1-1
  6
CONTINUOUS
 62
    7
 10
41.554226
 20
269.28247
 11
41.554226
 21
269.54918
  0
LINE
  8
1-1
  6
CONTINUOUS
 62
    7
 10
57.799566
 20
268.63249
 11
58.754189
 21
268.63249
  0
LINE
  8
1-1
  6
CONTINUOUS
 62
    7
 10
57.824261
 20
268.73248
 11
58.754189
 21
268.73248
  0
LINE
  8
1-1
  6
CONTINUOUS
 62
    7
 10
58.754189
 20
268.63249
 11
58.754189
 21
268.73248
  0
LINE
  8
1-1
  6
CONTINUOUS
 62
    7
 10
56.426721
 20
269.46711
 11
57.824261
 21
268.73248
  0
LINE
  8
1-1
  6
CONTINUOUS
 62
    7
 10
56.424568
 20
269.35521
 11
57.799566
 21
268.63249
  0
LINE
  8
1-1
  6
CONTINUOUS
 62
    7
 10
37.780893
 20
268.49912
 11
37.780893
 21
268.59914
  0
LINE
  8
1-1
  6
CONTINUOUS
 62
    7
 10
37.780893
 20
268.49912
 11
38.583315
 21
268.49912
  0
LINE
  8
1-1
  6
CONTINUOUS
 62
    7
 10
37.780893
 20
268.59914
 11
38.569112
 21
268.59914
  0
LINE
  8
1-1
  6
CONTINUOUS
 62
    7
 10
38.583315
 20
268.49912
 11
41.546036
 21
269.35967
  0
LINE
  8
1-1
  6
CONTINUOUS
 62
    7
 10
38.569112
 20
268.59914
 11
41.551579
 21
269.46545
  0
LINE
  8
1-1
  6
CONTINUOUS
 62
    7
 10
41.220851
 20
267.54915
 11
41.220851
 21
269.26007
  0
LINE
  8
1-1
  6
CONTINUOUS
 62
    7
 10
41.220851
 20
269.36652
 11
41.220851
 21
269.54918
  0
LINE
  8
1-1
  6
CONTINUOUS
 62
    7
 10
38.114194
 20
267.88253
 11
41.189475
 21
267.88253
  0
LINE
  8
1-1
  6
CONTINUOUS
 62
    7
 10
38.114194
 20
271.39251
 11
38.114194
 21
268.60102
  0
LINE
  8
1-1
  6
CONTINUOUS
 62
    7
 10
38.114194
 20
268.49484
 11
38.114194
 21
255.29571
  0
LINE
  8
1-1
  6
CONTINUOUS
 62
    7
 10
30.391721
 20
267.82586
 11
33.500308
 21
267.82586
  0
LINE
  8
1-1
  6
CONTINUOUS
 62
    7
 10
62.759126
 20
267.06343
 11
62.005449
 21
267.8172
  0
LINE
  8
1-1
  6
CONTINUOUS
 62
    7
 10
61.602048
 20
268.22058
 11
60.260726
 21
269.5619
  0
LINE
  8
1-1
  6
CONTINUOUS
 62
    7
 10
60.258574
 20
254.22194
 11
61.637976
 21
255.60125
  0
LINE
  8
1-1
  6
CONTINUOUS
 62
    7
 10
61.95705
 20
255.92042
 11
62.757072
 21
256.72034
  0
LINE
  8
1-1
  6
CENTER1
 62
    2
 10
61.618726
 20
254.28148
 11
61.546547
 21
254.28148
  0
LINE
  8
1-1
  6
CONTINUOUS
 62
    7
 10
62.699592
 20
255.50586
 11
62.699592
 21
255.36234
  0
LINE
  8
1-1
  6
CONTINUOUS
 62
    7
 10
60.788243
 20
254.77861
 11
59.970974
 21
255.59588
  0
LINE
  8
1-1
  6
CONTINUOUS
 62
    7
 10
62.179103
 20
256.21621
 11
61.839541
 21
256.55577
  0
LINE
  8
1-1
  6
CONTINUOUS
 62
    7
 10
58.746073
 20
259.64914
 11
56.442977
 21
261.95233
  0
LINE
  8
1-1
  6
CONTINUOUS
 62
    7
 10
60.777999
 20
268.99707
 11
59.973276
 21
268.19235
  0
LINE
  8
1-1
  6
CONTINUOUS
 62
    7
 10
61.618404
 20
269.50484
 11
61.49221
 21
269.50484
  0
LINE
  8
1-1
  6
CONTINUOUS
 62
    7
 10
61.790919
 20
267.1815
 11
62.192167
 21
267.58283
  0
LINE
  8
1-1
  6
CONTINUOUS
 62
    7
 10
62.699592
 20
268.42358
 11
62.699592
 21
268.32826
  0
LINE
  8
1-1
  6
CONTINUOUS
 62
    7
 10
58.946747
 20
267.88253
 11
62.420901
 21
267.88253
  0
LINE
  8
1-1
  6
CONTINUOUS
 62
    7
 10
48.734138
 20
269.5591
 11
49.326237
 21
270.15118
  0
LINE
  8
1-1
  6
CONTINUOUS
 62
    7
 10
55.120981
 20
263.27433
 11
52.800218
 21
265.59509
  0
LINE
  8
1-1
  6
CONTINUOUS
 62
    7
 10
53.600958
 20
261.96587
 11
51.329658
 21
264.23719
  0
LINE
  8
1-1
  6
CENTER1
 62
    2
 10
49.279916
 20
269.51551
 11
49.557618
 21
269.79321
  0
LINE
  8
1-1
  6
CONTINUOUS
 62
    7
 10
57.447707
 20
265.66678
 11
51.339902
 21
259.55897
  0
LINE
  8
1-1
  6
CONTINUOUS
 62
    7
 10
54.534449
 20
259.92511
 11
58.84443
 21
264.23512
  0
LINE
  8
1-1
  6
CONTINUOUS
 62
    7
 10
49.328365
 20
253.63267
 11
48.763138
 21
254.19792
  0
LINE
  8
1-1
  6
CENTER1
 62
    2
 10
49.57338
 20
253.97693
 11
49.382802
 21
254.16753
  0
LINE
  8
1-1
  6
CENTER1
 62
    2
 10
49.32302
 20
254.24011
 11
49.131749
 21
254.04886
  0
LINE
  8
1-1
  6
CONTINUOUS
 62
    7
 10
65.498248
 20
266.22525
 11
65.498248
 21
257.55859
  0
LINE
  8
1-1
  6
CONTINUOUS
 62
    7
 10
103.42622
 20
266.22525
 11
103.42622
 21
257.55859
  0
LINE
  8
1-1
  6
CONTINUOUS
 62
    7
 10
141.35427
 20
266.22525
 11
141.35427
 21
257.55859
  0
LINE
  8
1-1
  6
CONTINUOUS
 62
    7
 10
179.28232
 20
266.22525
 11
179.28232
 21
257.55859
  0
LINE
  8
1-1
  6
CONTINUOUS
 62
    7
 10
217.21029
 20
266.22525
 11
217.21029
 21
257.55859
  0
LINE
  8
1-1
  6
CONTINUOUS
 62
    7
 10
256.40253
 20
269.22523
 11
256.40253
 21
254.55854
  0
LINE
  8
1-1
  6
CONTINUOUS
 62
    7
 10
255.77032
 20
269.22523
 11
255.77032
 21
254.55854
  0
LINE
  8
1-1
  6
CONTINUOUS
 62
    7
 10
256.40253
 20
269.22523
 11
254.18992
 21
269.22523
  0
LINE
  8
1-1
  6
CONTINUOUS
 62
    7
 10
256.40253
 20
254.55854
 11
254.18992
 21
254.55854
  0
LINE
  8
1-1
  6
CONTINUOUS
 62
    7
 10
254.18992
 20
257.49575
 11
254.18992
 21
254.55854
  0
LINE
  8
1-1
  6
CONTINUOUS
 62
    7
 10
254.18992
 20
269.22523
 11
254.18992
 21
266.31485
  0
LINE
  8
1-1
  6
CONTINUOUS
 62
    7
 10
255.75562
 20
268.22521
 11
254.18992
 21
268.22521
  0
LINE
  8
1-1
  6
CONTINUOUS
 62
    7
 10
255.75562
 20
255.55856
 11
254.18992
 21
255.55856
  0
LINE
  8
1-1
  6
CONTINUOUS
 62
    7
 10
253.25416
 20
263.10909
 11
250.68731
 21
265.67569
  0
LINE
  8
1-1
  6
CONTINUOUS
 62
    7
 10
253.27697
 20
260.71333
 11
250.73586
 21
258.06877
  0
LINE
  8
1-1
  6
CONTINUOUS
 62
    7
 10
217.68429
 20
265.72525
 11
250.73586
 21
265.72525
  0
LINE
  8
1-1
  6
CONTINUOUS
 62
    7
 10
217.6777
 20
265.72525
 11
255.75562
 21
265.72525
  0
LINE
  8
1-1
  6
CONTINUOUS
 62
    7
 10
216.73612
 20
265.72525
 11
216.73612
 21
258.0586
  0
LINE
  8
1-1
  6
CONTINUOUS
 62
    7
 10
179.75631
 20
265.72525
 11
216.73612
 21
265.72525
  0
LINE
  8
1-1
  6
CONTINUOUS
 62
    7
 10
179.75631
 20
265.72525
 11
179.75631
 21
258.0586
  0
LINE
  8
1-1
  6
CONTINUOUS
 62
    7
 10
179.75631
 20
258.0586
 11
216.73612
 21
258.0586
  0
LINE
  8
1-1
  6
CONTINUOUS
 62
    7
 10
178.80815
 20
265.72525
 11
178.80815
 21
258.0586
  0
LINE
  8
1-1
  6
CONTINUOUS
 62
    7
 10
141.82834
 20
265.72525
 11
141.82834
 21
258.0586
  0
LINE
  8
1-1
  6
CONTINUOUS
 62
    7
 10
140.88018
 20
265.72525
 11
140.88018
 21
258.0586
  0
LINE
  8
1-1
  6
CONTINUOUS
 62
    7
 10
103.90037
 20
265.72525
 11
140.88018
 21
265.72525
  0
LINE
  8
1-1
  6
CONTINUOUS
 62
    7
 10
103.90037
 20
265.72525
 11
103.90037
 21
258.0586
  0
LINE
  8
1-1
  6
CONTINUOUS
 62
    7
 10
103.90037
 20
258.0586
 11
140.88018
 21
258.0586
  0
LINE
  8
1-1
  6
CONTINUOUS
 62
    7
 10
102.95213
 20
265.72525
 11
102.95213
 21
258.0586
  0
LINE
  8
1-1
  6
CONTINUOUS
 62
    7
 10
65.972417
 20
265.72525
 11
102.95213
 21
265.72525
  0
LINE
  8
1-1
  6
CONTINUOUS
 62
    7
 10
81.018478
 20
258.1018
 11
84.329618
 21
265.72418
  0
LINE
  8
1-1
  6
CONTINUOUS
 62
    7
 10
65.972417
 20
265.72525
 11
65.972417
 21
258.0586
  0
LINE
  8
1-1
  6
CONTINUOUS
 62
    7
 10
65.972417
 20
258.0586
 11
102.95213
 21
258.0586
  0
LINE
  8
1-1
  6
CONTINUOUS
 62
    7
 10
66.323447
 20
258.06199
 11
69.559119
 21
265.74927
  0
LINE
  8
1-1
  6
CONTINUOUS
 62
    7
 10
66.125842
 20
258.08544
 11
69.355303
 21
265.75803
  0
LINE
  8
1-1
  6
CONTINUOUS
 62
    7
 10
69.968125
 20
265.75531
 11
73.228552
 21
258.08463
  0
LINE
  8
1-1
  6
CONTINUOUS
 62
    7
 10
69.787691
 20
265.6908
 11
73.026246
 21
258.07156
  0
LINE
  8
1-1
  6
CONTINUOUS
 62
    7
 10
73.413526
 20
258.05375
 11
76.723838
 21
265.75694
  0
LINE
  8
1-1
  6
CONTINUOUS
 62
    7
 10
73.637484
 20
258.09039
 11
76.907822
 21
265.7008
  0
LINE
  8
1-1
  6
CONTINUOUS
 62
    7
 10
77.138126
 20
265.74514
 11
80.392455
 21
258.08891
  0
LINE
  8
1-1
  6
CONTINUOUS
 62
    7
 10
77.356059
 20
265.72129
 11
80.615992
 21
258.05199
  0
LINE
  8
1-1
  6
CONTINUOUS
 62
    7
 10
84.36744
 20
265.72567
 11
84.36744
 21
258.0676
  0
LINE
  8
1-1
  6
CONTINUOUS
 62
    7
 10
84.557115
 20
265.72567
 11
84.557115
 21
258.0676
  0
LINE
  8
1-1
  6
CONTINUOUS
 62
    7
 10
99.522584
 20
265.74754
 11
102.82307
 21
258.02309
  0
LINE
  8
1-1
  6
CONTINUOUS
 62
    7
 10
84.782891
 20
265.67685
 11
88.024575
 21
258.05399
  0
LINE
  8
1-1
  6
CONTINUOUS
 62
    7
 10
84.576279
 20
265.67395
 11
87.792687
 21
258.11039
  0
LINE
  8
1-1
  6
CONTINUOUS
 62
    7
 10
88.457694
 20
258.07092
 11
91.722588
 21
265.74836
  0
LINE
  8
1-1
  6
CONTINUOUS
 62
    7
 10
88.257528
 20
258.08891
 11
91.519861
 21
265.76033
  0
LINE
  8
1-1
  6
CONTINUOUS
 62
    7
 10
92.194852
 20
265.69642
 11
95.432738
 21
258.07181
  0
LINE
  8
1-1
  6
CONTINUOUS
 62
    7
 10
91.971562
 20
265.73302
 11
95.217787
 21
258.08866
  0
LINE
  8
1-1
  6
CONTINUOUS
 62
    7
 10
95.578158
 20
258.07042
 11
98.88195
 21
265.698
  0
LINE
  8
1-1
  6
CONTINUOUS
 62
    7
 10
95.812855
 20
258.13095
 11
99.102592
 21
265.72624
  0
LINE
  8
1-1
  6
CONTINUOUS
 62
    7
 10
99.349673
 20
265.66537
 11
102.59572
 21
258.06844
  0
LINE
  8
1-1
  6
CONTINUOUS
 62
    7
 10
80.787344
 20
258.04994
 11
84.130268
 21
265.74556
  0
LINE
  8
1-1
  6
CONTINUOUS
 62
    7
 10
103.42622
 20
266.22525
 11
103.42622
 21
257.55859
  0
LINE
  8
1-1
  6
CONTINUOUS
 62
    7
 10
141.35427
 20
266.22525
 11
141.35427
 21
257.55859
  0
LINE
  8
1-1
  6
CONTINUOUS
 62
    7
 10
141.82834
 20
265.72525
 11
141.82834
 21
258.0586
  0
LINE
  8
1-1
  6
CONTINUOUS
 62
    7
 10
140.88018
 20
265.72525
 11
140.88018
 21
258.0586
  0
LINE
  8
1-1
  6
CONTINUOUS
 62
    7
 10
103.90037
 20
265.72525
 11
140.88018
 21
265.72525
  0
LINE
  8
1-1
  6
CONTINUOUS
 62
    7
 10
118.94644
 20
258.1018
 11
122.25766
 21
265.72418
  0
LINE
  8
1-1
  6
CONTINUOUS
 62
    7
 10
103.90037
 20
265.72525
 11
103.90037
 21
258.0586
  0
LINE
  8
1-1
  6
CONTINUOUS
 62
    7
 10
103.90037
 20
258.0586
 11
140.88018
 21
258.0586
  0
LINE
  8
1-1
  6
CONTINUOUS
 62
    7
 10
104.25141
 20
258.06199
 11
107.48709
 21
265.74927
  0
LINE
  8
1-1
  6
CONTINUOUS
 62
    7
 10
104.05381
 20
258.08544
 11
107.28327
 21
265.75803
  0
LINE
  8
1-1
  6
CONTINUOUS
 62
    7
 10
107.89608
 20
265.75531
 11
111.15652
 21
258.08463
  0
LINE
  8
1-1
  6
CONTINUOUS
 62
    7
 10
107.71565
 20
265.6908
 11
110.95421
 21
258.07156
  0
LINE
  8
1-1
  6
CONTINUOUS
 62
    7
 10
111.34158
 20
258.05375
 11
114.65181
 21
265.75694
  0
LINE
  8
1-1
  6
CONTINUOUS
 62
    7
 10
111.56554
 20
258.09039
 11
114.83588
 21
265.7008
  0
LINE
  8
1-1
  6
CONTINUOUS
 62
    7
 10
115.06618
 20
265.74514
 11
118.32051
 21
258.08891
  0
LINE
  8
1-1
  6
CONTINUOUS
 62
    7
 10
115.28411
 20
265.72129
 11
118.54396
 21
258.05199
  0
LINE
  8
1-1
  6
CONTINUOUS
 62
    7
 10
122.29549
 20
265.72567
 11
122.29549
 21
258.0676
  0
LINE
  8
1-1
  6
CONTINUOUS
 62
    7
 10
122.48508
 20
265.72567
 11
122.48508
 21
258.0676
  0
LINE
  8
1-1
  6
CONTINUOUS
 62
    7
 10
137.45055
 20
265.74754
 11
140.75111
 21
258.02309
  0
LINE
  8
1-1
  6
CONTINUOUS
 62
    7
 10
122.71085
 20
265.67685
 11
125.95253
 21
258.05399
  0
LINE
  8
1-1
  6
CONTINUOUS
 62
    7
 10
122.50423
 20
265.67395
 11
125.72074
 21
258.11039
  0
LINE
  8
1-1
  6
CONTINUOUS
 62
    7
 10
126.38566
 20
258.07092
 11
129.65064
 21
265.74836
  0
LINE
  8
1-1
  6
CONTINUOUS
 62
    7
 10
126.18557
 20
258.08891
 11
129.44782
 21
265.76033
  0
LINE
  8
1-1
  6
CONTINUOUS
 62
    7
 10
130.12291
 20
265.69642
 11
133.36071
 21
258.07181
  0
LINE
  8
1-1
  6
CONTINUOUS
 62
    7
 10
129.89953
 20
265.73302
 11
133.14575
 21
258.08866
  0
LINE
  8
1-1
  6
CONTINUOUS
 62
    7
 10
133.5062
 20
258.07042
 11
136.80992
 21
265.698
  0
LINE
  8
1-1
  6
CONTINUOUS
 62
    7
 10
133.7409
 20
258.13095
 11
137.03056
 21
265.72624
  0
LINE
  8
1-1
  6
CONTINUOUS
 62
    7
 10
137.27773
 20
265.66537
 11
140.52369
 21
258.06844
  0
LINE
  8
1-1
  6
CONTINUOUS
 62
    7
 10
118.71531
 20
258.04994
 11
122.05832
 21
265.74556
  0
LINE
  8
1-1
  6
CONTINUOUS
 62
    7
 10
141.35427
 20
266.22525
 11
141.35427
 21
257.55859
  0
LINE
  8
1-1
  6
CONTINUOUS
 62
    7
 10
179.28232
 20
266.22525
 11
179.28232
 21
257.55859
  0
LINE
  8
1-1
  6
CONTINUOUS
 62
    7
 10
179.75631
 20
265.72525
 11
179.75631
 21
258.0586
  0
LINE
  8
1-1
  6
CONTINUOUS
 62
    7
 10
178.80815
 20
265.72525
 11
178.80815
 21
258.0586
  0
LINE
  8
1-1
  6
CONTINUOUS
 62
    7
 10
156.87449
 20
258.1018
 11
160.18563
 21
265.72418
  0
LINE
  8
1-1
  6
CONTINUOUS
 62
    7
 10
141.82834
 20
265.72525
 11
141.82834
 21
258.0586
  0
LINE
  8
1-1
  6
CONTINUOUS
 62
    7
 10
149.26955
 20
258.05375
 11
152.57978
 21
265.75694
  0
LINE
  8
1-1
  6
CONTINUOUS
 62
    7
 10
149.49351
 20
258.09039
 11
152.76385
 21
265.7008
  0
LINE
  8
1-1
  6
CONTINUOUS
 62
    7
 10
152.99415
 20
265.74514
 11
156.24847
 21
258.08891
  0
LINE
  8
1-1
  6
CONTINUOUS
 62
    7
 10
153.21207
 20
265.72129
 11
156.47202
 21
258.05199
  0
LINE
  8
1-1
  6
CONTINUOUS
 62
    7
 10
160.22345
 20
265.72567
 11
160.22345
 21
258.0676
  0
LINE
  8
1-1
  6
CONTINUOUS
 62
    7
 10
160.41305
 20
265.72567
 11
160.41305
 21
258.0676
  0
LINE
  8
1-1
  6
CONTINUOUS
 62
    7
 10
175.37868
 20
265.74754
 11
178.67917
 21
258.02309
  0
LINE
  8
1-1
  6
CONTINUOUS
 62
    7
 10
160.63883
 20
265.67685
 11
163.88051
 21
258.05399
  0
LINE
  8
1-1
  6
CONTINUOUS
 62
    7
 10
160.43222
 20
265.67395
 11
163.64871
 21
258.11039
  0
LINE
  8
1-1
  6
CONTINUOUS
 62
    7
 10
164.31372
 20
258.07092
 11
167.57861
 21
265.74836
  0
LINE
  8
1-1
  6
CONTINUOUS
 62
    7
 10
164.11354
 20
258.08891
 11
167.37587
 21
265.76033
  0
LINE
  8
1-1
  6
CONTINUOUS
 62
    7
 10
168.05088
 20
265.69642
 11
171.28875
 21
258.07181
  0
LINE
  8
1-1
  6
CONTINUOUS
 62
    7
 10
167.82749
 20
265.73302
 11
171.07373
 21
258.08866
  0
LINE
  8
1-1
  6
CONTINUOUS
 62
    7
 10
171.4341
 20
258.07042
 11
174.73788
 21
265.698
  0
LINE
  8
1-1
  6
CONTINUOUS
 62
    7
 10
171.66878
 20
258.13095
 11
174.9587
 21
265.72624
  0
LINE
  8
1-1
  6
CONTINUOUS
 62
    7
 10
175.20577
 20
265.66537
 11
178.45175
 21
258.06844
  0
LINE
  8
1-1
  6
CONTINUOUS
 62
    7
 10
156.64336
 20
258.04994
 11
159.98629
 21
265.74556
  0
LINE
  8
1-1
  6
CONTINUOUS
 62
    7
 10
179.28232
 20
266.22525
 11
179.28232
 21
257.55859
  0
LINE
  8
1-1
  6
CONTINUOUS
 62
    7
 10
217.21029
 20
266.22525
 11
217.21029
 21
257.55859
  0
LINE
  8
1-1
  6
CONTINUOUS
 62
    7
 10
216.73612
 20
265.72525
 11
216.73612
 21
258.0586
  0
LINE
  8
1-1
  6
CONTINUOUS
 62
    7
 10
179.75631
 20
265.72525
 11
216.73612
 21
265.72525
  0
LINE
  8
1-1
  6
CONTINUOUS
 62
    7
 10
194.80239
 20
258.1018
 11
198.11363
 21
265.72418
  0
LINE
  8
1-1
  6
CONTINUOUS
 62
    7
 10
179.75631
 20
265.72525
 11
179.75631
 21
258.0586
  0
LINE
  8
1-1
  6
CONTINUOUS
 62
    7
 10
179.75631
 20
258.0586
 11
216.73612
 21
258.0586
  0
LINE
  8
1-1
  6
CONTINUOUS
 62
    7
 10
180.10744
 20
258.06199
 11
183.34303
 21
265.74927
  0
LINE
  8
1-1
  6
CONTINUOUS
 62
    7
 10
179.90975
 20
258.08544
 11
183.13923
 21
265.75803
  0
LINE
  8
1-1
  6
CONTINUOUS
 62
    7
 10
183.75211
 20
265.75531
 11
187.01246
 21
258.08463
  0
LINE
  8
1-1
  6
CONTINUOUS
 62
    7
 10
183.57159
 20
265.6908
 11
186.81014
 21
258.07156
  0
LINE
  8
1-1
  6
CONTINUOUS
 62
    7
 10
187.19744
 20
258.05375
 11
190.50782
 21
265.75694
  0
LINE
  8
1-1
  6
CONTINUOUS
 62
    7
 10
187.42156
 20
258.09039
 11
190.69182
 21
265.7008
  0
LINE
  8
1-1
  6
CONTINUOUS
 62
    7
 10
190.92221
 20
265.74514
 11
194.17646
 21
258.08891
  0
LINE
  8
1-1
  6
CONTINUOUS
 62
    7
 10
191.14003
 20
265.72129
 11
194.40008
 21
258.05199
  0
LINE
  8
1-1
  6
CONTINUOUS
 62
    7
 10
198.15144
 20
265.72567
 11
198.15144
 21
258.0676
  0
LINE
  8
1-1
  6
CONTINUOUS
 62
    7
 10
198.34102
 20
265.72567
 11
198.34102
 21
258.0676
  0
LINE
  8
1-1
  6
CONTINUOUS
 62
    7
 10
213.30648
 20
265.74754
 11
216.60713
 21
258.02309
  0
LINE
  8
1-1
  6
CONTINUOUS
 62
    7
 10
198.56679
 20
265.67685
 11
201.8085
 21
258.05399
  0
LINE
  8
1-1
  6
CONTINUOUS
 62
    7
 10
198.36018
 20
265.67395
 11
201.5766
 21
258.11039
  0
LINE
  8
1-1
  6
CONTINUOUS
 62
    7
 10
202.24167
 20
258.07092
 11
205.50649
 21
265.74836
  0
LINE
  8
1-1
  6
CONTINUOUS
 62
    7
 10
202.04151
 20
258.08891
 11
205.30383
 21
265.76033
  0
LINE
  8
1-1
  6
CONTINUOUS
 62
    7
 10
205.97885
 20
265.69642
 11
209.21675
 21
258.07181
  0
LINE
  8
1-1
  6
CONTINUOUS
 62
    7
 10
205.75556
 20
265.73302
 11
209.0017
 21
258.08866
  0
LINE
  8
1-1
  6
CONTINUOUS
 62
    7
 10
209.36224
 20
258.07042
 11
212.66586
 21
265.698
  0
LINE
  8
1-1
  6
CONTINUOUS
 62
    7
 10
209.59691
 20
258.13095
 11
212.88668
 21
265.72624
  0
LINE
  8
1-1
  6
CONTINUOUS
 62
    7
 10
213.13374
 20
265.66537
 11
216.37973
 21
258.06844
  0
LINE
  8
1-1
  6
CONTINUOUS
 62
    7
 10
194.57133
 20
258.04994
 11
197.91427
 21
265.74556
  0
LINE
  8
1-1
  6
CONTINUOUS
 62
    7
 10
247.68542
 20
265.73341
 11
250.56939
 21
258.03234
  0
LINE
  8
1-1
  6
CONTINUOUS
 62
    7
 10
247.47718
 20
265.74507
 11
250.36114
 21
258.044
  0
LINE
  8
1-1
  6
CONTINUOUS
 62
    7
 10
244.08899
 20
258.10551
 11
247.074
 21
265.75083
  0
LINE
  8
1-1
  6
CONTINUOUS
 62
    7
 10
237.42575
 20
257.97736
 11
240.45224
 21
265.72896
  0
LINE
  8
1-1
  6
CONTINUOUS
 62
    7
 10
240.89206
 20
265.66992
 11
243.75588
 21
258.02277
  0
LINE
  8
1-1
  6
CONTINUOUS
 62
    7
 10
234.34708
 20
265.65918
 11
237.12566
 21
258.07827
  0
LINE
  8
1-1
  6
CONTINUOUS
 62
    7
 10
237.67678
 20
258.09519
 11
240.66185
 21
265.74051
  0
LINE
  8
1-1
  6
CONTINUOUS
 62
    7
 10
241.07208
 20
265.73341
 11
243.93587
 21
258.08626
  0
LINE
  8
1-1
  6
CONTINUOUS
 62
    7
 10
217.68429
 20
258.0586
 11
250.73586
 21
258.0586
  0
LINE
  8
1-1
  6
CONTINUOUS
 62
    7
 10
244.28998
 20
258.09519
 11
247.27502
 21
265.74044
  0
LINE
  8
1-1
  6
CONTINUOUS
 62
    7
 10
234.52395
 20
265.73136
 11
237.341
 21
258.04566
  0
LINE
  8
1-1
  6
CONTINUOUS
 62
    7
 10
224.19591
 20
258.03905
 11
227.20307
 21
265.67635
  0
LINE
  8
1-1
  6
CONTINUOUS
 62
    7
 10
217.68429
 20
265.72525
 11
217.68429
 21
258.0586
  0
LINE
  8
1-1
  6
CONTINUOUS
 62
    7
 10
217.68429
 20
258.0586
 11
255.75562
 21
258.0586
  0
LINE
  8
1-1
  6
CONTINUOUS
 62
    7
 10
217.68429
 20
265.72525
 11
217.68429
 21
258.09361
  0
LINE
  8
1-1
  6
CONTINUOUS
 62
    7
 10
217.99279
 20
258.09198
 11
220.86057
 21
265.74945
  0
LINE
  8
1-1
  6
CONTINUOUS
 62
    7
 10
221.01631
 20
265.70122
 11
223.91348
 21
258.09527
  0
LINE
  8
1-1
  6
CONTINUOUS
 62
    7
 10
221.21186
 20
265.72443
 11
224.13084
 21
258.0611
  0
LINE
  8
1-1
  6
CONTINUOUS
 62
    7
 10
224.4385
 20
258.13335
 11
227.43544
 21
265.74482
  0
LINE
  8
1-1
  6
CONTINUOUS
 62
    7
 10
227.64322
 20
265.7226
 11
230.47697
 21
258.05662
  0
LINE
  8
1-1
  6
CONTINUOUS
 62
    7
 10
230.7285
 20
257.99832
 11
233.89635
 21
265.72864
  0
LINE
  8
1-1
  6
CONTINUOUS
 62
    7
 10
227.86302
 20
265.67858
 11
230.64558
 21
258.15119
  0
LINE
  8
1-1
  6
CONTINUOUS
 62
    7
 10
230.965
 20
258.07156
 11
234.09207
 21
265.70172
  0
LINE
  8
1-1
  6
CONTINUOUS
 62
    7
 10
234.11518
 20
265.62036
 11
234.11518
 21
258.09361
  0
LINE
  8
1-1
  6
CONTINUOUS
 62
    7
 10
234.30497
 20
265.62036
 11
234.30497
 21
258.15094
  0
LINE
  8
1-1
  6
CONTINUOUS
 62
    7
 10
217.80568
 20
258.13664
 11
220.6401
 21
265.70525
  0
LINE
  8
1-1
  6
CONTINUOUS
 62
    7
 10
38.948636
 20
267.2252
 11
40.212905
 21
267.2252
  0
LINE
  8
1-1
  6
CONTINUOUS
 62
    7
 10
38.948636
 20
256.55857
 11
40.212905
 21
256.55857
  0
LINE
  8
1-1
  6
CONTINUOUS
 62
    7
 10
40.213573
 20
267.22577
 11
65.496021
 21
266.22772
  0
LINE
  8
1-1
  6
CONTINUOUS
 62
    7
 10
65.497011
 20
257.55555
 11
40.209119
 21
256.55528
  0
LINE
  8
1-1
  6
CONTINUOUS
 62
    7
 10
43.689706
 20
266.58819
 11
43.689706
 21
266.00641
  0
LINE
  8
1-1
  6
CONTINUOUS
 62
    7
 10
43.689706
 20
266.00641
 11
64.969333
 21
258.05224
  0
LINE
  8
1-1
  6
CONTINUOUS
 62
    7
 10
43.689706
 20
257.82375
 11
64.972896
 21
265.75539
  0
LINE
  8
1-1
  6
CONTINUOUS
 62
    7
 10
43.689706
 20
257.82375
 11
43.689706
 21
257.19335
  0
LINE
  8
1-1
  6
CONTINUOUS
 62
    7
 10
38.948636
 20
266.72528
 11
40.347512
 21
266.72528
  0
LINE
  8
1-1
  6
CONTINUOUS
 62
    7
 10
40.347512
 20
266.72528
 11
63.718376
 21
257.98941
  0
LINE
  8
1-1
  6
CONTINUOUS
 62
    7
 10
38.948636
 20
257.05859
 11
40.213474
 21
257.05859
  0
LINE
  8
1-1
  6
CONTINUOUS
 62
    7
 10
38.948636
 20
267.35855
 11
38.948636
 21
266.59191
  0
LINE
  8
1-1
  6
CONTINUOUS
 62
    7
 10
38.948636
 20
267.35855
 11
40.212905
 21
267.35855
  0
LINE
  8
1-1
  6
CONTINUOUS
 62
    7
 10
40.212905
 20
267.35855
 11
40.212905
 21
266.59191
  0
LINE
  8
1-1
  6
CONTINUOUS
 62
    7
 10
38.948636
 20
266.59191
 11
40.212905
 21
266.59191
  0
LINE
  8
1-1
  6
CONTINUOUS
 62
    7
 10
38.948636
 20
257.19186
 11
40.212905
 21
257.19186
  0
LINE
  8
1-1
  6
CONTINUOUS
 62
    7
 10
38.948636
 20
257.19186
 11
38.948636
 21
256.42522
  0
LINE
  8
1-1
  6
CONTINUOUS
 62
    7
 10
40.212905
 20
257.19186
 11
40.212905
 21
256.42522
  0
LINE
  8
1-1
  6
CONTINUOUS
 62
    7
 10
38.948636
 20
256.42522
 11
40.212905
 21
256.42522
  0
LINE
  8
1-1
  6
CONTINUOUS
 62
    7
 10
40.213474
 20
257.05859
 11
63.658075
 21
265.79569
  0
LINE
  8
1-1
  6
CONTINUOUS
 62
    7
 10
48.910043
 20
259.74767
 11
48.910043
 21
257.44217
  0
LINE
  8
1-1
  6
CONTINUOUS
 62
    7
 10
48.720356
 20
259.67334
 11
48.720356
 21
257.40491
  0
LINE
  8
1-1
  6
CONTINUOUS
 62
    7
 10
49.249679
 20
259.91464
 11
53.09675
 21
257.57866
  0
LINE
  8
1-1
  6
CONTINUOUS
 62
    7
 10
49.525649
 20
259.97781
 11
53.493866
 21
257.56827
  0
LINE
  8
1-1
  6
CONTINUOUS
 62
    7
 10
48.720356
 20
266.36688
 11
48.720356
 21
264.11736
  0
LINE
  8
1-1
  6
CONTINUOUS
 62
    7
 10
48.910043
 20
266.36688
 11
48.910043
 21
264.11736
  0
LINE
  8
1-1
  6
CONTINUOUS
 62
    7
 10
49.283455
 20
264.00299
 11
53.003019
 21
266.23591
  0
LINE
  8
1-1
  6
CONTINUOUS
 62
    7
 10
54.035512
 20
266.14374
 11
54.035512
 21
257.62805
  0
LINE
  8
1-1
  6
CONTINUOUS
 62
    7
 10
53.845899
 20
266.18098
 11
53.845899
 21
257.55372
  0
LINE
  8
1-1
  6
CONTINUOUS
 62
    7
 10
55.141122
 20
266.13342
 11
59.008755
 21
264.06525
  0
LINE
  8
1-1
  6
CONTINUOUS
 62
    7
 10
54.634192
 20
266.18024
 11
58.740877
 21
263.98426
  0
LINE
  8
1-1
  6
CONTINUOUS
 62
    7
 10
49.410292
 20
263.84899
 11
53.363143
 21
266.22196
  0
LINE
  8
1-1
  6
CONTINUOUS
 62
    7
 10
59.387635
 20
265.95787
 11
59.387635
 21
264.24726
  0
LINE
  8
1-1
  6
CONTINUOUS
 62
    7
 10
59.577223
 20
265.88346
 11
59.577223
 21
264.28443
  0
LINE
  8
1-1
  6
CONTINUOUS
 62
    7
 10
59.577223
 20
263.7267
 11
59.577223
 21
260.08236
  0
LINE
  8
1-1
  6
CONTINUOUS
 62
    7
 10
59.577223
 20
259.52453
 11
59.577223
 21
257.814
  0
LINE
  8
1-1
  6
CONTINUOUS
 62
    7
 10
59.387635
 20
263.6523
 11
59.387635
 21
260.15676
  0
LINE
  8
1-1
  6
CONTINUOUS
 62
    7
 10
59.387635
 20
259.6361
 11
59.387635
 21
257.85117
  0
LINE
  8
1-1
  6
CONTINUOUS
 62
    7
 10
43.689706
 20
266.58819
 11
65.024166
 21
265.74606
  0
LINE
  8
1-1
  6
CONTINUOUS
 62
    7
 10
65.024166
 20
258.03722
 11
43.689706
 21
257.19335
  0
LINE
  8
1-1
  6
CONTINUOUS
 62
    7
 10
65.024166
 20
265.74606
 11
65.024166
 21
258.03722
  0
LINE
  8
1-1
  6
CONTINUOUS
 62
    7
 10
38.114194
 20
255.9025
 11
41.048781
 21
255.9025
  0
LINE
  8
1-1
  6
CONTINUOUS
 62
    7
 10
41.048781
 20
255.9025
 11
41.048781
 21
255.63584
  0
LINE
  8
1-1
  6
CENTER2
 62
    2
 10
39.582106
 20
272.26278
 11
39.582106
 21
254.68216
  0
LINE
  8
1-1
  6
CONTINUOUS
 62
    7
 10
45.580889
 20
266.15918
 11
45.580889
 21
265.40692
  0
LINE
  8
1-1
  6
CONTINUOUS
 62
    7
 10
38.183626
 20
266.15918
 11
41.756632
 21
266.15918
  0
LINE
  8
1-1
  6
CONTINUOUS
 62
    7
 10
43.70292
 20
266.15918
 11
45.580889
 21
266.15918
  0
LINE
  8
1-1
  6
CONTINUOUS
 62
    7
 10
38.183626
 20
257.62582
 11
41.7283
 21
257.62582
  0
LINE
  8
1-1
  6
CONTINUOUS
 62
    7
 10
43.699208
 20
257.62582
 11
45.580889
 21
257.62582
  0
LINE
  8
1-1
  6
CONTINUOUS
 62
    7
 10
45.580889
 20
264.6329
 11
45.580889
 21
259.09282
  0
LINE
  8
1-1
  6
CONTINUOUS
 62
    7
 10
45.580889
 20
258.52403
 11
45.580889
 21
257.62582
  0
LINE
  8
1-1
  6
CONTINUOUS
 62
    7
 10
47.987563
 20
264.8258
 11
48.674035
 21
264.8258
  0
LINE
  8
1-1
  6
CONTINUOUS
 62
    7
 10
48.965866
 20
264.8258
 11
50.187525
 21
264.8258
  0
LINE
  8
1-1
  6
CONTINUOUS
 62
    7
 10
50.187525
 20
266.05919
 11
48.929368
 21
266.05919
  0
LINE
  8
1-1
  6
CONTINUOUS
 62
    7
 10
48.674035
 20
266.05919
 11
47.987563
 21
266.05919
  0
LINE
  8
1-1
  6
CONTINUOUS
 62
    7
 10
47.987563
 20
258.9592
 11
48.637538
 21
258.9592
  0
LINE
  8
1-1
  6
CONTINUOUS
 62
    7
 10
48.929368
 20
258.9592
 11
50.187525
 21
258.9592
  0
LINE
  8
1-1
  6
CONTINUOUS
 62
    7
 10
50.187525
 20
257.72581
 11
49.002289
 21
257.72581
  0
LINE
  8
1-1
  6
CONTINUOUS
 62
    7
 10
48.60104
 20
257.72581
 11
47.987563
 21
257.72581
  0
LINE
  8
1-1
  6
CONTINUOUS
 62
    7
 10
51.845199
 20
257.52838
 11
51.859229
 21
257.55347
  0
LINE
  8
1-1
  6
CONTINUOUS
 62
    7
 10
51.458723
 20
257.51005
 11
51.341808
 21
257.57545
  0
LINE
  8
1-1
  6
CONTINUOUS
 62
    7
 10
51.61513
 20
257.51425
 11
51.371203
 21
257.65059
  0
LINE
  8
1-1
  6
CONTINUOUS
 62
    7
 10
51.937841
 20
257.52465
 11
51.371129
 21
257.84167
  0
LINE
  8
1-1
  6
CONTINUOUS
 62
    7
 10
57.449117
 20
258.11773
 11
56.980491
 21
258.58636
  0
LINE
  8
1-1
  6
CONTINUOUS
 62
    7
 10
56.76017
 20
258.80676
 11
55.081588
 21
260.48524
  0
LINE
  8
1-1
  6
CONTINUOUS
 62
    7
 10
48.571471
 20
260.21835
 11
47.587552
 21
260.69269
  0
LINE
  8
1-1
  6
CONTINUOUS
 62
    7
 10
52.70525
 20
258.22549
 11
51.206136
 21
258.94822
  0
LINE
  8
1-1
  6
CONTINUOUS
 62
    7
 10
49.355385
 20
259.84039
 11
49.286498
 21
259.87359
  0
LINE
  8
1-1
  6
CONTINUOUS
 62
    7
 10
61.754149
 20
267.88889
 11
61.754149
 21
266.46729
  0
LINE
  8
1-1
  6
CONTINUOUS
 62
    7
 10
61.754149
 20
265.82237
 11
61.754149
 21
265.2154
  0
LINE
  8
1-1
  6
CONTINUOUS
 62
    7
 10
61.754149
 20
264.41877
 11
61.754149
 21
259.44931
  0
LINE
  8
1-1
  6
CONTINUOUS
 62
    7
 10
61.754149
 20
258.65267
 11
61.754149
 21
258.04573
  0
LINE
  8
1-1
  6
CONTINUOUS
 62
    7
 10
61.754149
 20
257.36289
 11
61.754149
 21
255.91785
  0
LINE
  8
1-1
  6
CONTINUOUS
 62
    7
 10
56.954139
 20
257.55916
 11
59.062771
 21
259.72496
  0
LINE
  8
1-1
  6
CONTINUOUS
 62
    7
 10
59.420841
 20
260.15048
 11
59.420841
 21
263.15615
  0
LINE
  8
1-1
  6
CONTINUOUS
 62
    7
 10
55.052687
 20
257.60237
 11
59.014793
 21
259.721
  0
LINE
  8
1-1
  6
CONTINUOUS
 62
    7
 10
54.644189
 20
257.60813
 11
58.775716
 21
259.81745
  0
LINE
  8
1-1
  6
CONTINUOUS
 62
    4
 10
52.924061
 20
20.161773
 11
18.059197
 21
20.161773
  0
LINE
  8
1-1
  6
CONTINUOUS
 62
    4
 10
52.924061
 20
23.415097
 11
18.059197
 21
23.415097
  0
LINE
  8
1-1
  6
CENTER2
 62
    2
 10
33.949312
 20
191.32838
 11
29.613251
 21
191.32838
  0
LINE
  8
1-0
  6
CENTER1
 62
    2
 10
55.088121
 20
273.24324
 11
55.088121
 21
248.1081
  0
LINE
  8
0-0
  6
CONTINUOUS
 62
    7
 10
20.332062
 20
278.78378
 11
20.332062
 21
283.78378
  0
LINE
  8
0-0
  6
CONTINUOUS
 62
    7
 10
5.3320621
 20
278.78378
 11
20.332062
 21
278.78378
  0
LINE
  8
1-1
  6
CONTINUOUS
 62
    4
 10
35.491629
 20
23.415112
 11
35.491629
 21
62.615048
  0
LINE
  8
1-1
  6
CONTINUOUS
 62
    4
 10
52.315953
 20
23.415112
 11
35.491629
 21
23.415112
  0
LINE
  8
1-1
  6
CONTINUOUS
 62
    4
 10
52.315953
 20
62.615048
 11
35.491629
 21
62.615048
  0
LINE
  8
1-0
  6
CONTINUOUS
 62
    7
 10
51.701214
 20
62.415043
 11
51.701214
 21
23.615093
  0
LINE
  8
1-0
  6
CONTINUOUS
 62
    7
 10
52.387859
 20
62.415043
 11
52.387859
 21
23.615093
  0
LINE
  8
1-0
  6
CONTINUOUS
 62
    7
 10
53.054536
 20
62.415043
 11
53.054536
 21
23.615093
  0
LINE
  8
1-0
  6
CONTINUOUS
 62
    7
 10
53.054536
 20
101.42479
 11
53.054536
 21
62.815103
  0
LINE
  8
1-0
  6
CONTINUOUS
 62
    7
 10
52.387859
 20
101.42479
 11
52.387859
 21
62.815103
  0
LINE
  8
1-0
  6
CONTINUOUS
 62
    7
 10
51.701214
 20
101.51855
 11
51.701214
 21
62.815041
  0
LINE
  8
1-1
  6
CONTINUOUS
 62
    4
 10
55.089209
 20
261.89188
 11
32.556077
 21
239.35875
  0
LINE
  8
1-1
  6
CONTINUOUS
 62
    4
 10
32.556074
 20
239.35875
 11
35.154143
 21
240.85876
  0
LINE
  8
1-1
  6
CONTINUOUS
 62
    4
 10
32.556074
 20
239.35875
 11
34.056054
 21
241.95682
  0
LINE
  8
1-1
  6
CONTINUOUS
 62
    7
 10
81.589445
 20
163.35895
 11
82.610938
 21
160.51384
  0
LINE
  8
1-0
  6
CONTINUOUS
 62
    7
 10
83.085318
 20
164.58491
 11
81.950534
 21
158.18266
  0
LINE
  8
1-1
  6
CONTINUOUS
 62
    7
 10
79.707096
 20
162.68312
 11
80.922669
 21
159.29745
  0
LINE
  8
1-1
  6
CONTINUOUS
 62
    7
 10
79.787514
 20
162.85365
 11
81.418897
 21
163.43937
  0
LINE
  8
1-1
  6
CONTINUOUS
 62
    7
 10
79.205127
 20
162.50288
 11
80.420713
 21
159.11721
  0
LINE
  8
1-1
  6
CONTINUOUS
 62
    7
 10
76.569831
 20
161.55672
 11
77.407118
 21
159.22472
  0
LINE
  8
1-1
  6
CONTINUOUS
 62
    7
 10
76.650274
 20
161.72726
 11
79.034579
 21
162.58332
  0
LINE
  8
1-1
  6
CONTINUOUS
 62
    7
 10
75.842606
 20
162.00394
 11
76.986297
 21
158.81848
  0
LINE
  8
1-1
  6
CONTINUOUS
 62
    7
 10
81.866132
 20
164.16662
 11
83.216461
 21
160.40561
  0
LINE
  8
1-1
  6
CONTINUOUS
 62
    7
 10
79.230836
 20
163.22043
 11
79.230836
 21
158.30595
  0
LINE
  8
1-1
  6
CONTINUOUS
 62
    7
 10
79.330839
 20
163.22043
 11
79.330839
 21
158.39664
  0
LINE
  8
1-1
  6
CONTINUOUS
 62
    7
 10
79.130834
 20
163.22043
 11
79.130834
 21
158.39664
  0
LINE
  8
2-0
  6
CONTINUOUS
 62
    7
 10
329.05727
 20
209.86761
 11
332.2999
 21
206.62499
  0
LINE
  8
2-0
  6
CENTER1
 62
    2
 10
332.63053
 20
248.72081
 11
371.46348
 21
209.8878
  0
LINE
  8
2-0
  6
CONTINUOUS
 62
    7
 10
371.86636
 20
251.91137
 11
374.7263
 21
249.05139
  0
LINE
  8
2-0
  6
CONTINUOUS
 62
    7
 10
332.29997
 20
252.29404
 11
329.05727
 21
249.05139
  0
LINE
  8
2-0
  6
CONTINUOUS
 62
    7
 10
371.48256
 20
252.29523
 11
374.7263
 21
249.05139
  0
LINE
  8
2-0
  6
CONTINUOUS
 62
    7
 10
371.48367
 20
206.62499
 11
374.7263
 21
209.86761
  0
LINE
  8
2-0
  6
CENTER1
 62
    2
 10
340.98543
 20
229.45945
 11
364.66794
 21
229.45945
  0
LINE
  8
2-0
  6
CENTER1
 62
    2
 10
328.19465
 20
212.85159
 11
335.37468
 21
205.67155
  0
LINE
  8
2-0
  6
CENTER1
 62
    2
 10
330.15682
 20
207.72459
 11
332.7276
 21
210.29531
  0
LINE
  8
2-0
  6
CENTER1
 62
    2
 10
333.10687
 20
210.67461
 11
371.07589
 21
248.64356
  0
LINE
  8
2-0
  6
CENTER1
 62
    2
 10
327.32843
 20
210.55302
 11
329.89921
 21
213.12375
  0
LINE
  8
2-0
  6
CENTER1
 62
    2
 10
332.98518
 20
204.89614
 11
335.55598
 21
207.46688
  0
LINE
  8
2-0
  6
CONTINUOUS
 62
    7
 10
327.10769
 20
212.17081
 11
328.87543
 21
213.93854
  0
LINE
  8
2-0
  6
CONTINUOUS
 62
    7
 10
328.87543
 20
213.93854
 11
336.37078
 21
206.44319
  0
LINE
  8
2-0
  6
CONTINUOUS
 62
    7
 10
334.60304
 20
204.67546
 11
336.37078
 21
206.44319
  0
LINE
  8
2-0
  6
CONTINUOUS
 62
    7
 10
327.10769
 20
212.17081
 11
334.60304
 21
204.67546
  0
LINE
  8
2-0
  6
CONTINUOUS
 62
    7
 10
329.19475
 20
211.07576
 11
329.97042
 21
211.85149
  0
LINE
  8
2-0
  6
CONTINUOUS
 62
    7
 10
329.97042
 20
211.85149
 11
329.68651
 21
212.91105
  0
LINE
  8
2-0
  6
CONTINUOUS
 62
    7
 10
329.68651
 20
212.91105
 11
328.62695
 21
213.19499
  0
LINE
  8
2-0
  6
CONTINUOUS
 62
    7
 10
328.62695
 20
213.19499
 11
327.8513
 21
212.41929
  0
LINE
  8
2-0
  6
CONTINUOUS
 62
    7
 10
327.8513
 20
212.41929
 11
328.13519
 21
211.35972
  0
LINE
  8
2-0
  6
CONTINUOUS
 62
    7
 10
328.13519
 20
211.35972
 11
329.19475
 21
211.07576
  0
LINE
  8
2-0
  6
CONTINUOUS
 62
    7
 10
333.50802
 20
206.76247
 11
334.28372
 21
207.53808
  0
LINE
  8
2-0
  6
CONTINUOUS
 62
    7
 10
334.28372
 20
207.53808
 11
335.34328
 21
207.25418
  0
LINE
  8
2-0
  6
CONTINUOUS
 62
    7
 10
335.34328
 20
207.25418
 11
335.62717
 21
206.19462
  0
LINE
  8
2-0
  6
CONTINUOUS
 62
    7
 10
335.62717
 20
206.19462
 11
334.85147
 21
205.41895
  0
LINE
  8
2-0
  6
CONTINUOUS
 62
    7
 10
334.85147
 20
205.41895
 11
333.79191
 21
205.70292
  0
LINE
  8
2-0
  6
CONTINUOUS
 62
    7
 10
333.79191
 20
205.70292
 11
333.50802
 21
206.76247
  0
LINE
  8
2-0
  6
CENTER1
 62
    2
 10
368.49975
 20
253.15664
 11
375.67978
 21
245.97661
  0
LINE
  8
2-0
  6
CENTER1
 62
    2
 10
373.62675
 20
251.19447
 11
371.05602
 21
248.62369
  0
LINE
  8
2-0
  6
CENTER1
 62
    2
 10
370.79832
 20
254.02285
 11
368.22759
 21
251.45208
  0
LINE
  8
2-0
  6
CENTER1
 62
    2
 10
376.45519
 20
248.36608
 11
373.88446
 21
245.79531
  0
LINE
  8
2-0
  6
CONTINUOUS
 62
    7
 10
369.18053
 20
254.24359
 11
367.41279
 21
252.47586
  0
LINE
  8
2-0
  6
CONTINUOUS
 62
    7
 10
367.41279
 20
252.47586
 11
374.90814
 21
244.98051
  0
LINE
  8
2-0
  6
CONTINUOUS
 62
    7
 10
376.67588
 20
246.74825
 11
374.90814
 21
244.98051
  0
LINE
  8
2-0
  6
CONTINUOUS
 62
    7
 10
369.18053
 20
254.24359
 11
376.67588
 21
246.74825
  0
LINE
  8
2-0
  6
CONTINUOUS
 62
    7
 10
370.27555
 20
252.15651
 11
369.49985
 21
251.38089
  0
LINE
  8
2-0
  6
CONTINUOUS
 62
    7
 10
369.49985
 20
251.38089
 11
368.44029
 21
251.66478
  0
LINE
  8
2-0
  6
CONTINUOUS
 62
    7
 10
368.44029
 20
251.66478
 11
368.15635
 21
252.72434
  0
LINE
  8
2-0
  6
CONTINUOUS
 62
    7
 10
368.15635
 20
252.72434
 11
368.93205
 21
253.49999
  0
LINE
  8
2-0
  6
CONTINUOUS
 62
    7
 10
368.93205
 20
253.49999
 11
369.99161
 21
253.2161
  0
LINE
  8
2-0
  6
CONTINUOUS
 62
    7
 10
369.99161
 20
253.2161
 11
370.27555
 21
252.15651
  0
LINE
  8
2-0
  6
CONTINUOUS
 62
    7
 10
374.58887
 20
247.84329
 11
373.81325
 21
247.06757
  0
LINE
  8
2-0
  6
CONTINUOUS
 62
    7
 10
373.81325
 20
247.06757
 11
374.09716
 21
246.00801
  0
LINE
  8
2-0
  6
CONTINUOUS
 62
    7
 10
374.09716
 20
246.00801
 11
375.15672
 21
245.72412
  0
LINE
  8
2-0
  6
CONTINUOUS
 62
    7
 10
375.15672
 20
245.72412
 11
375.93237
 21
246.49982
  0
LINE
  8
2-0
  6
CONTINUOUS
 62
    7
 10
375.93237
 20
246.49982
 11
375.64843
 21
247.55938
  0
LINE
  8
2-0
  6
CONTINUOUS
 62
    7
 10
375.64843
 20
247.55938
 11
374.58887
 21
247.84329
  0
LINE
  8
2-0
  6
CENTER1
 62
    2
 10
328.19465
 20
246.06732
 11
335.37468
 21
253.24735
  0
LINE
  8
2-0
  6
CENTER1
 62
    2
 10
330.15682
 20
251.19432
 11
332.7276
 21
248.62359
  0
LINE
  8
2-0
  6
CENTER1
 62
    2
 10
327.32843
 20
248.36588
 11
329.89921
 21
245.79516
  0
LINE
  8
2-0
  6
CENTER1
 62
    2
 10
332.98518
 20
254.02275
 11
335.55598
 21
251.45203
  0
LINE
  8
2-0
  6
CONTINUOUS
 62
    7
 10
327.10769
 20
246.7481
 11
328.87543
 21
244.98036
  0
LINE
  8
2-0
  6
CONTINUOUS
 62
    7
 10
328.87543
 20
244.98036
 11
336.37078
 21
252.47571
  0
LINE
  8
2-0
  6
CONTINUOUS
 62
    7
 10
334.60304
 20
254.24345
 11
336.37078
 21
252.47571
  0
LINE
  8
2-0
  6
CONTINUOUS
 62
    7
 10
327.10769
 20
246.7481
 11
334.60304
 21
254.24345
  0
LINE
  8
2-0
  6
CONTINUOUS
 62
    7
 10
329.19475
 20
247.84314
 11
329.97042
 21
247.06742
  0
LINE
  8
2-0
  6
CONTINUOUS
 62
    7
 10
329.97042
 20
247.06742
 11
329.68651
 21
246.00786
  0
LINE
  8
2-0
  6
CONTINUOUS
 62
    7
 10
329.68651
 20
246.00786
 11
328.62695
 21
245.72392
  0
LINE
  8
2-0
  6
CONTINUOUS
 62
    7
 10
328.62695
 20
245.72392
 11
327.8513
 21
246.49962
  0
LINE
  8
2-0
  6
CONTINUOUS
 62
    7
 10
327.8513
 20
246.49962
 11
328.13519
 21
247.55918
  0
LINE
  8
2-0
  6
CONTINUOUS
 62
    7
 10
328.13519
 20
247.55918
 11
329.19475
 21
247.84314
  0
LINE
  8
2-0
  6
CONTINUOUS
 62
    7
 10
333.50802
 20
252.15644
 11
334.28372
 21
251.38084
  0
LINE
  8
2-0
  6
CONTINUOUS
 62
    7
 10
334.28372
 20
251.38084
 11
335.34328
 21
251.66473
  0
LINE
  8
2-0
  6
CONTINUOUS
 62
    7
 10
335.34328
 20
251.66473
 11
335.62717
 21
252.72429
  0
LINE
  8
2-0
  6
CONTINUOUS
 62
    7
 10
335.62717
 20
252.72429
 11
334.85147
 21
253.49996
  0
LINE
  8
2-0
  6
CONTINUOUS
 62
    7
 10
334.85147
 20
253.49996
 11
333.79191
 21
253.216
  0
LINE
  8
2-0
  6
CONTINUOUS
 62
    7
 10
333.79191
 20
253.216
 11
333.50802
 21
252.15644
  0
LINE
  8
2-0
  6
CENTER1
 62
    2
 10
375.58892
 20
212.85159
 11
368.40889
 21
205.67155
  0
LINE
  8
2-0
  6
CENTER1
 62
    2
 10
373.62675
 20
207.72459
 11
371.05597
 21
210.29531
  0
LINE
  8
2-0
  6
CENTER1
 62
    2
 10
376.45514
 20
210.55302
 11
373.88436
 21
213.12375
  0
LINE
  8
2-0
  6
CENTER1
 62
    2
 10
370.79839
 20
204.89614
 11
368.22759
 21
207.46688
  0
LINE
  8
2-0
  6
CONTINUOUS
 62
    7
 10
376.67588
 20
212.17081
 11
374.90814
 21
213.93854
  0
LINE
  8
2-0
  6
CONTINUOUS
 62
    7
 10
374.90814
 20
213.93854
 11
367.41279
 21
206.44319
  0
LINE
  8
2-0
  6
CONTINUOUS
 62
    7
 10
369.18053
 20
204.67546
 11
367.41279
 21
206.44319
  0
LINE
  8
2-0
  6
CONTINUOUS
 62
    7
 10
376.67588
 20
212.17081
 11
369.18053
 21
204.67546
  0
LINE
  8
2-0
  6
CONTINUOUS
 62
    7
 10
374.58882
 20
211.07576
 11
373.81315
 21
211.85149
  0
LINE
  8
2-0
  6
CONTINUOUS
 62
    7
 10
373.81315
 20
211.85149
 11
374.09706
 21
212.91105
  0
LINE
  8
2-0
  6
CONTINUOUS
 62
    7
 10
374.09706
 20
212.91105
 11
375.15662
 21
213.19499
  0
LINE
  8
2-0
  6
CONTINUOUS
 62
    7
 10
375.15662
 20
213.19499
 11
375.93227
 21
212.41929
  0
LINE
  8
2-0
  6
CONTINUOUS
 62
    7
 10
375.93227
 20
212.41929
 11
375.64838
 21
211.35972
  0
LINE
  8
2-0
  6
CONTINUOUS
 62
    7
 10
375.64838
 20
211.35972
 11
374.58882
 21
211.07576
  0
LINE
  8
2-0
  6
CONTINUOUS
 62
    7
 10
370.27555
 20
206.76247
 11
369.49985
 21
207.53808
  0
LINE
  8
2-0
  6
CONTINUOUS
 62
    7
 10
369.49985
 20
207.53808
 11
368.44029
 21
207.25418
  0
LINE
  8
2-0
  6
CONTINUOUS
 62
    7
 10
368.44029
 20
207.25418
 11
368.1564
 21
206.19462
  0
LINE
  8
2-0
  6
CONTINUOUS
 62
    7
 10
368.1564
 20
206.19462
 11
368.9321
 21
205.41895
  0
LINE
  8
2-0
  6
CONTINUOUS
 62
    7
 10
368.9321
 20
205.41895
 11
369.99166
 21
205.70292
  0
LINE
  8
2-0
  6
CONTINUOUS
 62
    7
 10
369.99166
 20
205.70292
 11
370.27555
 21
206.76247
  0
LINE
  8
2-0
  6
CONTINUOUS
 62
    7
 10
347.43045
 20
229.67819
 11
344.65561
 21
232.45308
  0
LINE
  8
2-0
  6
CONTINUOUS
 62
    7
 10
351.99039
 20
233.6036
 11
348.89826
 21
236.69573
  0
LINE
  8
2-0
  6
CONTINUOUS
 62
    7
 10
358.46893
 20
227.12501
 11
355.95631
 21
229.63761
  0
LINE
  8
2-0
  6
CONTINUOUS
 62
    7
 10
354.33627
 20
222.77234
 11
351.87226
 21
225.23637
  0
LINE
  8
2-0
  6
CONTINUOUS
 62
    7
 10
349.25841
 20
222.5835
 11
358.7191
 21
232.04421
  0
LINE
  8
2-0
  6
CONTINUOUS
 62
    7
 10
354.58643
 20
236.39682
 11
344.74072
 21
226.55109
  0
LINE
  8
2-0
  6
CONTINUOUS
 62
    7
 10
369.00284
 20
250.81321
 11
359.75686
 21
241.56723
  0
LINE
  8
2-0
  6
CONTINUOUS
 62
    7
 10
363.99946
 20
237.32457
 11
373.19848
 21
246.5236
  0
LINE
  8
2-0
  6
CONTINUOUS
 62
    7
 10
374.7263
 20
249.05139
 11
374.7263
 21
248.75709
  0
LINE
  8
2-0
  6
CONTINUOUS
 62
    7
 10
371.48256
 20
252.29523
 11
371.15305
 21
252.29518
  0
LINE
  8
2-0
  6
CONTINUOUS
 62
    7
 10
339.92522
 20
237.18341
 11
330.53026
 21
246.57843
  0
LINE
  8
2-0
  6
CONTINUOUS
 62
    7
 10
344.11292
 20
241.48112
 11
334.81814
 21
250.77585
  0
LINE
  8
2-0
  6
CONTINUOUS
 62
    7
 10
332.57312
 20
252.29407
 11
332.29997
 21
252.29404
  0
LINE
  8
2-0
  6
CONTINUOUS
 62
    7
 10
329.05727
 20
249.05139
 11
329.05727
 21
248.80232
  0
LINE
  8
2-0
  6
CONTINUOUS
 62
    7
 10
329.05727
 20
210.17978
 11
329.05727
 21
209.86761
  0
LINE
  8
2-0
  6
CONTINUOUS
 62
    7
 10
332.60947
 20
206.62499
 11
332.2999
 21
206.62499
  0
LINE
  8
2-0
  6
CONTINUOUS
 62
    7
 10
334.78795
 20
208.11302
 11
343.92306
 21
217.24812
  0
LINE
  8
2-0
  6
CONTINUOUS
 62
    7
 10
339.68041
 20
221.49078
 11
330.56393
 21
212.3743
  0
LINE
  8
2-0
  6
CENTER1
 62
    2
 10
371.48367
 20
206.62499
 11
371.14065
 21
206.62499
  0
LINE
  8
2-0
  6
CONTINUOUS
 62
    7
 10
374.7263
 20
210.1203
 11
374.7263
 21
209.86761
  0
LINE
  8
2-0
  6
CONTINUOUS
 62
    7
 10
368.8937
 20
208.21494
 11
359.89166
 21
217.21697
  0
LINE
  8
2-0
  6
CONTINUOUS
 62
    7
 10
373.11193
 20
212.48201
 11
364.13432
 21
221.45962
  0
LINE
  8
2-0
  6
CONTINUOUS
 62
    7
 10
371.48367
 20
206.62499
 11
371.13392
 21
206.62499
  0
LINE
  8
2-1
  6
CONTINUOUS
 62
    7
 10
329.05722
 20
175.29274
 11
329.05722
 21
175.68201
  0
LINE
  8
2-1
  6
CONTINUOUS
 62
    7
 10
332.28238
 20
185.06671
 11
332.28238
 21
184.67699
  0
LINE
  8
2-1
  6
CONTINUOUS
 62
    7
 10
333.27946
 20
185.04934
 11
333.27946
 21
184.66741
  0
LINE
  8
2-1
  6
CONTINUOUS
 62
    7
 10
329.05722
 20
184.67276
 11
374.72627
 21
184.67276
  0
LINE
  8
2-1
  6
CONTINUOUS
 62
    7
 10
330.80828
 20
184.66741
 11
330.80828
 21
175.78185
  0
LINE
  8
2-1
  6
CONTINUOUS
 62
    7
 10
330.56829
 20
184.66741
 11
330.56829
 21
175.78185
  0
LINE
  8
2-1
  6
CONTINUOUS
 62
    7
 10
329.05722
 20
185.05268
 11
329.05722
 21
175.67689
  0
LINE
  8
2-1
  6
CONTINUOUS
 62
    7
 10
342.89168
 20
180.43278
 11
342.89168
 21
180.05271
  0
LINE
  8
2-1
  6
CONTINUOUS
 62
    7
 10
342.89168
 20
180.43278
 11
360.89174
 21
180.43278
  0
LINE
  8
2-1
  6
CONTINUOUS
 62
    7
 10
360.89174
 20
180.43278
 11
360.89174
 21
180.05271
  0
LINE
  8
2-1
  6
CONTINUOUS
 62
    7
 10
342.89168
 20
180.05271
 11
360.89174
 21
180.05271
  0
LINE
  8
2-1
  6
CONTINUOUS
 62
    7
 10
359.89176
 20
184.64641
 11
359.89176
 21
180.49788
  0
LINE
  8
2-1
  6
CONTINUOUS
 62
    7
 10
343.89173
 20
184.64641
 11
343.89173
 21
180.44792
  0
LINE
  8
2-1
  6
CONTINUOUS
 62
    7
 10
331.65445
 20
175.74533
 11
331.65445
 21
184.64091
  0
LINE
  8
2-1
  6
CONTINUOUS
 62
    7
 10
333.77578
 20
184.67276
 11
333.77578
 21
175.69054
  0
LINE
  8
2-1
  6
CONTINUOUS
 62
    7
 10
327.10782
 20
186.75266
 11
336.37085
 21
186.75266
  0
LINE
  8
2-1
  6
CONTINUOUS
 62
    7
 10
327.10782
 20
185.29274
 11
336.37085
 21
185.29274
  0
LINE
  8
2-1
  6
CONTINUOUS
 62
    7
 10
327.10782
 20
186.99266
 11
336.37085
 21
186.99266
  0
LINE
  8
2-1
  6
CONTINUOUS
 62
    7
 10
336.37085
 20
186.99266
 11
336.37085
 21
186.75266
  0
LINE
  8
2-1
  6
CONTINUOUS
 62
    7
 10
336.37085
 20
185.29274
 11
336.37085
 21
185.05446
  0
LINE
  8
2-1
  6
CONTINUOUS
 62
    7
 10
334.60316
 20
186.99266
 11
334.60316
 21
186.75266
  0
LINE
  8
2-1
  6
CONTINUOUS
 62
    7
 10
334.60316
 20
185.29274
 11
334.60316
 21
185.06559
  0
LINE
  8
2-1
  6
CONTINUOUS
 62
    7
 10
334.66314
 20
186.75266
 11
334.66314
 21
185.29274
  0
LINE
  8
2-1
  6
CONTINUOUS
 62
    7
 10
336.31087
 20
186.75266
 11
336.31087
 21
185.29274
  0
LINE
  8
2-1
  6
CONTINUOUS
 62
    7
 10
334.7831
 20
186.75266
 11
334.7831
 21
185.29274
  0
LINE
  8
2-1
  6
CONTINUOUS
 62
    7
 10
336.19091
 20
186.75266
 11
336.19091
 21
185.29274
  0
LINE
  8
2-1
  6
CONTINUOUS
 62
    7
 10
327.1678
 20
186.75266
 11
327.1678
 21
185.29274
  0
LINE
  8
2-1
  6
CONTINUOUS
 62
    7
 10
327.10782
 20
186.99266
 11
327.10782
 21
186.75266
  0
LINE
  8
2-1
  6
CONTINUOUS
 62
    7
 10
327.10782
 20
185.29274
 11
327.10782
 21
185.05268
  0
LINE
  8
2-1
  6
CONTINUOUS
 62
    7
 10
333.36772
 20
187.17267
 11
333.36772
 21
186.99266
  0
LINE
  8
2-1
  6
CONTINUOUS
 62
    7
 10
333.36772
 20
187.17267
 11
335.76772
 21
187.17267
  0
LINE
  8
2-1
  6
CONTINUOUS
 62
    7
 10
335.76772
 20
187.17267
 11
335.76772
 21
186.99266
  0
LINE
  8
2-1
  6
CONTINUOUS
 62
    7
 10
333.47076
 20
188.09262
 11
335.66468
 21
188.09262
  0
LINE
  8
2-1
  6
CONTINUOUS
 62
    7
 10
333.47076
 20
188.09262
 11
333.47076
 21
187.19471
  0
LINE
  8
2-1
  6
CONTINUOUS
 62
    7
 10
333.47076
 20
188.09262
 11
333.59072
 21
188.21266
  0
LINE
  8
2-1
  6
CONTINUOUS
 62
    7
 10
335.66468
 20
188.09262
 11
335.54457
 21
188.21266
  0
LINE
  8
2-1
  6
CONTINUOUS
 62
    7
 10
335.66468
 20
188.09262
 11
335.66468
 21
187.16443
  0
LINE
  8
2-1
  6
CONTINUOUS
 62
    7
 10
334.01918
 20
188.09262
 11
334.01918
 21
187.17957
  0
LINE
  8
2-1
  6
CONTINUOUS
 62
    7
 10
335.11626
 20
188.09262
 11
335.11626
 21
187.16443
  0
LINE
  8
2-1
  6
CONTINUOUS
 62
    7
 10
333.47076
 20
189.13261
 11
335.66468
 21
189.13261
  0
LINE
  8
2-1
  6
CONTINUOUS
 62
    7
 10
333.47076
 20
189.13261
 11
333.59072
 21
189.25265
  0
LINE
  8
2-1
  6
CONTINUOUS
 62
    7
 10
335.66468
 20
189.13261
 11
335.54457
 21
189.25265
  0
LINE
  8
2-1
  6
CONTINUOUS
 62
    7
 10
333.59072
 20
189.25265
 11
335.54457
 21
189.25265
  0
LINE
  8
2-1
  6
CONTINUOUS
 62
    7
 10
334.01918
 20
189.13261
 11
334.01918
 21
188.21956
  0
LINE
  8
2-1
  6
CONTINUOUS
 62
    7
 10
335.11626
 20
189.13261
 11
335.11626
 21
188.20442
  0
LINE
  8
2-1
  6
CONTINUOUS
 62
    7
 10
333.47076
 20
189.13261
 11
333.47076
 21
188.21266
  0
LINE
  8
2-1
  6
CONTINUOUS
 62
    7
 10
333.47076
 20
188.21266
 11
335.66468
 21
188.21266
  0
LINE
  8
2-1
  6
CONTINUOUS
 62
    7
 10
335.66468
 20
189.13261
 11
335.66468
 21
188.21266
  0
LINE
  8
2-1
  6
CONTINUOUS
 62
    7
 10
333.92773
 20
190.19272
 11
333.92773
 21
189.25265
  0
LINE
  8
2-1
  6
CONTINUOUS
 62
    7
 10
333.92773
 20
190.19272
 11
334.02772
 21
190.29271
  0
LINE
  8
2-1
  6
CONTINUOUS
 62
    7
 10
335.10772
 20
190.29271
 11
334.02772
 21
190.29271
  0
LINE
  8
2-1
  6
CONTINUOUS
 62
    7
 10
335.20771
 20
190.19272
 11
335.20771
 21
189.25265
  0
LINE
  8
2-1
  6
CONTINUOUS
 62
    7
 10
335.10772
 20
190.29271
 11
335.20771
 21
190.19272
  0
LINE
  8
2-1
  6
CONTINUOUS
 62
    7
 10
334.02772
 20
190.29271
 11
334.02772
 21
189.25265
  0
LINE
  8
2-1
  6
CONTINUOUS
 62
    7
 10
335.10772
 20
190.29271
 11
335.10772
 21
189.25265
  0
LINE
  8
2-1
  6
CONTINUOUS
 62
    7
 10
333.92773
 20
184.1927
 11
334.02772
 21
184.29269
  0
LINE
  8
2-1
  6
CONTINUOUS
 62
    7
 10
335.10772
 20
184.29269
 11
334.02772
 21
184.29269
  0
LINE
  8
2-1
  6
CONTINUOUS
 62
    7
 10
335.10772
 20
184.29269
 11
335.20771
 21
184.1927
  0
LINE
  8
2-1
  6
CONTINUOUS
 62
    7
 10
334.02772
 20
184.29269
 11
334.02772
 21
184.67216
  0
LINE
  8
2-1
  6
CONTINUOUS
 62
    7
 10
335.10772
 20
184.29269
 11
335.10772
 21
184.67899
  0
LINE
  8
2-1
  6
CONTINUOUS
 62
    7
 10
329.05722
 20
175.67273
 11
333.92773
 21
175.67273
  0
LINE
  8
2-1
  6
CONTINUOUS
 62
    7
 10
333.47076
 20
159.13281
 11
335.66468
 21
159.13281
  0
LINE
  8
2-1
  6
CONTINUOUS
 62
    7
 10
333.47076
 20
159.13281
 11
333.59072
 21
159.01278
  0
LINE
  8
2-1
  6
CONTINUOUS
 62
    7
 10
335.66468
 20
159.13281
 11
335.54457
 21
159.01278
  0
LINE
  8
2-1
  6
CONTINUOUS
 62
    7
 10
334.01918
 20
159.13281
 11
334.01918
 21
160.04586
  0
LINE
  8
2-1
  6
CONTINUOUS
 62
    7
 10
333.47076
 20
157.45279
 11
335.66468
 21
157.45279
  0
LINE
  8
2-1
  6
CONTINUOUS
 62
    7
 10
333.47076
 20
157.45279
 11
333.59072
 21
157.33284
  0
LINE
  8
2-1
  6
CONTINUOUS
 62
    7
 10
335.66468
 20
157.45279
 11
335.54457
 21
157.33284
  0
LINE
  8
2-1
  6
CONTINUOUS
 62
    7
 10
333.59072
 20
157.33284
 11
335.54457
 21
157.33284
  0
LINE
  8
2-1
  6
CONTINUOUS
 62
    7
 10
334.01918
 20
157.45279
 11
334.01918
 21
158.36585
  0
LINE
  8
2-1
  6
CONTINUOUS
 62
    7
 10
335.11626
 20
157.45279
 11
335.11626
 21
158.38099
  0
LINE
  8
2-1
  6
CONTINUOUS
 62
    7
 10
333.47076
 20
157.45279
 11
333.47076
 21
158.37283
  0
LINE
  8
2-1
  6
CONTINUOUS
 62
    7
 10
335.66468
 20
157.45279
 11
335.66468
 21
158.37283
  0
LINE
  8
2-1
  6
CONTINUOUS
 62
    7
 10
333.92773
 20
156.39276
 11
333.92773
 21
157.33284
  0
LINE
  8
2-1
  6
CONTINUOUS
 62
    7
 10
335.20771
 20
156.39276
 11
335.20771
 21
157.33284
  0
LINE
  8
2-1
  6
CONTINUOUS
 62
    7
 10
334.02772
 20
156.2927
 11
334.02772
 21
157.33284
  0
LINE
  8
2-1
  6
CONTINUOUS
 62
    7
 10
335.10772
 20
156.2927
 11
335.10772
 21
157.33284
  0
LINE
  8
2-1
  6
CONTINUOUS
 62
    7
 10
333.92773
 20
156.39276
 11
334.02772
 21
156.2927
  0
LINE
  8
2-1
  6
CONTINUOUS
 62
    7
 10
335.10772
 20
156.2927
 11
334.02772
 21
156.2927
  0
LINE
  8
2-1
  6
CONTINUOUS
 62
    7
 10
335.10772
 20
156.2927
 11
334.02772
 21
156.2927
  0
LINE
  8
2-1
  6
CONTINUOUS
 62
    7
 10
335.10772
 20
156.2927
 11
335.20771
 21
156.39276
  0
LINE
  8
2-1
  6
CONTINUOUS
 62
    7
 10
333.47076
 20
159.13281
 11
333.47076
 21
160.05277
  0
LINE
  8
2-1
  6
CONTINUOUS
 62
    7
 10
333.47076
 20
160.05277
 11
335.66468
 21
160.05277
  0
LINE
  8
2-1
  6
CONTINUOUS
 62
    7
 10
335.66468
 20
159.13281
 11
335.66468
 21
160.05277
  0
LINE
  8
2-1
  6
CONTINUOUS
 62
    7
 10
335.11626
 20
159.13281
 11
335.11626
 21
160.05277
  0
LINE
  8
2-1
  6
CONTINUOUS
 62
    7
 10
330.00776
 20
188.09262
 11
327.81391
 21
188.09262
  0
LINE
  8
2-1
  6
CONTINUOUS
 62
    7
 10
330.00776
 20
188.09262
 11
330.00776
 21
187.19471
  0
LINE
  8
2-1
  6
CONTINUOUS
 62
    7
 10
330.00776
 20
188.09262
 11
329.8878
 21
188.21266
  0
LINE
  8
2-1
  6
CONTINUOUS
 62
    7
 10
327.81391
 20
188.09262
 11
327.93394
 21
188.21266
  0
LINE
  8
2-1
  6
CONTINUOUS
 62
    7
 10
327.81391
 20
188.09262
 11
327.81391
 21
187.16443
  0
LINE
  8
2-1
  6
CONTINUOUS
 62
    7
 10
329.45934
 20
188.09262
 11
329.45934
 21
187.17957
  0
LINE
  8
2-1
  6
CONTINUOUS
 62
    7
 10
328.36234
 20
188.09262
 11
328.36234
 21
187.16443
  0
LINE
  8
2-1
  6
CONTINUOUS
 62
    7
 10
330.00776
 20
189.13261
 11
327.81391
 21
189.13261
  0
LINE
  8
2-1
  6
CONTINUOUS
 62
    7
 10
330.00776
 20
189.13261
 11
329.8878
 21
189.25265
  0
LINE
  8
2-1
  6
CONTINUOUS
 62
    7
 10
327.81391
 20
189.13261
 11
327.93394
 21
189.25265
  0
LINE
  8
2-1
  6
CONTINUOUS
 62
    7
 10
329.8878
 20
189.25265
 11
327.93394
 21
189.25265
  0
LINE
  8
2-1
  6
CONTINUOUS
 62
    7
 10
329.45934
 20
189.13261
 11
329.45934
 21
188.21956
  0
LINE
  8
2-1
  6
CONTINUOUS
 62
    7
 10
328.36234
 20
189.13261
 11
328.36234
 21
188.20442
  0
LINE
  8
2-1
  6
CONTINUOUS
 62
    7
 10
330.00776
 20
189.13261
 11
330.00776
 21
188.21266
  0
LINE
  8
2-1
  6
CONTINUOUS
 62
    7
 10
330.00776
 20
188.21266
 11
327.81391
 21
188.21266
  0
LINE
  8
2-1
  6
CONTINUOUS
 62
    7
 10
327.81391
 20
189.13261
 11
327.81391
 21
188.21266
  0
LINE
  8
2-1
  6
CONTINUOUS
 62
    7
 10
329.55079
 20
190.19272
 11
329.55079
 21
189.25265
  0
LINE
  8
2-1
  6
CONTINUOUS
 62
    7
 10
329.55079
 20
190.19272
 11
329.45087
 21
190.29271
  0
LINE
  8
2-1
  6
CONTINUOUS
 62
    7
 10
328.3708
 20
190.29271
 11
329.45087
 21
190.29271
  0
LINE
  8
2-1
  6
CONTINUOUS
 62
    7
 10
328.27088
 20
190.19272
 11
328.27088
 21
189.25265
  0
LINE
  8
2-1
  6
CONTINUOUS
 62
    7
 10
328.3708
 20
190.29271
 11
328.27088
 21
190.19272
  0
LINE
  8
2-1
  6
CONTINUOUS
 62
    7
 10
329.45087
 20
190.29271
 11
329.45087
 21
189.25265
  0
LINE
  8
2-1
  6
CONTINUOUS
 62
    7
 10
328.3708
 20
190.29271
 11
328.3708
 21
189.25265
  0
LINE
  8
2-1
  6
CONTINUOUS
 62
    7
 10
328.3708
 20
184.29269
 11
328.27088
 21
184.1927
  0
LINE
  8
2-1
  6
CONTINUOUS
 62
    7
 10
330.00776
 20
159.13281
 11
327.81391
 21
159.13281
  0
LINE
  8
2-1
  6
CONTINUOUS
 62
    7
 10
330.00776
 20
159.13281
 11
329.8878
 21
159.01278
  0
LINE
  8
2-1
  6
CONTINUOUS
 62
    7
 10
327.81391
 20
159.13281
 11
327.93394
 21
159.01278
  0
LINE
  8
2-1
  6
CONTINUOUS
 62
    7
 10
329.45934
 20
159.13281
 11
329.45934
 21
160.04586
  0
LINE
  8
2-1
  6
CONTINUOUS
 62
    7
 10
330.00776
 20
157.45279
 11
327.81391
 21
157.45279
  0
LINE
  8
2-1
  6
CONTINUOUS
 62
    7
 10
330.00776
 20
157.45279
 11
329.8878
 21
157.33284
  0
LINE
  8
2-1
  6
CONTINUOUS
 62
    7
 10
327.81391
 20
157.45279
 11
327.93394
 21
157.33284
  0
LINE
  8
2-1
  6
CONTINUOUS
 62
    7
 10
329.8878
 20
157.33284
 11
327.93394
 21
157.33284
  0
LINE
  8
2-1
  6
CONTINUOUS
 62
    7
 10
329.45934
 20
157.45279
 11
329.45934
 21
158.36585
  0
LINE
  8
2-1
  6
CONTINUOUS
 62
    7
 10
328.36234
 20
157.45279
 11
328.36234
 21
158.38099
  0
LINE
  8
2-1
  6
CONTINUOUS
 62
    7
 10
330.00776
 20
157.45279
 11
330.00776
 21
158.37283
  0
LINE
  8
2-1
  6
CONTINUOUS
 62
    7
 10
330.00776
 20
158.37283
 11
327.81391
 21
158.37283
  0
LINE
  8
2-1
  6
CONTINUOUS
 62
    7
 10
327.81391
 20
157.45279
 11
327.81391
 21
158.37283
  0
LINE
  8
2-1
  6
CONTINUOUS
 62
    7
 10
329.55079
 20
156.39276
 11
329.55079
 21
157.33284
  0
LINE
  8
2-1
  6
CONTINUOUS
 62
    7
 10
328.27088
 20
156.39276
 11
328.27088
 21
157.33284
  0
LINE
  8
2-1
  6
CONTINUOUS
 62
    7
 10
329.45087
 20
156.2927
 11
329.45087
 21
157.33284
  0
LINE
  8
2-1
  6
CONTINUOUS
 62
    7
 10
328.3708
 20
156.2927
 11
328.3708
 21
157.33284
  0
LINE
  8
2-1
  6
CONTINUOUS
 62
    7
 10
329.55079
 20
156.39276
 11
329.45087
 21
156.2927
  0
LINE
  8
2-1
  6
CONTINUOUS
 62
    7
 10
328.3708
 20
156.2927
 11
329.45087
 21
156.2927
  0
LINE
  8
2-1
  6
CONTINUOUS
 62
    7
 10
328.3708
 20
156.2927
 11
329.45087
 21
156.2927
  0
LINE
  8
2-1
  6
CONTINUOUS
 62
    7
 10
328.3708
 20
156.2927
 11
328.27088
 21
156.39276
  0
LINE
  8
2-1
  6
CONTINUOUS
 62
    7
 10
330.00776
 20
159.13281
 11
330.00776
 21
160.05277
  0
LINE
  8
2-1
  6
CONTINUOUS
 62
    7
 10
330.00776
 20
160.05277
 11
327.81391
 21
160.05277
  0
LINE
  8
2-1
  6
CONTINUOUS
 62
    7
 10
327.81391
 20
159.13281
 11
327.81391
 21
160.05277
  0
LINE
  8
2-1
  6
CONTINUOUS
 62
    7
 10
328.36234
 20
159.13281
 11
328.36234
 21
160.05277
  0
LINE
  8
2-1
  6
CONTINUOUS
 62
    7
 10
328.3708
 20
184.29269
 11
329.05722
 21
184.29269
  0
LINE
  8
2-1
  6
CONTINUOUS
 62
    7
 10
328.3708
 20
184.29269
 11
328.3708
 21
185.05268
  0
LINE
  8
2-1
  6
CONTINUOUS
 62
    7
 10
330.1108
 20
187.17267
 11
330.1108
 21
186.99266
  0
LINE
  8
2-1
  6
CONTINUOUS
 62
    7
 10
330.1108
 20
187.17267
 11
327.71088
 21
187.17267
  0
LINE
  8
2-1
  6
CONTINUOUS
 62
    7
 10
327.71088
 20
187.17267
 11
327.71088
 21
186.99266
  0
LINE
  8
2-1
  6
CONTINUOUS
 62
    7
 10
325.51688
 20
158.37283
 11
337.96186
 21
158.37283
  0
LINE
  8
2-1
  6
CONTINUOUS
 62
    7
 10
325.51688
 20
159.01278
 11
325.51688
 21
158.37283
  0
LINE
  8
2-1
  6
CONTINUOUS
 62
    7
 10
335.69898
 20
159.01278
 11
335.69898
 21
158.37283
  0
LINE
  8
2-1
  6
CONTINUOUS
 62
    7
 10
325.51688
 20
159.01278
 11
337.96186
 21
159.01278
  0
LINE
  8
2-1
  6
CONTINUOUS
 62
    7
 10
337.96186
 20
159.01278
 11
337.96186
 21
158.37283
  0
LINE
  8
2-1
  6
CONTINUOUS
 62
    7
 10
335.20771
 20
184.67276
 11
335.20771
 21
160.05277
  0
LINE
  8
2-1
  6
CONTINUOUS
 62
    7
 10
335.20771
 20
157.33284
 11
335.20771
 21
156.39276
  0
LINE
  8
2-1
  6
CONTINUOUS
 62
    7
 10
333.92773
 20
184.67276
 11
333.92773
 21
160.05277
  0
LINE
  8
2-1
  6
CONTINUOUS
 62
    7
 10
333.92773
 20
157.33284
 11
333.92773
 21
156.39276
  0
LINE
  8
2-1
  6
CONTINUOUS
 62
    7
 10
328.27088
 20
185.05268
 11
328.27088
 21
160.05277
  0
LINE
  8
2-1
  6
CONTINUOUS
 62
    7
 10
328.27088
 20
157.33284
 11
328.27088
 21
156.39276
  0
LINE
  8
2-1
  6
CONTINUOUS
 62
    7
 10
329.55079
 20
175.29274
 11
329.55079
 21
160.05277
  0
LINE
  8
2-1
  6
CONTINUOUS
 62
    7
 10
329.55079
 20
157.33284
 11
329.55079
 21
156.39276
  0
LINE
  8
2-1
  6
CONTINUOUS
 62
    7
 10
333.92773
 20
162.39278
 11
334.02772
 21
162.29272
  0
LINE
  8
2-1
  6
CONTINUOUS
 62
    7
 10
335.10772
 20
162.29272
 11
334.02772
 21
162.29272
  0
LINE
  8
2-1
  6
CONTINUOUS
 62
    7
 10
335.10772
 20
162.29272
 11
334.02772
 21
162.29272
  0
LINE
  8
2-1
  6
CONTINUOUS
 62
    7
 10
335.10772
 20
162.29272
 11
335.20771
 21
162.39278
  0
LINE
  8
2-1
  6
CONTINUOUS
 62
    7
 10
329.55079
 20
162.39278
 11
329.45087
 21
162.29272
  0
LINE
  8
2-1
  6
CONTINUOUS
 62
    7
 10
328.3708
 20
162.29272
 11
329.45087
 21
162.29272
  0
LINE
  8
2-1
  6
CONTINUOUS
 62
    7
 10
328.3708
 20
162.29272
 11
329.45087
 21
162.29272
  0
LINE
  8
2-1
  6
CONTINUOUS
 62
    7
 10
328.3708
 20
162.29272
 11
328.27088
 21
162.39278
  0
LINE
  8
2-1
  6
CONTINUOUS
 62
    7
 10
328.3708
 20
162.29272
 11
328.3708
 21
160.05997
  0
LINE
  8
2-1
  6
CONTINUOUS
 62
    7
 10
329.45087
 20
162.29272
 11
329.45087
 21
160.07615
  0
LINE
  8
2-1
  6
CONTINUOUS
 62
    7
 10
334.02772
 20
162.29272
 11
334.02772
 21
160.06739
  0
LINE
  8
2-1
  6
CONTINUOUS
 62
    7
 10
335.10772
 20
162.29272
 11
335.10772
 21
160.0472
  0
LINE
  8
2-1
  6
CONTINUOUS
 62
    7
 10
371.50119
 20
175.68201
 11
371.50119
 21
175.38248
  0
LINE
  8
2-1
  6
CONTINUOUS
 62
    7
 10
374.72627
 20
175.29274
 11
374.72627
 21
175.68201
  0
LINE
  8
2-1
  6
CONTINUOUS
 62
    7
 10
370.50411
 20
175.68201
 11
370.50411
 21
175.38248
  0
LINE
  8
2-1
  6
CONTINUOUS
 62
    7
 10
371.50119
 20
185.06671
 11
371.50119
 21
184.67699
  0
LINE
  8
2-1
  6
CONTINUOUS
 62
    7
 10
370.50411
 20
185.04934
 11
370.50411
 21
184.66741
  0
LINE
  8
2-1
  6
CONTINUOUS
 62
    7
 10
372.97529
 20
184.66741
 11
372.97529
 21
175.78185
  0
LINE
  8
2-1
  6
CONTINUOUS
 62
    7
 10
373.21521
 20
184.66741
 11
373.21521
 21
175.78185
  0
LINE
  8
2-1
  6
CONTINUOUS
 62
    7
 10
374.72627
 20
185.05268
 11
374.72627
 21
175.67689
  0
LINE
  8
2-1
  6
CONTINUOUS
 62
    7
 10
372.12905
 20
175.74533
 11
372.12905
 21
184.64091
  0
LINE
  8
2-1
  6
CONTINUOUS
 62
    7
 10
370.00772
 20
184.67276
 11
370.00772
 21
175.69054
  0
LINE
  8
2-1
  6
CONTINUOUS
 62
    7
 10
376.67575
 20
186.75266
 11
367.41265
 21
186.75266
  0
LINE
  8
2-1
  6
CONTINUOUS
 62
    7
 10
376.67575
 20
185.29274
 11
367.41265
 21
185.29274
  0
LINE
  8
2-1
  6
CONTINUOUS
 62
    7
 10
376.67575
 20
186.99266
 11
367.41265
 21
186.99266
  0
LINE
  8
2-1
  6
CONTINUOUS
 62
    7
 10
367.41265
 20
186.99266
 11
367.41265
 21
186.75266
  0
LINE
  8
2-1
  6
CONTINUOUS
 62
    7
 10
367.41265
 20
185.29274
 11
367.41265
 21
185.05446
  0
LINE
  8
2-1
  6
CONTINUOUS
 62
    7
 10
369.18041
 20
186.99266
 11
369.18041
 21
186.75266
  0
LINE
  8
2-1
  6
CONTINUOUS
 62
    7
 10
369.18041
 20
185.29274
 11
369.18041
 21
185.06559
  0
LINE
  8
2-1
  6
CONTINUOUS
 62
    7
 10
369.12043
 20
186.75266
 11
369.12043
 21
185.29274
  0
LINE
  8
2-1
  6
CONTINUOUS
 62
    7
 10
367.47263
 20
186.75266
 11
367.47263
 21
185.29274
  0
LINE
  8
2-1
  6
CONTINUOUS
 62
    7
 10
369.00047
 20
186.75266
 11
369.00047
 21
185.29274
  0
LINE
  8
2-1
  6
CONTINUOUS
 62
    7
 10
367.59258
 20
186.75266
 11
367.59258
 21
185.29274
  0
LINE
  8
2-1
  6
CONTINUOUS
 62
    7
 10
376.67575
 20
186.99266
 11
376.67575
 21
186.75266
  0
LINE
  8
2-1
  6
CONTINUOUS
 62
    7
 10
376.67575
 20
185.29274
 11
376.67575
 21
185.05268
  0
LINE
  8
2-1
  6
CONTINUOUS
 62
    7
 10
370.41577
 20
187.17267
 11
370.41577
 21
186.99266
  0
LINE
  8
2-1
  6
CONTINUOUS
 62
    7
 10
370.41577
 20
187.17267
 11
368.01585
 21
187.17267
  0
LINE
  8
2-1
  6
CONTINUOUS
 62
    7
 10
368.01585
 20
187.17267
 11
368.01585
 21
186.99266
  0
LINE
  8
2-1
  6
CONTINUOUS
 62
    7
 10
370.31274
 20
188.09262
 11
368.11889
 21
188.09262
  0
LINE
  8
2-1
  6
CONTINUOUS
 62
    7
 10
370.31274
 20
188.09262
 11
370.31274
 21
187.19471
  0
LINE
  8
2-1
  6
CONTINUOUS
 62
    7
 10
370.31274
 20
188.09262
 11
370.19278
 21
188.21266
  0
LINE
  8
2-1
  6
CONTINUOUS
 62
    7
 10
368.11889
 20
188.09262
 11
368.23892
 21
188.21266
  0
LINE
  8
2-1
  6
CONTINUOUS
 62
    7
 10
368.11889
 20
188.09262
 11
368.11889
 21
187.16443
  0
LINE
  8
2-1
  6
CONTINUOUS
 62
    7
 10
369.76431
 20
188.09262
 11
369.76431
 21
187.17957
  0
LINE
  8
2-1
  6
CONTINUOUS
 62
    7
 10
368.66731
 20
188.09262
 11
368.66731
 21
187.16443
  0
LINE
  8
2-1
  6
CONTINUOUS
 62
    7
 10
370.31274
 20
189.13261
 11
368.11889
 21
189.13261
  0
LINE
  8
2-1
  6
CONTINUOUS
 62
    7
 10
370.31274
 20
189.13261
 11
370.19278
 21
189.25265
  0
LINE
  8
2-1
  6
CONTINUOUS
 62
    7
 10
368.11889
 20
189.13261
 11
368.23892
 21
189.25265
  0
LINE
  8
2-1
  6
CONTINUOUS
 62
    7
 10
370.19278
 20
189.25265
 11
368.23892
 21
189.25265
  0
LINE
  8
2-1
  6
CONTINUOUS
 62
    7
 10
369.76431
 20
189.13261
 11
369.76431
 21
188.21956
  0
LINE
  8
2-1
  6
CONTINUOUS
 62
    7
 10
368.66731
 20
189.13261
 11
368.66731
 21
188.20442
  0
LINE
  8
2-1
  6
CONTINUOUS
 62
    7
 10
370.31274
 20
189.13261
 11
370.31274
 21
188.21266
  0
LINE
  8
2-1
  6
CONTINUOUS
 62
    7
 10
370.31274
 20
188.21266
 11
368.11889
 21
188.21266
  0
LINE
  8
2-1
  6
CONTINUOUS
 62
    7
 10
368.11889
 20
189.13261
 11
368.11889
 21
188.21266
  0
LINE
  8
2-1
  6
CONTINUOUS
 62
    7
 10
369.85577
 20
190.19272
 11
369.85577
 21
189.25265
  0
LINE
  8
2-1
  6
CONTINUOUS
 62
    7
 10
369.85577
 20
190.19272
 11
369.75585
 21
190.29271
  0
LINE
  8
2-1
  6
CONTINUOUS
 62
    7
 10
368.67578
 20
190.29271
 11
369.75585
 21
190.29271
  0
LINE
  8
2-1
  6
CONTINUOUS
 62
    7
 10
368.57586
 20
190.19272
 11
368.57586
 21
189.25265
  0
LINE
  8
2-1
  6
CONTINUOUS
 62
    7
 10
368.67578
 20
190.29271
 11
368.57586
 21
190.19272
  0
LINE
  8
2-1
  6
CONTINUOUS
 62
    7
 10
369.75585
 20
190.29271
 11
369.75585
 21
189.25265
  0
LINE
  8
2-1
  6
CONTINUOUS
 62
    7
 10
368.67578
 20
190.29271
 11
368.67578
 21
189.25265
  0
LINE
  8
2-1
  6
CONTINUOUS
 62
    7
 10
369.85577
 20
184.1927
 11
369.75585
 21
184.29269
  0
LINE
  8
2-1
  6
CONTINUOUS
 62
    7
 10
368.67578
 20
184.29269
 11
369.75585
 21
184.29269
  0
LINE
  8
2-1
  6
CONTINUOUS
 62
    7
 10
368.67578
 20
184.29269
 11
368.57586
 21
184.1927
  0
LINE
  8
2-1
  6
CONTINUOUS
 62
    7
 10
369.75585
 20
184.29269
 11
369.75585
 21
184.67216
  0
LINE
  8
2-1
  6
CONTINUOUS
 62
    7
 10
368.67578
 20
184.29269
 11
368.67578
 21
184.67899
  0
LINE
  8
2-1
  6
CONTINUOUS
 62
    7
 10
374.72627
 20
175.67273
 11
369.85577
 21
175.67273
  0
LINE
  8
2-1
  6
CONTINUOUS
 62
    7
 10
370.31274
 20
159.13281
 11
368.11889
 21
159.13281
  0
LINE
  8
2-1
  6
CONTINUOUS
 62
    7
 10
370.31274
 20
159.13281
 11
370.19278
 21
159.01278
  0
LINE
  8
2-1
  6
CONTINUOUS
 62
    7
 10
368.11889
 20
159.13281
 11
368.23892
 21
159.01278
  0
LINE
  8
2-1
  6
CONTINUOUS
 62
    7
 10
369.76431
 20
159.13281
 11
369.76431
 21
160.04586
  0
LINE
  8
2-1
  6
CONTINUOUS
 62
    7
 10
370.31274
 20
157.45279
 11
368.11889
 21
157.45279
  0
LINE
  8
2-1
  6
CONTINUOUS
 62
    7
 10
370.31274
 20
157.45279
 11
370.19278
 21
157.33284
  0
LINE
  8
2-1
  6
CONTINUOUS
 62
    7
 10
368.11889
 20
157.45279
 11
368.23892
 21
157.33284
  0
LINE
  8
2-1
  6
CONTINUOUS
 62
    7
 10
370.19278
 20
157.33284
 11
368.23892
 21
157.33284
  0
LINE
  8
2-1
  6
CONTINUOUS
 62
    7
 10
369.76431
 20
157.45279
 11
369.76431
 21
158.36585
  0
LINE
  8
2-1
  6
CONTINUOUS
 62
    7
 10
368.66731
 20
157.45279
 11
368.66731
 21
158.38099
  0
LINE
  8
2-1
  6
CONTINUOUS
 62
    7
 10
370.31274
 20
157.45279
 11
370.31274
 21
158.37283
  0
LINE
  8
2-1
  6
CONTINUOUS
 62
    7
 10
368.11889
 20
157.45279
 11
368.11889
 21
158.37283
  0
LINE
  8
2-1
  6
CONTINUOUS
 62
    7
 10
369.85577
 20
156.39276
 11
369.85577
 21
157.33284
  0
LINE
  8
2-1
  6
CONTINUOUS
 62
    7
 10
368.57586
 20
156.39276
 11
368.57586
 21
157.33284
  0
LINE
  8
2-1
  6
CONTINUOUS
 62
    7
 10
369.75585
 20
156.2927
 11
369.75585
 21
157.33284
  0
LINE
  8
2-1
  6
CONTINUOUS
 62
    7
 10
368.67578
 20
156.2927
 11
368.67578
 21
157.33284
  0
LINE
  8
2-1
  6
CONTINUOUS
 62
    7
 10
369.85577
 20
156.39276
 11
369.75585
 21
156.2927
  0
LINE
  8
2-1
  6
CONTINUOUS
 62
    7
 10
368.67578
 20
156.2927
 11
369.75585
 21
156.2927
  0
LINE
  8
2-1
  6
CONTINUOUS
 62
    7
 10
368.67578
 20
156.2927
 11
369.75585
 21
156.2927
  0
LINE
  8
2-1
  6
CONTINUOUS
 62
    7
 10
368.67578
 20
156.2927
 11
368.57586
 21
156.39276
  0
LINE
  8
2-1
  6
CONTINUOUS
 62
    7
 10
370.31274
 20
159.13281
 11
370.31274
 21
160.05277
  0
LINE
  8
2-1
  6
CONTINUOUS
 62
    7
 10
370.31274
 20
160.05277
 11
368.11889
 21
160.05277
  0
LINE
  8
2-1
  6
CONTINUOUS
 62
    7
 10
368.11889
 20
159.13281
 11
368.11889
 21
160.05277
  0
LINE
  8
2-1
  6
CONTINUOUS
 62
    7
 10
368.66731
 20
159.13281
 11
368.66731
 21
160.05277
  0
LINE
  8
2-1
  6
CONTINUOUS
 62
    7
 10
373.77581
 20
188.09262
 11
375.96966
 21
188.09262
  0
LINE
  8
2-1
  6
CONTINUOUS
 62
    7
 10
373.77581
 20
188.09262
 11
373.77581
 21
187.19471
  0
LINE
  8
2-1
  6
CONTINUOUS
 62
    7
 10
373.77581
 20
188.09262
 11
373.89577
 21
188.21266
  0
LINE
  8
2-1
  6
CONTINUOUS
 62
    7
 10
375.96966
 20
188.09262
 11
375.84955
 21
188.21266
  0
LINE
  8
2-1
  6
CONTINUOUS
 62
    7
 10
375.96966
 20
188.09262
 11
375.96966
 21
187.16443
  0
LINE
  8
2-1
  6
CONTINUOUS
 62
    7
 10
374.32423
 20
188.09262
 11
374.32423
 21
187.17957
  0
LINE
  8
2-1
  6
CONTINUOUS
 62
    7
 10
375.42123
 20
188.09262
 11
375.42123
 21
187.16443
  0
LINE
  8
2-1
  6
CONTINUOUS
 62
    7
 10
373.77581
 20
189.13261
 11
375.96966
 21
189.13261
  0
LINE
  8
2-1
  6
CONTINUOUS
 62
    7
 10
373.77581
 20
189.13261
 11
373.89577
 21
189.25265
  0
LINE
  8
2-1
  6
CONTINUOUS
 62
    7
 10
375.96966
 20
189.13261
 11
375.84955
 21
189.25265
  0
LINE
  8
2-1
  6
CONTINUOUS
 62
    7
 10
373.89577
 20
189.25265
 11
375.84955
 21
189.25265
  0
LINE
  8
2-1
  6
CONTINUOUS
 62
    7
 10
374.32423
 20
189.13261
 11
374.32423
 21
188.21956
  0
LINE
  8
2-1
  6
CONTINUOUS
 62
    7
 10
375.42123
 20
189.13261
 11
375.42123
 21
188.20442
  0
LINE
  8
2-1
  6
CONTINUOUS
 62
    7
 10
373.77581
 20
189.13261
 11
373.77581
 21
188.21266
  0
LINE
  8
2-1
  6
CONTINUOUS
 62
    7
 10
373.77581
 20
188.21266
 11
375.96966
 21
188.21266
  0
LINE
  8
2-1
  6
CONTINUOUS
 62
    7
 10
375.96966
 20
189.13261
 11
375.96966
 21
188.21266
  0
LINE
  8
2-1
  6
CONTINUOUS
 62
    7
 10
374.23278
 20
190.19272
 11
374.23278
 21
189.25265
  0
LINE
  8
2-1
  6
CONTINUOUS
 62
    7
 10
374.23278
 20
190.19272
 11
374.3327
 21
190.29271
  0
LINE
  8
2-1
  6
CONTINUOUS
 62
    7
 10
375.41277
 20
190.29271
 11
374.3327
 21
190.29271
  0
LINE
  8
2-1
  6
CONTINUOUS
 62
    7
 10
375.51269
 20
190.19272
 11
375.51269
 21
189.25265
  0
LINE
  8
2-1
  6
CONTINUOUS
 62
    7
 10
375.41277
 20
190.29271
 11
375.51269
 21
190.19272
  0
LINE
  8
2-1
  6
CONTINUOUS
 62
    7
 10
374.3327
 20
190.29271
 11
374.3327
 21
189.25265
  0
LINE
  8
2-1
  6
CONTINUOUS
 62
    7
 10
375.41277
 20
190.29271
 11
375.41277
 21
189.25265
  0
LINE
  8
2-1
  6
CONTINUOUS
 62
    7
 10
375.41277
 20
184.29269
 11
375.51269
 21
184.1927
  0
LINE
  8
2-1
  6
CONTINUOUS
 62
    7
 10
373.77581
 20
159.13281
 11
375.96966
 21
159.13281
  0
LINE
  8
2-1
  6
CONTINUOUS
 62
    7
 10
373.77581
 20
159.13281
 11
373.89577
 21
159.01278
  0
LINE
  8
2-1
  6
CONTINUOUS
 62
    7
 10
375.96966
 20
159.13281
 11
375.84955
 21
159.01278
  0
LINE
  8
2-1
  6
CONTINUOUS
 62
    7
 10
374.32423
 20
159.13281
 11
374.32423
 21
160.04586
  0
LINE
  8
2-1
  6
CONTINUOUS
 62
    7
 10
373.77581
 20
157.45279
 11
375.96966
 21
157.45279
  0
LINE
  8
2-1
  6
CONTINUOUS
 62
    7
 10
373.77581
 20
157.45279
 11
373.89577
 21
157.33284
  0
LINE
  8
2-1
  6
CONTINUOUS
 62
    7
 10
375.96966
 20
157.45279
 11
375.84955
 21
157.33284
  0
LINE
  8
2-1
  6
CONTINUOUS
 62
    7
 10
373.89577
 20
157.33284
 11
375.84955
 21
157.33284
  0
LINE
  8
2-1
  6
CONTINUOUS
 62
    7
 10
374.32423
 20
157.45279
 11
374.32423
 21
158.36585
  0
LINE
  8
2-1
  6
CONTINUOUS
 62
    7
 10
375.42123
 20
157.45279
 11
375.42123
 21
158.38099
  0
LINE
  8
2-1
  6
CONTINUOUS
 62
    7
 10
373.77581
 20
157.45279
 11
373.77581
 21
158.37283
  0
LINE
  8
2-1
  6
CONTINUOUS
 62
    7
 10
373.77581
 20
158.37283
 11
375.96966
 21
158.37283
  0
LINE
  8
2-1
  6
CONTINUOUS
 62
    7
 10
375.96966
 20
157.45279
 11
375.96966
 21
158.37283
  0
LINE
  8
2-1
  6
CONTINUOUS
 62
    7
 10
374.23278
 20
156.39276
 11
374.23278
 21
157.33284
  0
LINE
  8
2-1
  6
CONTINUOUS
 62
    7
 10
375.51269
 20
156.39276
 11
375.51269
 21
157.33284
  0
LINE
  8
2-1
  6
CONTINUOUS
 62
    7
 10
374.3327
 20
156.2927
 11
374.3327
 21
157.33284
  0
LINE
  8
2-1
  6
CONTINUOUS
 62
    7
 10
375.41277
 20
156.2927
 11
375.41277
 21
157.33284
  0
LINE
  8
2-1
  6
CONTINUOUS
 62
    7
 10
374.23278
 20
156.39276
 11
374.3327
 21
156.2927
  0
LINE
  8
2-1
  6
CONTINUOUS
 62
    7
 10
375.41277
 20
156.2927
 11
374.3327
 21
156.2927
  0
LINE
  8
2-1
  6
CONTINUOUS
 62
    7
 10
375.41277
 20
156.2927
 11
374.3327
 21
156.2927
  0
LINE
  8
2-1
  6
CONTINUOUS
 62
    7
 10
375.41277
 20
156.2927
 11
375.51269
 21
156.39276
  0
LINE
  8
2-1
  6
CONTINUOUS
 62
    7
 10
373.77581
 20
159.13281
 11
373.77581
 21
160.05277
  0
LINE
  8
2-1
  6
CONTINUOUS
 62
    7
 10
373.77581
 20
160.05277
 11
375.96966
 21
160.05277
  0
LINE
  8
2-1
  6
CONTINUOUS
 62
    7
 10
375.96966
 20
159.13281
 11
375.96966
 21
160.05277
  0
LINE
  8
2-1
  6
CONTINUOUS
 62
    7
 10
375.42123
 20
159.13281
 11
375.42123
 21
160.05277
  0
LINE
  8
2-1
  6
CONTINUOUS
 62
    7
 10
375.41277
 20
184.29269
 11
374.72627
 21
184.29269
  0
LINE
  8
2-1
  6
CONTINUOUS
 62
    7
 10
375.41277
 20
184.29269
 11
375.41277
 21
185.05268
  0
LINE
  8
2-1
  6
CONTINUOUS
 62
    7
 10
373.67277
 20
187.17267
 11
373.67277
 21
186.99266
  0
LINE
  8
2-1
  6
CONTINUOUS
 62
    7
 10
373.67277
 20
187.17267
 11
376.07269
 21
187.17267
  0
LINE
  8
2-1
  6
CONTINUOUS
 62
    7
 10
376.07269
 20
187.17267
 11
376.07269
 21
186.99266
  0
LINE
  8
2-1
  6
CONTINUOUS
 62
    7
 10
378.26669
 20
158.37283
 11
365.82163
 21
158.37283
  0
LINE
  8
2-1
  6
CONTINUOUS
 62
    7
 10
378.26669
 20
159.01278
 11
378.26669
 21
158.37283
  0
LINE
  8
2-1
  6
CONTINUOUS
 62
    7
 10
368.08452
 20
159.01278
 11
368.08452
 21
158.37283
  0
LINE
  8
2-1
  6
CONTINUOUS
 62
    7
 10
378.26669
 20
159.01278
 11
365.82163
 21
159.01278
  0
LINE
  8
2-1
  6
CONTINUOUS
 62
    7
 10
365.82163
 20
159.01278
 11
365.82163
 21
158.37283
  0
LINE
  8
2-1
  6
CONTINUOUS
 62
    7
 10
368.57586
 20
157.33284
 11
368.57586
 21
156.39276
  0
LINE
  8
2-1
  6
CONTINUOUS
 62
    7
 10
369.85577
 20
157.33284
 11
369.85577
 21
156.39276
  0
LINE
  8
2-1
  6
CONTINUOUS
 62
    7
 10
375.51269
 20
185.05268
 11
375.51269
 21
160.05277
  0
LINE
  8
2-1
  6
CONTINUOUS
 62
    7
 10
375.51269
 20
157.33284
 11
375.51269
 21
156.39276
  0
LINE
  8
2-1
  6
CONTINUOUS
 62
    7
 10
374.23278
 20
175.29274
 11
374.23278
 21
160.05277
  0
LINE
  8
2-1
  6
CONTINUOUS
 62
    7
 10
374.23278
 20
157.33284
 11
374.23278
 21
156.39276
  0
LINE
  8
2-1
  6
CONTINUOUS
 62
    7
 10
369.85577
 20
162.39278
 11
369.75585
 21
162.29272
  0
LINE
  8
2-1
  6
CONTINUOUS
 62
    7
 10
368.67578
 20
162.29272
 11
369.75585
 21
162.29272
  0
LINE
  8
2-1
  6
CONTINUOUS
 62
    7
 10
368.67578
 20
162.29272
 11
369.75585
 21
162.29272
  0
LINE
  8
2-1
  6
CONTINUOUS
 62
    7
 10
368.67578
 20
162.29272
 11
368.57586
 21
162.39278
  0
LINE
  8
2-1
  6
CONTINUOUS
 62
    7
 10
374.23278
 20
162.39278
 11
374.3327
 21
162.29272
  0
LINE
  8
2-1
  6
CONTINUOUS
 62
    7
 10
375.41277
 20
162.29272
 11
374.3327
 21
162.29272
  0
LINE
  8
2-1
  6
CONTINUOUS
 62
    7
 10
375.41277
 20
162.29272
 11
374.3327
 21
162.29272
  0
LINE
  8
2-1
  6
CONTINUOUS
 62
    7
 10
375.41277
 20
162.29272
 11
375.51269
 21
162.39278
  0
LINE
  8
2-1
  6
CONTINUOUS
 62
    7
 10
375.41277
 20
162.29272
 11
375.41277
 21
160.05997
  0
LINE
  8
2-1
  6
CONTINUOUS
 62
    7
 10
374.3327
 20
162.29272
 11
374.3327
 21
160.07615
  0
LINE
  8
2-1
  6
CONTINUOUS
 62
    7
 10
369.75585
 20
162.29272
 11
369.75585
 21
160.06739
  0
LINE
  8
2-1
  6
CONTINUOUS
 62
    7
 10
368.67578
 20
162.29272
 11
368.67578
 21
160.0472
  0
LINE
  8
2-1
  6
CONTINUOUS
 62
    7
 10
327.10782
 20
185.05268
 11
376.61577
 21
185.05268
  0
LINE
  8
2-1
  6
CONTINUOUS
 62
    7
 10
376.61577
 20
186.75266
 11
376.61577
 21
185.05268
  0
LINE
  8
2-1
  6
CONTINUOUS
 62
    7
 10
368.57586
 20
175.29274
 11
368.57586
 21
160.05277
  0
LINE
  8
2-1
  6
CONTINUOUS
 62
    7
 10
369.85577
 20
175.29274
 11
369.85577
 21
160.05277
  0
LINE
  8
2-1
  6
CONTINUOUS
 62
    7
 10
368.57586
 20
184.67276
 11
368.57586
 21
174.89619
  0
LINE
  8
2-1
  6
CONTINUOUS
 62
    7
 10
369.85577
 20
184.67276
 11
369.85577
 21
175.00939
  0
LINE
  8
2-1
  6
CONTINUOUS
 62
    7
 10
369.85577
 20
175.29274
 11
374.72627
 21
175.29274
  0
LINE
  8
2-1
  6
CONTINUOUS
 62
    7
 10
335.20771
 20
175.67273
 11
368.57586
 21
175.67273
  0
LINE
  8
2-1
  6
CONTINUOUS
 62
    7
 10
369.85577
 20
175.67273
 11
374.72627
 21
175.67273
  0
LINE
  8
2-0
  6
CENTER1
 62
    2
 10
351.89179
 20
241.63065
 11
351.89179
 21
152.43243
  0
LINE
  8
2-0
  6
CENTER2
 62
    2
 10
346.55109
 20
175.67273
 11
360.63453
 21
175.67273
  0
LINE
  8
2-0
  6
CENTER2
 62
    2
 10
351.89179
 20
188.4274
 11
351.89179
 21
171.80422
  0
LINE
  8
2-1
  6
CONTINUOUS
 62
    7
 10
329.05722
 20
175.29274
 11
333.92773
 21
175.29274
  0
LINE
  8
2-1
  6
CONTINUOUS
 62
    7
 10
335.20771
 20
175.29274
 11
368.57586
 21
175.29274
  0
LINE
  8
2-1
  6
CONTINUOUS
 62
    7
 10
333.27946
 20
175.67273
 11
333.27946
 21
175.29274
  0
LINE
  8
2-1
  6
CONTINUOUS
 62
    7
 10
332.28238
 20
175.67273
 11
332.28238
 21
175.29274
  0
LINE
  8
1-1
  6
CENTER2
 62
    2
 10
144.27624
 20
207.32007
 11
147.89768
 21
207.76475
  0
LINE
  8
1-1
  6
CONTINUOUS
 62
    7
 10
145.55863
 20
208.44474
 11
145.88949
 21
208.48536
  0
LINE
  8
1-1
  6
CONTINUOUS
 62
    7
 10
145.79263
 20
206.53905
 11
146.12348
 21
206.57966
  0
LINE
  8
1-1
  6
CONTINUOUS
 62
    7
 10
145.88949
 20
208.48536
 11
147.89186
 21
208.08273
  0
LINE
  8
1-1
  6
CONTINUOUS
 62
    7
 10
146.12348
 20
206.57966
 11
147.96896
 21
207.45475
  0
LINE
  8
1-1
  6
CONTINUOUS
 62
    7
 10
145.73427
 20
207.83494
 11
146.06511
 21
207.87555
  0
LINE
  8
1-1
  6
CONTINUOUS
 62
    7
 10
146.06511
 20
207.87555
 11
146.14635
 21
207.21385
  0
LINE
  8
1-1
  6
CONTINUOUS
 62
    7
 10
145.81551
 20
207.17322
 11
146.14635
 21
207.21385
  0
LINE
  8
1-1
  6
CENTER2
 62
    2
 10
145.93276
 20
207.85932
 11
146.01401
 21
207.19759
  0
LINE
  8
1-1
  6
CENTER2
 62
    2
 10
145.74645
 20
207.7357
 11
146.07729
 21
207.7763
  0
LINE
  8
1-1
  6
CONTINUOUS
 62
    7
 10
145.8989
 20
207.77962
 11
145.905
 21
207.72993
  0
LINE
  8
1-1
  6
CONTINUOUS
 62
    7
 10
145.905
 20
207.72993
 11
145.95105
 21
207.71041
  0
LINE
  8
1-1
  6
CONTINUOUS
 62
    7
 10
145.95105
 20
207.71041
 11
145.99102
 21
207.7405
  0
LINE
  8
1-1
  6
CONTINUOUS
 62
    7
 10
145.99102
 20
207.7405
 11
145.98492
 21
207.79018
  0
LINE
  8
1-1
  6
CONTINUOUS
 62
    7
 10
145.98492
 20
207.79018
 11
145.93885
 21
207.80973
  0
LINE
  8
1-1
  6
CONTINUOUS
 62
    7
 10
145.93885
 20
207.80973
 11
145.8989
 21
207.77962
  0
LINE
  8
1-1
  6
CONTINUOUS
 62
    7
 10
145.96186
 20
207.26675
 11
145.95578
 21
207.31641
  0
LINE
  8
1-1
  6
CONTINUOUS
 62
    7
 10
145.95578
 20
207.31641
 11
145.99572
 21
207.34652
  0
LINE
  8
1-1
  6
CONTINUOUS
 62
    7
 10
145.99572
 20
207.34652
 11
146.04179
 21
207.32698
  0
LINE
  8
1-1
  6
CONTINUOUS
 62
    7
 10
146.04179
 20
207.32698
 11
146.04788
 21
207.27731
  0
LINE
  8
1-1
  6
CONTINUOUS
 62
    7
 10
146.04788
 20
207.27731
 11
146.00792
 21
207.2472
  0
LINE
  8
1-1
  6
CONTINUOUS
 62
    7
 10
146.00792
 20
207.2472
 11
145.96186
 21
207.26675
  0
LINE
  8
1-0
  6
CONTINUOUS
 62
    7
 10
146.13618
 20
207.57216
 11
31.700554
 21
192.43466
  0
LINE
  8
1-1
  6
CONTINUOUS
 62
    7
 10
145.44155
 20
267.04521
 11
145.44155
 21
266.93854
  0
LINE
  8
1-1
  6
CONTINUOUS
 62
    7
 10
146.10821
 20
267.04521
 11
146.10821
 21
266.93854
  0
LINE
  8
1-1
  6
CONTINUOUS
 62
    7
 10
144.59155
 20
266.93854
 11
144.59155
 21
267.04521
  0
LINE
  8
1-1
  6
CONTINUOUS
 62
    7
 10
145.44155
 20
267.04521
 11
146.10821
 21
267.04521
  0
LINE
  8
1-1
  6
CONTINUOUS
 62
    7
 10
144.59155
 20
267.04521
 11
144.89155
 21
267.04521
  0
LINE
  8
1-1
  6
CONTINUOUS
 62
    7
 10
144.89155
 20
266.93854
 11
144.89155
 21
267.04521
  0
LINE
  8
1-1
  6
CONTINUOUS
 62
    7
 10
144.50822
 20
266.93854
 11
148.17488
 21
266.93854
  0
LINE
  8
1-1
  6
CONTINUOUS
 62
    7
 10
144.50822
 20
266.8319
 11
144.50822
 21
266.93854
  0
LINE
  8
1-1
  6
CONTINUOUS
 62
    7
 10
144.50822
 20
266.8319
 11
148.17488
 21
266.8319
  0
LINE
  8
1-1
  6
CONTINUOUS
 62
    7
 10
148.17488
 20
266.8319
 11
148.17488
 21
266.93854
  0
LINE
  8
1-1
  6
CONTINUOUS
 62
    7
 10
144.59155
 20
266.8319
 11
144.59155
 21
266.72523
  0
LINE
  8
1-1
  6
CONTINUOUS
 62
    7
 10
144.59155
 20
266.72523
 11
144.89155
 21
266.72523
  0
LINE
  8
1-1
  6
CONTINUOUS
 62
    7
 10
144.89155
 20
266.8319
 11
144.89155
 21
266.72523
  0
LINE
  8
1-1
  6
CONTINUOUS
 62
    7
 10
144.90821
 20
266.70521
 11
144.97489
 21
266.77189
  0
LINE
  8
1-1
  6
CONTINUOUS
 62
    7
 10
144.97489
 20
266.37188
 11
144.90821
 21
266.43854
  0
LINE
  8
1-1
  6
CONTINUOUS
 62
    7
 10
144.90821
 20
266.43854
 11
145.02768
 21
266.5416
  0
LINE
  8
1-1
  6
CONTINUOUS
 62
    7
 10
144.90821
 20
266.70521
 11
144.91929
 21
266.69566
  0
LINE
  8
1-1
  6
CONTINUOUS
 62
    7
 10
144.91929
 20
266.69566
 11
145.02768
 21
266.60217
  0
LINE
  8
1-1
  6
CONTINUOUS
 62
    7
 10
146.64155
 20
266.70521
 11
146.57488
 21
266.77189
  0
LINE
  8
1-1
  6
CONTINUOUS
 62
    7
 10
146.57488
 20
266.37188
 11
146.64155
 21
266.43854
  0
LINE
  8
1-1
  6
CONTINUOUS
 62
    7
 10
146.64155
 20
266.43854
 11
146.52209
 21
266.5416
  0
LINE
  8
1-1
  6
CONTINUOUS
 62
    7
 10
146.64155
 20
266.70521
 11
146.63048
 21
266.69566
  0
LINE
  8
1-1
  6
CONTINUOUS
 62
    7
 10
146.63048
 20
266.69566
 11
146.52209
 21
266.60217
  0
LINE
  8
1-1
  6
CONTINUOUS
 62
    7
 10
147.64155
 20
266.8319
 11
147.64155
 21
266.72523
  0
LINE
  8
1-1
  6
CONTINUOUS
 62
    7
 10
147.64155
 20
266.72523
 11
148.04154
 21
266.72523
  0
LINE
  8
1-1
  6
CONTINUOUS
 62
    7
 10
148.04154
 20
266.8319
 11
148.04154
 21
266.72523
  0
LINE
  8
1-1
  6
CONTINUOUS
 62
    7
 10
148.17488
 20
266.31188
 11
148.17488
 21
266.20523
  0
LINE
  8
1-1
  6
CONTINUOUS
 62
    7
 10
144.90821
 20
266.43854
 11
144.91929
 21
266.44809
  0
LINE
  8
1-1
  6
CONTINUOUS
 62
    7
 10
147.64155
 20
266.31188
 11
147.64155
 21
266.41855
  0
LINE
  8
1-1
  6
CONTINUOUS
 62
    7
 10
147.64155
 20
266.41855
 11
148.04154
 21
266.41855
  0
LINE
  8
1-1
  6
CONTINUOUS
 62
    7
 10
148.04154
 20
266.31188
 11
148.04154
 21
266.41855
  0
LINE
  8
1-1
  6
CONTINUOUS
 62
    7
 10
146.00822
 20
266.31188
 11
148.17488
 21
266.31188
  0
LINE
  8
1-1
  6
CONTINUOUS
 62
    7
 10
146.00822
 20
266.20523
 11
146.00822
 21
266.8319
  0
LINE
  8
1-1
  6
CONTINUOUS
 62
    7
 10
145.67488
 20
266.20523
 11
145.67488
 21
266.8319
  0
LINE
  8
1-1
  6
CONTINUOUS
 62
    7
 10
144.90821
 20
266.43854
 11
145.67488
 21
266.43854
  0
LINE
  8
1-1
  6
CONTINUOUS
 62
    7
 10
144.97489
 20
266.37188
 11
145.67488
 21
266.37188
  0
LINE
  8
1-1
  6
CONTINUOUS
 62
    7
 10
144.91929
 20
266.69566
 11
145.67488
 21
266.69566
  0
LINE
  8
1-1
  6
CONTINUOUS
 62
    7
 10
144.97489
 20
266.77189
 11
145.67488
 21
266.77189
  0
LINE
  8
1-1
  6
CONTINUOUS
 62
    7
 10
146.57488
 20
266.77189
 11
146.00822
 21
266.77189
  0
LINE
  8
1-1
  6
CONTINUOUS
 62
    7
 10
146.63048
 20
266.69566
 11
146.00822
 21
266.69566
  0
LINE
  8
1-1
  6
CONTINUOUS
 62
    7
 10
146.64155
 20
266.43854
 11
146.00822
 21
266.43854
  0
LINE
  8
1-1
  6
CONTINUOUS
 62
    7
 10
146.57488
 20
266.37188
 11
146.00822
 21
266.37188
  0
LINE
  8
1-1
  6
CONTINUOUS
 62
    7
 10
145.77488
 20
265.63854
 11
146.10821
 21
265.63854
  0
LINE
  8
1-1
  6
CONTINUOUS
 62
    7
 10
146.10821
 20
265.63854
 11
146.10821
 21
264.97189
  0
LINE
  8
1-1
  6
CONTINUOUS
 62
    7
 10
145.77488
 20
264.97189
 11
146.10821
 21
264.97189
  0
LINE
  8
1-1
  6
CONTINUOUS
 62
    7
 10
145.93155
 20
265.56357
 11
145.93155
 21
265.51354
  0
LINE
  8
1-1
  6
CONTINUOUS
 62
    7
 10
145.93155
 20
265.51354
 11
145.97488
 21
265.48852
  0
LINE
  8
1-1
  6
CONTINUOUS
 62
    7
 10
145.97488
 20
265.48852
 11
146.01822
 21
265.51354
  0
LINE
  8
1-1
  6
CONTINUOUS
 62
    7
 10
146.01822
 20
265.51354
 11
146.01822
 21
265.56357
  0
LINE
  8
1-1
  6
CONTINUOUS
 62
    7
 10
146.01822
 20
265.56357
 11
145.97488
 21
265.58859
  0
LINE
  8
1-1
  6
CONTINUOUS
 62
    7
 10
145.97488
 20
265.58859
 11
145.93155
 21
265.56357
  0
LINE
  8
1-1
  6
CONTINUOUS
 62
    7
 10
145.93155
 20
265.04687
 11
145.93155
 21
265.0969
  0
LINE
  8
1-1
  6
CONTINUOUS
 62
    7
 10
145.93155
 20
265.0969
 11
145.97488
 21
265.12191
  0
LINE
  8
1-1
  6
CONTINUOUS
 62
    7
 10
145.97488
 20
265.12191
 11
146.01822
 21
265.0969
  0
LINE
  8
1-1
  6
CONTINUOUS
 62
    7
 10
146.01822
 20
265.0969
 11
146.01822
 21
265.04687
  0
LINE
  8
1-1
  6
CONTINUOUS
 62
    7
 10
146.01822
 20
265.04687
 11
145.97488
 21
265.02185
  0
LINE
  8
1-1
  6
CONTINUOUS
 62
    7
 10
145.97488
 20
265.02185
 11
145.93155
 21
265.04687
  0
LINE
  8
1-1
  6
CONTINUOUS
 62
    7
 10
145.34156
 20
266.20523
 11
148.17488
 21
266.20523
  0
LINE
  8
1-1
  6
CONTINUOUS
 62
    7
 10
145.34156
 20
266.31188
 11
145.67488
 21
266.31188
  0
LINE
  8
1-1
  6
CONTINUOUS
 62
    7
 10
145.34156
 20
265.30522
 11
145.34156
 21
266.31188
  0
LINE
  8
1-1
  6
CONTINUOUS
 62
    7
 10
147.47488
 20
266.8319
 11
147.47488
 21
261.89188
  0
LINE
  8
1-1
  6
CONTINUOUS
 62
    7
 10
147.07488
 20
266.8319
 11
147.07488
 21
261.89188
  0
LINE
  8
1-1
  6
CONTINUOUS
 62
    7
 10
145.77488
 20
264.87188
 11
146.84155
 21
264.87188
  0
LINE
  8
1-1
  6
CONTINUOUS
 62
    7
 10
146.84155
 20
264.87188
 11
146.84155
 21
265.47189
  0
LINE
  8
1-1
  6
CONTINUOUS
 62
    7
 10
145.44155
 20
256.73855
 11
145.44155
 21
256.84523
  0
LINE
  8
1-1
  6
CONTINUOUS
 62
    7
 10
146.10821
 20
256.73855
 11
146.10821
 21
256.84523
  0
LINE
  8
1-1
  6
CONTINUOUS
 62
    7
 10
144.59155
 20
256.84523
 11
144.59155
 21
256.73855
  0
LINE
  8
1-1
  6
CONTINUOUS
 62
    7
 10
145.44155
 20
256.73855
 11
146.10821
 21
256.73855
  0
LINE
  8
1-1
  6
CONTINUOUS
 62
    7
 10
144.59155
 20
256.73855
 11
144.89155
 21
256.73855
  0
LINE
  8
1-1
  6
CONTINUOUS
 62
    7
 10
144.89155
 20
256.84523
 11
144.89155
 21
256.73855
  0
LINE
  8
1-1
  6
CONTINUOUS
 62
    7
 10
144.50822
 20
256.84523
 11
148.17488
 21
256.84523
  0
LINE
  8
1-1
  6
CONTINUOUS
 62
    7
 10
144.50822
 20
256.95187
 11
144.50822
 21
256.84523
  0
LINE
  8
1-1
  6
CONTINUOUS
 62
    7
 10
144.50822
 20
256.95187
 11
148.17488
 21
256.95187
  0
LINE
  8
1-1
  6
CONTINUOUS
 62
    7
 10
148.17488
 20
256.95187
 11
148.17488
 21
256.84523
  0
LINE
  8
1-1
  6
CONTINUOUS
 62
    7
 10
144.59155
 20
256.95187
 11
144.59155
 21
257.05854
  0
LINE
  8
1-1
  6
CONTINUOUS
 62
    7
 10
144.59155
 20
257.05854
 11
144.89155
 21
257.05854
  0
LINE
  8
1-1
  6
CONTINUOUS
 62
    7
 10
144.89155
 20
256.95187
 11
144.89155
 21
257.05854
  0
LINE
  8
1-1
  6
CONTINUOUS
 62
    7
 10
144.90821
 20
257.07856
 11
144.97489
 21
257.01188
  0
LINE
  8
1-1
  6
CONTINUOUS
 62
    7
 10
144.97489
 20
257.41189
 11
144.90821
 21
257.34523
  0
LINE
  8
1-1
  6
CONTINUOUS
 62
    7
 10
144.90821
 20
257.34523
 11
145.02768
 21
257.24217
  0
LINE
  8
1-1
  6
CONTINUOUS
 62
    7
 10
144.90821
 20
257.07856
 11
144.91929
 21
257.08811
  0
LINE
  8
1-1
  6
CONTINUOUS
 62
    7
 10
144.91929
 20
257.08811
 11
145.02768
 21
257.1816
  0
LINE
  8
1-1
  6
CONTINUOUS
 62
    7
 10
146.64155
 20
257.07856
 11
146.57488
 21
257.01188
  0
LINE
  8
1-1
  6
CONTINUOUS
 62
    7
 10
146.57488
 20
257.41189
 11
146.64155
 21
257.34523
  0
LINE
  8
1-1
  6
CONTINUOUS
 62
    7
 10
146.64155
 20
257.34523
 11
146.52209
 21
257.24217
  0
LINE
  8
1-1
  6
CONTINUOUS
 62
    7
 10
146.64155
 20
257.07856
 11
146.63048
 21
257.08811
  0
LINE
  8
1-1
  6
CONTINUOUS
 62
    7
 10
146.63048
 20
257.08811
 11
146.52209
 21
257.1816
  0
LINE
  8
1-1
  6
CONTINUOUS
 62
    7
 10
147.64155
 20
256.95187
 11
147.64155
 21
257.05854
  0
LINE
  8
1-1
  6
CONTINUOUS
 62
    7
 10
147.64155
 20
257.05854
 11
148.04154
 21
257.05854
  0
LINE
  8
1-1
  6
CONTINUOUS
 62
    7
 10
148.04154
 20
256.95187
 11
148.04154
 21
257.05854
  0
LINE
  8
1-1
  6
CONTINUOUS
 62
    7
 10
148.17488
 20
257.47189
 11
148.17488
 21
257.57854
  0
LINE
  8
1-1
  6
CONTINUOUS
 62
    7
 10
144.90821
 20
257.34523
 11
144.91929
 21
257.33568
  0
LINE
  8
1-1
  6
CONTINUOUS
 62
    7
 10
147.64155
 20
257.47189
 11
147.64155
 21
257.36522
  0
LINE
  8
1-1
  6
CONTINUOUS
 62
    7
 10
147.64155
 20
257.36522
 11
148.04154
 21
257.36522
  0
LINE
  8
1-1
  6
CONTINUOUS
 62
    7
 10
148.04154
 20
257.47189
 11
148.04154
 21
257.36522
  0
LINE
  8
1-1
  6
CONTINUOUS
 62
    7
 10
146.00822
 20
257.47189
 11
148.17488
 21
257.47189
  0
LINE
  8
1-1
  6
CONTINUOUS
 62
    7
 10
146.00822
 20
257.57854
 11
146.00822
 21
256.95187
  0
LINE
  8
1-1
  6
CONTINUOUS
 62
    7
 10
145.67488
 20
257.57854
 11
145.67488
 21
256.95187
  0
LINE
  8
1-1
  6
CONTINUOUS
 62
    7
 10
144.90821
 20
257.34523
 11
145.67488
 21
257.34523
  0
LINE
  8
1-1
  6
CONTINUOUS
 62
    7
 10
144.97489
 20
257.41189
 11
145.67488
 21
257.41189
  0
LINE
  8
1-1
  6
CONTINUOUS
 62
    7
 10
144.91929
 20
257.08811
 11
145.67488
 21
257.08811
  0
LINE
  8
1-1
  6
CONTINUOUS
 62
    7
 10
144.97489
 20
257.01188
 11
145.67488
 21
257.01188
  0
LINE
  8
1-1
  6
CONTINUOUS
 62
    7
 10
146.57488
 20
257.01188
 11
146.00822
 21
257.01188
  0
LINE
  8
1-1
  6
CONTINUOUS
 62
    7
 10
146.63048
 20
257.08811
 11
146.00822
 21
257.08811
  0
LINE
  8
1-1
  6
CONTINUOUS
 62
    7
 10
146.64155
 20
257.34523
 11
146.00822
 21
257.34523
  0
LINE
  8
1-1
  6
CONTINUOUS
 62
    7
 10
146.57488
 20
257.41189
 11
146.00822
 21
257.41189
  0
LINE
  8
1-1
  6
CONTINUOUS
 62
    7
 10
145.77488
 20
258.14523
 11
146.10821
 21
258.14523
  0
LINE
  8
1-1
  6
CONTINUOUS
 62
    7
 10
146.10821
 20
258.14523
 11
146.10821
 21
258.81188
  0
LINE
  8
1-1
  6
CONTINUOUS
 62
    7
 10
145.77488
 20
258.81188
 11
146.10821
 21
258.81188
  0
LINE
  8
1-1
  6
CONTINUOUS
 62
    7
 10
145.93155
 20
258.2202
 11
145.93155
 21
258.27023
  0
LINE
  8
1-1
  6
CONTINUOUS
 62
    7
 10
145.93155
 20
258.27023
 11
145.97488
 21
258.29525
  0
LINE
  8
1-1
  6
CONTINUOUS
 62
    7
 10
145.97488
 20
258.29525
 11
146.01822
 21
258.27023
  0
LINE
  8
1-1
  6
CONTINUOUS
 62
    7
 10
146.01822
 20
258.27023
 11
146.01822
 21
258.2202
  0
LINE
  8
1-1
  6
CONTINUOUS
 62
    7
 10
146.01822
 20
258.2202
 11
145.97488
 21
258.19518
  0
LINE
  8
1-1
  6
CONTINUOUS
 62
    7
 10
145.97488
 20
258.19518
 11
145.93155
 21
258.2202
  0
LINE
  8
1-1
  6
CONTINUOUS
 62
    7
 10
145.93155
 20
258.7369
 11
145.93155
 21
258.68687
  0
LINE
  8
1-1
  6
CONTINUOUS
 62
    7
 10
145.93155
 20
258.68687
 11
145.97488
 21
258.66185
  0
LINE
  8
1-1
  6
CONTINUOUS
 62
    7
 10
145.97488
 20
258.66185
 11
146.01822
 21
258.68687
  0
LINE
  8
1-1
  6
CONTINUOUS
 62
    7
 10
146.01822
 20
258.68687
 11
146.01822
 21
258.7369
  0
LINE
  8
1-1
  6
CONTINUOUS
 62
    7
 10
146.01822
 20
258.7369
 11
145.97488
 21
258.76192
  0
LINE
  8
1-1
  6
CONTINUOUS
 62
    7
 10
145.97488
 20
258.76192
 11
145.93155
 21
258.7369
  0
LINE
  8
1-1
  6
CONTINUOUS
 62
    7
 10
145.34156
 20
257.57854
 11
148.17488
 21
257.57854
  0
LINE
  8
1-1
  6
CONTINUOUS
 62
    7
 10
145.34156
 20
257.47189
 11
145.67488
 21
257.47189
  0
LINE
  8
1-1
  6
CONTINUOUS
 62
    7
 10
145.34156
 20
258.47855
 11
145.34156
 21
257.47189
  0
LINE
  8
1-1
  6
CONTINUOUS
 62
    7
 10
147.47488
 20
256.95187
 11
147.47488
 21
261.89188
  0
LINE
  8
1-1
  6
CONTINUOUS
 62
    7
 10
147.07488
 20
256.95187
 11
147.07488
 21
261.89188
  0
LINE
  8
1-1
  6
CONTINUOUS
 62
    7
 10
145.77488
 20
258.91189
 11
146.84155
 21
258.91189
  0
LINE
  8
1-1
  6
CONTINUOUS
 62
    7
 10
146.84155
 20
258.91189
 11
146.84155
 21
258.31188
  0
LINE
  8
1-1
  6
CENTER2
 62
    2
 10
145.3058
 20
261.89188
 11
146.07401
 21
261.89188
  0
LINE
  8
1-1
  6
CENTER2
 62
    2
 10
145.77488
 20
262.38639
 11
145.77488
 21
261.55908
  0
LINE
  8
1-1
  6
CONTINUOUS
 62
    7
 10
141.82834
 20
265.72525
 11
145.0168
 21
265.72525
  0
LINE
  8
1-1
  6
CONTINUOUS
 62
    7
 10
142.17939
 20
258.06199
 11
145.03688
 21
264.85082
  0
LINE
  8
1-1
  6
CONTINUOUS
 62
    7
 10
141.98178
 20
258.08544
 11
144.93338
 21
265.09789
  0
LINE
  8
1-1
  6
CONTINUOUS
 62
    7
 10
65.498248
 20
266.22525
 11
145.34156
 21
266.22525
  0
LINE
  8
1-1
  6
CONTINUOUS
 62
    7
 10
148.17488
 20
266.22525
 11
255.75562
 21
266.22525
  0
LINE
  8
1-1
  6
CONTINUOUS
 62
    7
 10
141.82834
 20
265.72525
 11
145.0168
 21
265.72525
  0
LINE
  8
1-1
  6
CONTINUOUS
 62
    7
 10
146.53297
 20
265.72525
 11
178.80815
 21
265.72525
  0
LINE
  8
1-1
  6
CONTINUOUS
 62
    7
 10
146.53297
 20
265.72525
 11
147.07488
 21
265.72525
  0
LINE
  8
1-1
  6
CONTINUOUS
 62
    7
 10
147.47488
 20
265.72525
 11
178.80815
 21
265.72525
  0
LINE
  8
1-1
  6
CONTINUOUS
 62
    7
 10
146.14134
 20
264.51984
 11
147.07488
 21
262.32359
  0
LINE
  8
1-1
  6
CONTINUOUS
 62
    7
 10
147.47488
 20
261.38255
 11
148.88226
 21
258.07156
  0
LINE
  8
1-1
  6
CONTINUOUS
 62
    7
 10
146.30635
 20
264.62065
 11
147.07488
 21
262.81256
  0
LINE
  8
1-1
  6
CONTINUOUS
 62
    7
 10
147.46621
 20
261.89188
 11
149.08449
 21
258.08463
  0
LINE
  8
1-1
  6
CONTINUOUS
 62
    7
 10
141.82834
 20
258.0586
 11
145.01677
 21
258.0586
  0
LINE
  8
1-1
  6
CONTINUOUS
 62
    7
 10
146.533
 20
258.0586
 11
178.80815
 21
258.0586
  0
LINE
  8
1-1
  6
CONTINUOUS
 62
    7
 10
65.498248
 20
257.55859
 11
145.34156
 21
257.55859
  0
LINE
  8
1-1
  6
CONTINUOUS
 62
    7
 10
148.17488
 20
257.55859
 11
255.75562
 21
257.55859
  0
LINE
  8
1-1
  6
CONTINUOUS
 62
    7
 10
147.47488
 20
258.0586
 11
178.80815
 21
258.0586
  0
LINE
  8
1-1
  6
CONTINUOUS
 62
    7
 10
141.82834
 20
258.0586
 11
145.01677
 21
258.0586
  0
LINE
  8
1-1
  6
CONTINUOUS
 62
    7
 10
146.533
 20
258.0586
 11
147.07488
 21
258.0586
  0
LINE
  8
2-0
  6
CONTINUOUS
 62
    4
 10
395.22312
 20
156.29269
 11
395.22312
 21
190.29271
  0
LINE
  8
2-0
  6
CONTINUOUS
 62
    4
 10
374.4722
 20
156.29269
 11
395.22312
 21
156.29269
  0
LINE
  8
2-0
  6
CONTINUOUS
 62
    4
 10
374.4722
 20
190.29271
 11
395.22312
 21
190.29271
  0
LINE
  8
2-0
  6
CONTINUOUS
 62
    4
 10
389.35021
 20
190.2927
 11
389.35021
 21
175.29274
  0
LINE
  8
2-0
  6
CONTINUOUS
 62
    4
 10
374.6027
 20
190.2927
 11
389.35021
 21
190.2927
  0
LINE
  8
2-0
  6
CONTINUOUS
 62
    4
 10
374.6027
 20
175.29274
 11
389.35021
 21
175.29274
  0
LINE
  8
2-0
  6
CONTINUOUS
 62
    4
 10
389.35021
 20
175.29274
 11
389.35021
 21
156.29269
  0
LINE
  8
2-0
  6
CONTINUOUS
 62
    4
 10
374.6027
 20
156.29269
 11
389.35021
 21
156.29269
  0
LINE
  8
2-0
  6
CONTINUOUS
 62
    4
 10
382.69426
 20
190.2927
 11
382.69426
 21
186.99266
  0
LINE
  8
2-0
  6
CONTINUOUS
 62
    4
 10
374.99423
 20
190.2927
 11
382.69426
 21
190.2927
  0
LINE
  8
2-0
  6
CONTINUOUS
 62
    4
 10
374.99423
 20
186.99266
 11
382.69426
 21
186.99266
  0
LINE
  8
2-0
  6
CONTINUOUS
 62
    4
 10
382.69426
 20
186.99266
 11
382.69426
 21
185.05268
  0
LINE
  8
2-0
  6
CONTINUOUS
 62
    4
 10
374.99423
 20
185.05268
 11
382.69426
 21
185.05268
  0
LINE
  8
2-0
  6
CONTINUOUS
 62
    4
 10
382.69426
 20
185.05268
 11
382.69426
 21
175.29274
  0
LINE
  8
2-0
  6
CONTINUOUS
 62
    4
 10
374.99423
 20
175.29274
 11
382.69426
 21
175.29274
  0
LINE
  8
2-0
  6
CONTINUOUS
 62
    4
 10
341.16502
 20
199.88121
 11
381.4701
 21
240.18629
  0
LINE
  8
2-0
  6
CONTINUOUS
 62
    4
 10
331.6468
 20
209.39943
 11
341.16502
 21
199.88121
  0
LINE
  8
2-0
  6
CONTINUOUS
 62
    4
 10
371.95188
 20
249.70451
 11
381.4701
 21
240.18629
  0
LINE
  8
2-0
  6
CONTINUOUS
 62
    4
 10
373.62863
 20
202.06588
 11
379.28545
 21
207.72271
  0
LINE
  8
2-0
  6
CONTINUOUS
 62
    4
 10
369.19713
 20
206.49738
 11
373.62863
 21
202.06588
  0
LINE
  8
2-0
  6
CONTINUOUS
 62
    4
 10
374.85395
 20
212.1542
 11
379.28543
 21
207.72271
  0
LINE
  8
2-0
  6
CONTINUOUS
 62
    4
 10
322.72034
 20
242.71443
 11
365.14672
 21
200.28804
  0
LINE
  8
2-0
  6
CONTINUOUS
 62
    4
 10
330.85047
 20
250.84456
 11
322.72034
 21
242.71443
  0
LINE
  8
2-0
  6
CONTINUOUS
 62
    4
 10
373.27687
 20
208.41818
 11
365.14672
 21
200.28804
  0
LINE
  8
2-0
  6
CONTINUOUS
 62
    4
 10
324.57767
 20
206.38804
 11
328.82027
 21
202.14544
  0
LINE
  8
2-0
  6
CONTINUOUS
 62
    4
 10
330.67313
 20
212.4835
 11
324.57767
 21
206.38804
  0
LINE
  8
2-0
  6
CONTINUOUS
 62
    4
 10
334.91573
 20
208.24089
 11
328.82027
 21
202.14544
  0
LINE
  8
2-0
  6
CONTINUOUS
 62
    4
 10
334.56766
 20
261.59515
 11
369.21581
 21
261.59515
  0
LINE
  8
2-0
  6
CONTINUOUS
 62
    4
 10
334.56766
 20
252.44033
 11
334.56766
 21
261.59515
  0
LINE
  8
2-0
  6
CONTINUOUS
 62
    4
 10
369.21581
 20
252.44033
 11
369.21581
 21
261.59515
  0
LINE
  8
2-0
  6
CONTINUOUS
 62
    4
 10
375.04844
 20
190.87103
 11
376.82617
 21
193.28756
  0
LINE
  8
2-0
  6
CONTINUOUS
 62
    4
 10
375.04844
 20
190.87103
 11
377.79628
 21
192.07495
  0
LINE
  8
0-0
  6
CONTINUOUS
 62
    7
 10
275.40539
 20
59.999999
 11
275.40539
 21
132
  0
LINE
  8
0-0
  6
CONTINUOUS
 62
    7
 10
290.40539
 20
80.000003
 11
290.40539
 21
111.99999
  0
LINE
  8
0-0
  6
CONTINUOUS
 62
    7
 10
305.40539
 20
59.999999
 11
305.40539
 21
128
  0
LINE
  8
0-0
  6
CONTINUOUS
 62
    7
 10
405.4054
 20
59.999999
 11
275.40539
 21
59.999999
  0
LINE
  8
0-0
  6
CONTINUOUS
 62
    7
 10
405.4054
 20
59.999999
 11
405.4054
 21
132
  0
LINE
  8
0-0
  6
CONTINUOUS
 62
    7
 10
275.40539
 20
132
 11
405.4054
 21
132
  0
LINE
  8
0-0
  6
CONTINUOUS
 62
    7
 10
275.40539
 20
128
 11
405.4054
 21
128
  0
LINE
  8
0-0
  6
CONTINUOUS
 62
    7
 10
275.40539
 20
123.99999
 11
405.4054
 21
123.99999
  0
LINE
  8
0-0
  6
CONTINUOUS
 62
    7
 10
275.40539
 20
119.99999
 11
405.4054
 21
119.99999
  0
LINE
  8
0-0
  6
CONTINUOUS
 62
    7
 10
275.40539
 20
116.00001
 11
405.4054
 21
116.00001
  0
LINE
  8
0-0
  6
CONTINUOUS
 62
    7
 10
275.40539
 20
111.99999
 11
405.4054
 21
111.99999
  0
LINE
  8
0-0
  6
CONTINUOUS
 62
    7
 10
290.40539
 20
108
 11
405.4054
 21
108
  0
LINE
  8
0-0
  6
CONTINUOUS
 62
    7
 10
290.40539
 20
103.99999
 11
405.4054
 21
103.99999
  0
LINE
  8
0-0
  6
CONTINUOUS
 62
    7
 10
290.40539
 20
100
 11
405.4054
 21
100
  0
LINE
  8
0-0
  6
CONTINUOUS
 62
    7
 10
275.40539
 20
96
 11
405.4054
 21
96
  0
LINE
  8
0-0
  6
CONTINUOUS
 62
    7
 10
290.40539
 20
91.999999
 11
405.4054
 21
91.999999
  0
LINE
  8
0-0
  6
CONTINUOUS
 62
    7
 10
290.40539
 20
88.000005
 11
405.4054
 21
88.000005
  0
LINE
  8
0-0
  6
CONTINUOUS
 62
    7
 10
290.40539
 20
84.000004
 11
405.4054
 21
84.000004
  0
LINE
  8
0-0
  6
CONTINUOUS
 62
    7
 10
275.40539
 20
80.000003
 11
405.4054
 21
80.000003
  0
LINE
  8
0-0
  6
CONTINUOUS
 62
    7
 10
305.40539
 20
76.000002
 11
405.4054
 21
76.000002
  0
LINE
  8
0-0
  6
CONTINUOUS
 62
    7
 10
275.40539
 20
72.000001
 11
405.4054
 21
72.000001
  0
LINE
  8
0-0
  6
CONTINUOUS
 62
    7
 10
275.40539
 20
68.000001
 11
405.4054
 21
68.000001
  0
LINE
  8
0-0
  6
CONTINUOUS
 62
    7
 10
275.40539
 20
64
 11
405.4054
 21
64
  0
LINE
  8
0-0
  6
CONTINUOUS
 62
    7
 10
338.4054
 20
116.00001
 11
338.4054
 21
123.99999
  0
LINE
  8
0-0
  6
CONTINUOUS
 62
    7
 10
371.40541
 20
116.00001
 11
371.40541
 21
123.99999
  0
LINE
  8
1-1
  6
CONTINUOUS
 62
    7
 10
244.04004
 20
64.073656
 11
269.18918
 21
64.073656
  0
LINE
  8
1-0
  6
CENTER1
 62
    2
 10
55.087873
 20
61.758931
 11
55.087873
 21
5.4236643
  0
LINE
  8
1-0
  6
CONTINUOUS
 62
    7
 10
50.821442
 20
139.25618
 11
50.821442
 21
138.64085
  0
LINE
  8
1-0
  6
CONTINUOUS
 62
    7
 10
50.688121
 20
137.84083
 11
50.688121
 21
137.9208
  0
LINE
  8
1-0
  6
CONTINUOUS
 62
    7
 10
51.021472
 20
137.84083
 11
51.021472
 21
134.85155
  0
LINE
  8
1-0
  6
CONTINUOUS
 62
    7
 10
48.46814
 20
137.66613
 11
51.021472
 21
137.66613
  0
LINE
  8
1-0
  6
CONTINUOUS
 62
    7
 10
48.46814
 20
137.60615
 11
51.021472
 21
137.60615
  0
LINE
  8
1-0
  6
CONTINUOUS
 62
    7
 10
51.361429
 20
137.84083
 11
51.361429
 21
135.52761
  0
LINE
  8
1-0
  6
CONTINUOUS
 62
    7
 10
52.621443
 20
137.84083
 11
52.621443
 21
135.55463
  0
LINE
  8
1-0
  6
CONTINUOUS
 62
    7
 10
51.954765
 20
137.84083
 11
51.954765
 21
135.55463
  0
LINE
  8
1-0
  6
CONTINUOUS
 62
    7
 10
51.894786
 20
137.84083
 11
51.894786
 21
135.55463
  0
LINE
  8
1-0
  6
CONTINUOUS
 62
    7
 10
51.421458
 20
137.84083
 11
51.421458
 21
135.52761
  0
LINE
  8
1-0
  6
CONTINUOUS
 62
    7
 10
57.554749
 20
137.84083
 11
57.554749
 21
135.55463
  0
LINE
  8
1-0
  6
CONTINUOUS
 62
    7
 10
58.221451
 20
137.84083
 11
58.221451
 21
135.55463
  0
LINE
  8
1-0
  6
CONTINUOUS
 62
    7
 10
58.28143
 20
137.84083
 11
58.28143
 21
135.55463
  0
LINE
  8
1-0
  6
CONTINUOUS
 62
    7
 10
58.754758
 20
137.84083
 11
58.754758
 21
136.9737
  0
LINE
  8
1-0
  6
CONTINUOUS
 62
    7
 10
58.814812
 20
137.84083
 11
58.814812
 21
135.52761
  0
LINE
  8
1-0
  6
CONTINUOUS
 62
    7
 10
50.754806
 20
116.11069
 11
50.754806
 21
116.19073
  0
LINE
  8
1-0
  6
CONTINUOUS
 62
    7
 10
51.021472
 20
118.42986
 11
51.021472
 21
116.69078
  0
LINE
  8
1-0
  6
CONTINUOUS
 62
    7
 10
51.557921
 20
116.69078
 11
51.557921
 21
118.45199
  0
LINE
  8
1-0
  6
CONTINUOUS
 62
    7
 10
51.691267
 20
116.69078
 11
51.691267
 21
117.02599
  0
LINE
  8
1-0
  6
CONTINUOUS
 62
    7
 10
52.024618
 20
116.69078
 11
52.024618
 21
118.45199
  0
LINE
  8
1-0
  6
CONTINUOUS
 62
    7
 10
52.157938
 20
116.69078
 11
52.157938
 21
118.43662
  0
LINE
  8
1-0
  6
CONTINUOUS
 62
    7
 10
50.35477
 20
118.92239
 11
50.35477
 21
116.69078
  0
LINE
  8
1-0
  6
CONTINUOUS
 62
    7
 10
50.15474
 20
122.1858
 11
50.15474
 21
116.69078
  0
LINE
  8
1-0
  6
CONTINUOUS
 62
    7
 10
49.954784
 20
122.1858
 11
49.954784
 21
116.69078
  0
LINE
  8
1-0
  6
CONTINUOUS
 62
    7
 10
44.688101
 20
116.69078
 11
44.688101
 21
116.19073
  0
LINE
  8
1-0
  6
CONTINUOUS
 62
    7
 10
44.688101
 20
116.69078
 11
63.421201
 21
116.69078
  0
LINE
  8
1-0
  6
CONTINUOUS
 62
    7
 10
44.821422
 20
116.68898
 11
44.821422
 21
116.68554
  0
LINE
  8
1-0
  6
CONTINUOUS
 62
    7
 10
44.821422
 20
122.32546
 11
44.821422
 21
116.69078
  0
LINE
  8
1-0
  6
CONTINUOUS
 62
    7
 10
44.988122
 20
122.15873
 11
44.988122
 21
116.69078
  0
LINE
  8
1-0
  6
CONTINUOUS
 62
    7
 10
49.354767
 20
122.1858
 11
49.354767
 21
116.69078
  0
LINE
  8
1-0
  6
CONTINUOUS
 62
    7
 10
49.154786
 20
122.1858
 11
49.154786
 21
116.68554
  0
LINE
  8
1-0
  6
CONTINUOUS
 62
    7
 10
49.154786
 20
121.72537
 11
49.154786
 21
116.69078
  0
LINE
  8
1-0
  6
CONTINUOUS
 62
    7
 10
48.98811
 20
121.55872
 11
48.98811
 21
116.69078
  0
LINE
  8
1-0
  6
CONTINUOUS
 62
    7
 10
51.701214
 20
115.58402
 11
51.701214
 21
102.10003
  0
LINE
  8
1-0
  6
CONTINUOUS
 62
    7
 10
52.387859
 20
115.58402
 11
52.387859
 21
102.1201
  0
LINE
  8
1-0
  6
CONTINUOUS
 62
    7
 10
53.054536
 20
115.58402
 11
53.054536
 21
102.1201
  0
LINE
  8
1-0
  6
CONTINUOUS
 62
    7
 10
57.12121
 20
115.58402
 11
57.12121
 21
102.1201
  0
LINE
  8
1-0
  6
CONTINUOUS
 62
    7
 10
57.787887
 20
115.58402
 11
57.787887
 21
102.1201
  0
LINE
  8
1-0
  6
CONTINUOUS
 62
    7
 10
50.754806
 20
116.11735
 11
59.888131
 21
116.11735
  0
LINE
  8
1-0
  6
CONTINUOUS
 62
    7
 10
58.474533
 20
115.58402
 11
58.474533
 21
113.09709
  0
LINE
  8
1-0
  6
CONTINUOUS
 62
    7
 10
59.554558
 20
105.32407
 11
59.554558
 21
116.11735
  0
LINE
  8
1-0
  6
CONTINUOUS
 62
    7
 10
59.781213
 20
105.32407
 11
59.781213
 21
116.11735
  0
LINE
  8
1-2
  6
CONTINUOUS
 62
    4
 10
21.733251
 20
138.58089
 11
21.733251
 21
116.11735
  0
LINE
  8
1-2
  6
CONTINUOUS
 62
    4
 10
51.359697
 20
138.58089
 11
21.733251
 21
138.58089
  0
LINE
  8
1-2
  6
CONTINUOUS
 62
    4
 10
51.359697
 20
116.11735
 11
21.733251
 21
116.11735
  0
LINE
  8
1-2
  6
CONTINUOUS
 62
    4
 10
21.733251
 20
138.58089
 11
21.733251
 21
141.51417
  0
LINE
  8
1-2
  6
CONTINUOUS
 62
    4
 10
31.850561
 20
141.51417
 11
21.733251
 21
141.51417
  0
LINE
  8
1-2
  6
CONTINUOUS
 62
    4
 10
21.733251
 20
141.51417
 11
21.733251
 21
191.32838
  0
LINE
  8
1-2
  6
CONTINUOUS
 62
    4
 10
9.7297296
 20
20.161773
 11
9.7297296
 21
23.415081
  0
LINE
  8
1-2
  6
CONTINUOUS
 62
    4
 10
14.594594
 20
20.161773
 11
9.7297296
 21
20.161773
  0
LINE
  8
1-2
  6
CONTINUOUS
 62
    4
 10
14.594594
 20
23.415081
 11
9.7297296
 21
23.415081
  0
LINE
  8
1-2
  6
CONTINUOUS
 62
    4
 10
14.594594
 20
141.01506
 11
14.594594
 21
191.32838
  0
LINE
  8
1-2
  6
CONTINUOUS
 62
    4
 10
19.459459
 20
191.32838
 11
14.594594
 21
191.32838
  0
LINE
  8
1-2
  6
CONTINUOUS
 62
    4
 10
31.850561
 20
191.32838
 11
14.594594
 21
191.32838
  0
LINE
  8
1-2
  6
CONTINUOUS
 62
    4
 10
14.594594
 20
141.01506
 11
14.594594
 21
116.11735
  0
LINE
  8
1-2
  6
CONTINUOUS
 62
    4
 10
21.651731
 20
116.11735
 11
14.594594
 21
116.11735
  0
LINE
  8
1-2
  6
CONTINUOUS
 62
    4
 10
9.7297296
 20
23.415081
 11
9.7297296
 21
141.01506
  0
LINE
  8
1-2
  6
CONTINUOUS
 62
    4
 10
19.459459
 20
141.01506
 11
9.7297296
 21
141.01506
  0
LINE
  8
1-0
  6
CONTINUOUS
 62
    7
 10
58.417572
 20
150.38751
 11
24.674802
 21
150.38751
  0
LINE
  8
1-0
  6
CONTINUOUS
 62
    7
 10
58.417572
 20
150.18748
 11
25.00813
 21
150.18748
  0
LINE
  8
1-0
  6
CONTINUOUS
 62
    7
 10
25.008128
 20
150.38751
 11
25.008128
 21
144.35389
  0
LINE
  8
1-0
  6
CONTINUOUS
 62
    7
 10
24.674802
 20
150.38751
 11
24.674802
 21
143.38749
  0
LINE
  8
1-0
  6
CONTINUOUS
 62
    7
 10
38.104272
 20
143.38749
 11
24.674802
 21
143.38749
  0
LINE
  8
1-0
  6
CONTINUOUS
 62
    7
 10
24.824039
 20
143.38749
 11
35.023325
 21
141.51417
  0
LINE
  8
1-2
  6
CONTINUOUS
 62
    4
 10
24.674797
 20
126.54986
 11
55.088121
 21
126.54986
  0
LINE
  8
1-2
  6
CONTINUOUS
 62
    4
 10
55.088121
 20
144.07534
 11
55.088121
 21
115.46034
  0
LINE
  8
1-0
  6
CONTINUOUS
 62
    7
 10
54.988155
 20
126.87991
 11
55.188136
 21
126.87991
  0
LINE
  8
1-0
  6
CONTINUOUS
 62
    7
 10
54.988155
 20
126.87991
 11
54.988155
 21
125.03888
  0
LINE
  8
1-0
  6
CONTINUOUS
 62
    7
 10
54.988155
 20
124.01911
 11
54.988155
 21
122.21322
  0
LINE
  8
1-0
  6
CONTINUOUS
 62
    7
 10
55.188136
 20
126.87991
 11
55.188136
 21
125.06655
  0
LINE
  8
1-0
  6
CONTINUOUS
 62
    7
 10
55.188136
 20
124.01911
 11
55.188136
 21
122.21322
  0
LINE
  8
1-2
  6
CONTINUOUS
 62
    4
 10
24.674797
 20
144.07534
 11
24.674797
 21
126.54986
  0
LINE
  8
1-1
  6
CONTINUOUS
 62
    7
 10
28.925145
 20
252.39252
 11
38.114194
 21
252.39252
  0
LINE
  8
1-1
  6
CENTER2
 62
    2
 10
45.626764
 20
261.89188
 11
258.64864
 21
261.89188
  0
LINE
  8
2-0
  6
CONTINUOUS
 62
    7
 10
382.68097
 20
196.97705
 11
375.04844
 21
190.87103
  0
LINE
  8
1-2
  6
CONTINUOUS
 62
    5
 10
63.421201
 20
253.22521
 11
63.421201
 21
270.55856
  0
LINE
  8
1-2
  6
CONTINUOUS
 62
    5
 10
63.421201
 20
270.55856
 11
48.934534
 21
270.55856
  0
LINE
  8
1-2
  6
CONTINUOUS
 62
    5
 10
63.421201
 20
253.22521
 11
48.934534
 21
253.22521
  0
LINE
  8
1-2
  6
CONTINUOUS
 62
    5
 10
48.934534
 20
266.22522
 11
44.688101
 21
266.22522
  0
LINE
  8
1-2
  6
CONTINUOUS
 62
    5
 10
44.688101
 20
257.55855
 11
44.688101
 21
266.22522
  0
LINE
  8
1-2
  6
CONTINUOUS
 62
    5
 10
48.934534
 20
257.55855
 11
44.688101
 21
257.55855
  0
LINE
  8
1-2
  6
CONTINUOUS
 62
    5
 10
48.934534
 20
253.22521
 11
48.934534
 21
257.55855
  0
LINE
  8
1-2
  6
CONTINUOUS
 62
    5
 10
48.934534
 20
266.22522
 11
48.934534
 21
270.55856
  0
LINE
  8
1-2
  6
CONTINUOUS
 62
    7
 10
39.436745
 20
185.92839
 11
39.496746
 21
185.92839
  0
LINE
  8
1-2
  6
CONTINUOUS
 62
    7
 10
39.496746
 20
185.26171
 11
39.496746
 21
185.92839
  0
LINE
  8
1-2
  6
CONTINUOUS
 62
    7
 10
39.436745
 20
185.26171
 11
39.496746
 21
185.26171
  0
LINE
  8
1-2
  6
CONTINUOUS
 62
    7
 10
39.436745
 20
185.26171
 11
39.436745
 21
185.92839
  0
LINE
  8
1-2
  6
CONTINUOUS
 62
    7
 10
36.284934
 20
185.86839
 11
39.436745
 21
185.86839
  0
LINE
  8
1-2
  6
CONTINUOUS
 62
    7
 10
36.64189
 20
185.32172
 11
39.436745
 21
185.32172
  0
LINE
  8
1-2
  6
CONTINUOUS
 62
    7
 10
254.67139
 20
214.83665
 11
255.47142
 21
214.83665
  0
LINE
  8
1-2
  6
CONTINUOUS
 62
    7
 10
254.67139
 20
214.96997
 11
254.67139
 21
214.83665
  0
LINE
  8
1-2
  6
CONTINUOUS
 62
    7
 10
254.67139
 20
214.96997
 11
255.47142
 21
214.96997
  0
LINE
  8
1-2
  6
CONTINUOUS
 62
    7
 10
255.47142
 20
214.96997
 11
255.47142
 21
214.83665
  0
LINE
  8
1-2
  6
CONTINUOUS
 62
    7
 10
255.20475
 20
215.23664
 11
255.20475
 21
214.96997
  0
LINE
  8
1-2
  6
CONTINUOUS
 62
    7
 10
254.87142
 20
215.23664
 11
254.87142
 21
214.96997
  0
LINE
  8
1-2
  6
CONTINUOUS
 62
    7
 10
254.87142
 20
215.23664
 11
255.20475
 21
215.23664
  0
LINE
  8
1-2
  6
CONTINUOUS
 62
    7
 10
252.19437
 20
220.1668
 11
252.35855
 21
220.03571
  0
LINE
  8
1-2
  6
CONTINUOUS
 62
    7
 10
252.48321
 20
220.26041
 11
252.49368
 21
220.10643
  0
LINE
  8
1-2
  6
CONTINUOUS
 62
    7
 10
252.19373
 20
219.79846
 11
252.78877
 21
220.099
  0
LINE
  8
1-2
  6
CONTINUOUS
 62
    7
 10
252.4117
 20
220.01754
 11
252.45554
 21
219.93069
  0
LINE
  8
1-2
  6
CONTINUOUS
 62
    7
 10
252.4814
 20
220.05699
 11
252.52698
 21
219.96677
  0
LINE
  8
1-2
  6
CONTINUOUS
 62
    7
 10
252.78877
 20
220.099
 11
253.0901
 21
219.50252
  0
LINE
  8
1-2
  6
CONTINUOUS
 62
    7
 10
252.19373
 20
219.79846
 11
252.49429
 21
219.20339
  0
LINE
  8
1-2
  6
CONTINUOUS
 62
    7
 10
252.49429
 20
219.20339
 11
253.08934
 21
219.50396
  0
LINE
  8
1-2
  6
CONTINUOUS
 62
    7
 10
252.79998
 20
219.2488
 11
252.75611
 21
219.33565
  0
LINE
  8
1-2
  6
CONTINUOUS
 62
    7
 10
252.87312
 20
219.28151
 11
252.82755
 21
219.37173
  0
LINE
  8
1-2
  6
CONTINUOUS
 62
    7
 10
254.87142
 20
215.23664
 11
252.89195
 21
219.15549
  0
LINE
  8
1-0
  6
CONTINUOUS
 62
    7
 10
255.08813
 20
221.42493
 11
255.08813
 21
215.23664
  0
LINE
  8
1-0
  6
CONTINUOUS
 62
    7
 10
255.08813
 20
214.83665
 11
255.08813
 21
167.33407
  0
LINE
  8
1-0
  6
CONTINUOUS
 62
    7
 10
52.027989
 20
118.16695
 11
51.973312
 21
118.20627
  0
LINE
  8
1-0
  6
CONTINUOUS
 62
    7
 10
51.973312
 20
118.20627
 11
51.916051
 21
118.226
  0
LINE
  8
1-0
  6
CONTINUOUS
 62
    7
 10
51.916051
 20
118.226
 11
51.857948
 21
118.22554
  0
LINE
  8
1-0
  6
CONTINUOUS
 62
    7
 10
51.857948
 20
118.22554
 11
51.800767
 21
118.20492
  0
LINE
  8
1-0
  6
CONTINUOUS
 62
    7
 10
51.800767
 20
118.20492
 11
51.746246
 21
118.16474
  0
LINE
  8
1-0
  6
CONTINUOUS
 62
    7
 10
51.746246
 20
118.16474
 11
51.696041
 21
118.10624
  0
LINE
  8
1-0
  6
CONTINUOUS
 62
    7
 10
51.696041
 20
118.10624
 11
51.651677
 21
118.0312
  0
LINE
  8
1-0
  6
CONTINUOUS
 62
    7
 10
51.651677
 20
118.0312
 11
51.614504
 21
117.94189
  0
LINE
  8
1-0
  6
CONTINUOUS
 62
    7
 10
51.614504
 20
117.94189
 11
51.58565
 21
117.84102
  0
LINE
  8
1-0
  6
CONTINUOUS
 62
    7
 10
51.58565
 20
117.84102
 11
51.565992
 21
117.73166
  0
LINE
  8
1-0
  6
CONTINUOUS
 62
    7
 10
51.565992
 20
117.73166
 11
51.556127
 21
117.61714
  0
LINE
  8
1-0
  6
CONTINUOUS
 62
    7
 10
51.556127
 20
117.61714
 11
51.556355
 21
117.50094
  0
LINE
  8
1-0
  6
CONTINUOUS
 62
    7
 10
51.556355
 20
117.50094
 11
51.566669
 21
117.38658
  0
LINE
  8
1-0
  6
CONTINUOUS
 62
    7
 10
51.566669
 20
117.38658
 11
51.586756
 21
117.27753
  0
LINE
  8
1-0
  6
CONTINUOUS
 62
    7
 10
51.586756
 20
117.27753
 11
51.616005
 21
117.17712
  0
LINE
  8
1-0
  6
CONTINUOUS
 62
    7
 10
51.616005
 20
117.17712
 11
51.653528
 21
117.0884
  0
LINE
  8
1-0
  6
CONTINUOUS
 62
    7
 10
51.653528
 20
117.0884
 11
51.698184
 21
117.01405
  0
LINE
  8
1-0
  6
CONTINUOUS
 62
    7
 10
51.698184
 20
117.01405
 11
51.748617
 21
116.95634
  0
LINE
  8
1-0
  6
CONTINUOUS
 62
    7
 10
51.748617
 20
116.95634
 11
51.803295
 21
116.91702
  0
LINE
  8
1-0
  6
CONTINUOUS
 62
    7
 10
51.803295
 20
116.91702
 11
51.860555
 21
116.89729
  0
LINE
  8
1-0
  6
CONTINUOUS
 62
    7
 10
51.860555
 20
116.89729
 11
51.918658
 21
116.89775
  0
LINE
  8
1-0
  6
CONTINUOUS
 62
    7
 10
51.918658
 20
116.89775
 11
51.975839
 21
116.91838
  0
LINE
  8
1-0
  6
CONTINUOUS
 62
    7
 10
51.975839
 20
116.91838
 11
52.020079
 21
116.94929
  0
LINE
  8
1-0
  6
CONTINUOUS
 62
    7
 10
52.428786
 20
117.74061
 11
52.414315
 21
117.73808
  0
LINE
  8
1-0
  6
CONTINUOUS
 62
    7
 10
52.414315
 20
117.73808
 11
52.400284
 21
117.73056
  0
LINE
  8
1-0
  6
CONTINUOUS
 62
    7
 10
52.400284
 20
117.73056
 11
52.387119
 21
117.71828
  0
LINE
  8
1-0
  6
CONTINUOUS
 62
    7
 10
52.387119
 20
117.71828
 11
52.37522
 21
117.70162
  0
LINE
  8
1-0
  6
CONTINUOUS
 62
    7
 10
52.37522
 20
117.70162
 11
52.364949
 21
117.68108
  0
LINE
  8
1-0
  6
CONTINUOUS
 62
    7
 10
52.364949
 20
117.68108
 11
52.356617
 21
117.65728
  0
LINE
  8
1-0
  6
CONTINUOUS
 62
    7
 10
52.356617
 20
117.65728
 11
52.350478
 21
117.63095
  0
LINE
  8
1-0
  6
CONTINUOUS
 62
    7
 10
52.350478
 20
117.63095
 11
52.346719
 21
117.60289
  0
LINE
  8
1-0
  6
CONTINUOUS
 62
    7
 10
52.346719
 20
117.60289
 11
52.345453
 21
117.57395
  0
LINE
  8
1-0
  6
CONTINUOUS
 62
    7
 10
52.345453
 20
117.57395
 11
52.346719
 21
117.545
  0
LINE
  8
1-0
  6
CONTINUOUS
 62
    7
 10
52.346719
 20
117.545
 11
52.350478
 21
117.51694
  0
LINE
  8
1-0
  6
CONTINUOUS
 62
    7
 10
52.350478
 20
117.51694
 11
52.356617
 21
117.49061
  0
LINE
  8
1-0
  6
CONTINUOUS
 62
    7
 10
52.356617
 20
117.49061
 11
52.364949
 21
117.46681
  0
LINE
  8
1-0
  6
CONTINUOUS
 62
    7
 10
52.364949
 20
117.46681
 11
52.37522
 21
117.44627
  0
LINE
  8
1-0
  6
CONTINUOUS
 62
    7
 10
52.37522
 20
117.44627
 11
52.387119
 21
117.42961
  0
LINE
  8
1-0
  6
CONTINUOUS
 62
    7
 10
52.387119
 20
117.42961
 11
52.400284
 21
117.41733
  0
LINE
  8
1-0
  6
CONTINUOUS
 62
    7
 10
52.400284
 20
117.41733
 11
52.414315
 21
117.40981
  0
LINE
  8
1-0
  6
CONTINUOUS
 62
    7
 10
52.414315
 20
117.40981
 11
52.428786
 21
117.40728
  0
LINE
  8
1-0
  6
CONTINUOUS
 62
    7
 10
52.428786
 20
117.40728
 11
52.443257
 21
117.40981
  0
LINE
  8
1-0
  6
CONTINUOUS
 62
    7
 10
52.443257
 20
117.40981
 11
52.457288
 21
117.41733
  0
LINE
  8
1-0
  6
CONTINUOUS
 62
    7
 10
52.457288
 20
117.41733
 11
52.470453
 21
117.42961
  0
LINE
  8
1-0
  6
CONTINUOUS
 62
    7
 10
52.470453
 20
117.42961
 11
52.482352
 21
117.44627
  0
LINE
  8
1-0
  6
CONTINUOUS
 62
    7
 10
52.482352
 20
117.44627
 11
52.492623
 21
117.46681
  0
LINE
  8
1-0
  6
CONTINUOUS
 62
    7
 10
52.492623
 20
117.46681
 11
52.500955
 21
117.49061
  0
LINE
  8
1-0
  6
CONTINUOUS
 62
    7
 10
52.500955
 20
117.49061
 11
52.507094
 21
117.51694
  0
LINE
  8
1-0
  6
CONTINUOUS
 62
    7
 10
52.507094
 20
117.51694
 11
52.510853
 21
117.545
  0
LINE
  8
1-0
  6
CONTINUOUS
 62
    7
 10
52.510853
 20
117.545
 11
52.512119
 21
117.57395
  0
LINE
  8
1-0
  6
CONTINUOUS
 62
    7
 10
52.512119
 20
117.57395
 11
52.510853
 21
117.60289
  0
LINE
  8
1-0
  6
CONTINUOUS
 62
    7
 10
52.510853
 20
117.60289
 11
52.507094
 21
117.63095
  0
LINE
  8
1-0
  6
CONTINUOUS
 62
    7
 10
52.507094
 20
117.63095
 11
52.500955
 21
117.65728
  0
LINE
  8
1-0
  6
CONTINUOUS
 62
    7
 10
52.500955
 20
117.65728
 11
52.492623
 21
117.68108
  0
LINE
  8
1-0
  6
CONTINUOUS
 62
    7
 10
52.492623
 20
117.68108
 11
52.482352
 21
117.70162
  0
LINE
  8
1-0
  6
CONTINUOUS
 62
    7
 10
52.482352
 20
117.70162
 11
52.470453
 21
117.71828
  0
LINE
  8
1-0
  6
CONTINUOUS
 62
    7
 10
52.470453
 20
117.71828
 11
52.457288
 21
117.73056
  0
LINE
  8
1-0
  6
CONTINUOUS
 62
    7
 10
52.457288
 20
117.73056
 11
52.443257
 21
117.73808
  0
LINE
  8
1-0
  6
CONTINUOUS
 62
    7
 10
52.443257
 20
117.73808
 11
52.428786
 21
117.74061
  0
LINE
  8
1-0
  6
CONTINUOUS
 62
    7
 10
52.296598
 20
117.7406
 11
52.282111
 21
117.73846
  0
LINE
  8
1-0
  6
CONTINUOUS
 62
    7
 10
52.282111
 20
117.73846
 11
52.26803
 21
117.73132
  0
LINE
  8
1-0
  6
CONTINUOUS
 62
    7
 10
52.26803
 20
117.73132
 11
52.254783
 21
117.7194
  0
LINE
  8
1-0
  6
CONTINUOUS
 62
    7
 10
52.254783
 20
117.7194
 11
52.242772
 21
117.70306
  0
LINE
  8
1-0
  6
CONTINUOUS
 62
    7
 10
52.242772
 20
117.70306
 11
52.232362
 21
117.6828
  0
LINE
  8
1-0
  6
CONTINUOUS
 62
    7
 10
52.232362
 20
117.6828
 11
52.223869
 21
117.65923
  0
LINE
  8
1-0
  6
CONTINUOUS
 62
    7
 10
52.223869
 20
117.65923
 11
52.217552
 21
117.63307
  0
LINE
  8
1-0
  6
CONTINUOUS
 62
    7
 10
52.217552
 20
117.63307
 11
52.213602
 21
117.60511
  0
LINE
  8
1-0
  6
CONTINUOUS
 62
    7
 10
52.213602
 20
117.60511
 11
52.21214
 21
117.57621
  0
LINE
  8
1-0
  6
CONTINUOUS
 62
    7
 10
52.21214
 20
117.57621
 11
52.213209
 21
117.54724
  0
LINE
  8
1-0
  6
CONTINUOUS
 62
    7
 10
52.213209
 20
117.54724
 11
52.216777
 21
117.51908
  0
LINE
  8
1-0
  6
CONTINUOUS
 62
    7
 10
52.216777
 20
117.51908
 11
52.222737
 21
117.49258
  0
LINE
  8
1-0
  6
CONTINUOUS
 62
    7
 10
52.222737
 20
117.49258
 11
52.230906
 21
117.46856
  0
LINE
  8
1-0
  6
CONTINUOUS
 62
    7
 10
52.230906
 20
117.46856
 11
52.241037
 21
117.44774
  0
LINE
  8
1-0
  6
CONTINUOUS
 62
    7
 10
52.241037
 20
117.44774
 11
52.252822
 21
117.43075
  0
LINE
  8
1-0
  6
CONTINUOUS
 62
    7
 10
52.252822
 20
117.43075
 11
52.265902
 21
117.41812
  0
LINE
  8
1-0
  6
CONTINUOUS
 62
    7
 10
52.265902
 20
117.41812
 11
52.279881
 21
117.41022
  0
LINE
  8
1-0
  6
CONTINUOUS
 62
    7
 10
52.279881
 20
117.41022
 11
52.294333
 21
117.40729
  0
LINE
  8
1-0
  6
CONTINUOUS
 62
    7
 10
52.294333
 20
117.40729
 11
52.294724
 21
117.40729
  0
LINE
  8
1-0
  6
CONTINUOUS
 62
    7
 10
52.023317
 20
118.17407
 11
51.972144
 21
118.11903
  0
LINE
  8
1-0
  6
CONTINUOUS
 62
    7
 10
51.972144
 20
118.11903
 11
51.926529
 21
118.04705
  0
LINE
  8
1-0
  6
CONTINUOUS
 62
    7
 10
51.926529
 20
118.04705
 11
51.887855
 21
117.96032
  0
LINE
  8
1-0
  6
CONTINUOUS
 62
    7
 10
51.887855
 20
117.96032
 11
51.8573
 21
117.86148
  0
LINE
  8
1-0
  6
CONTINUOUS
 62
    7
 10
51.8573
 20
117.86148
 11
51.83579
 21
117.75353
  0
LINE
  8
1-0
  6
CONTINUOUS
 62
    7
 10
51.83579
 20
117.75353
 11
51.82398
 21
117.63975
  0
LINE
  8
1-0
  6
CONTINUOUS
 62
    7
 10
51.82398
 20
117.63975
 11
51.822229
 21
117.52359
  0
LINE
  8
1-0
  6
CONTINUOUS
 62
    7
 10
51.822229
 20
117.52359
 11
51.830589
 21
117.40859
  0
LINE
  8
1-0
  6
CONTINUOUS
 62
    7
 10
51.830589
 20
117.40859
 11
51.848806
 21
117.29824
  0
LINE
  8
1-0
  6
CONTINUOUS
 62
    7
 10
51.848806
 20
117.29824
 11
51.876328
 21
117.1959
  0
LINE
  8
1-0
  6
CONTINUOUS
 62
    7
 10
51.876328
 20
117.1959
 11
51.912318
 21
117.10467
  0
LINE
  8
1-0
  6
CONTINUOUS
 62
    7
 10
51.912318
 20
117.10467
 11
51.955682
 21
117.02732
  0
LINE
  8
1-0
  6
CONTINUOUS
 62
    7
 10
51.955682
 20
117.02732
 11
52.005103
 21
116.96621
  0
LINE
  8
1-0
  6
CONTINUOUS
 62
    7
 10
52.005103
 20
116.96621
 11
52.021089
 21
116.95116
  0
CIRCLE
  8
1-0
  6
CONTINUOUS
 62
    7
 10
55.090199
 20
124.54228
 40
0.5333334
  0
CIRCLE
  8
1-0
  6
CONTINUOUS
 62
    7
 10
55.090199
 20
124.54228
 40
0.2666667
  0
CIRCLE
  8
1-0
  6
CONTINUOUS
 62
    7
 10
49.221397
 20
134.59927
 40
0.2666667
  0
CIRCLE
  8
1-0
  6
CONTINUOUS
 62
    7
 10
49.221273
 20
134.59956
 40
0.1666667
  0
ARC
  8
1-0
  6
CONTINUOUS
 62
    7
 10
48.554794
 20
126.79947
 40
1.5333334
 50
279.22392
 51
357.14012
  0
ARC
  8
1-0
  6
CONTINUOUS
 62
    7
 10
49.20806
 20
125.25049
 40
0.5
 50
169.69494
 51
208.1784
  0
ARC
  8
1-0
  6
CONTINUOUS
 62
    7
 10
60.932946
 20
143.31909
 40
0.4
 50
358.02531
 51
181.97468
  0
CIRCLE
  8
1-0
  6
CONTINUOUS
 62
    7
 10
61.838007
 20
145.40773
 40
0.2
  0
CIRCLE
  8
1-0
  6
CONTINUOUS
 62
    7
 10
38.77716
 20
145.11358
 40
0.2
  0
CIRCLE
  8
1-0
  6
CONTINUOUS
 62
    7
 10
40.11044
 20
145.11815
 40
0.2
  0
ARC
  8
1-0
  6
CONTINUOUS
 62
    7
 10
40.11044
 20
145.11815
 40
0.4
 50
352.70411
 51
92.06842
  0
ARC
  8
1-0
  6
CONTINUOUS
 62
    7
 10
39.411472
 20
143.18473
 40
0.4
 50
1.5078277
 51
181.50721
  0
ARC
  8
1-0
  6
CONTINUOUS
 62
    7
 10
54.281368
 20
144.84748
 40
0.1333333
 50
90
 51
180
  0
ARC
  8
1-0
  6
CONTINUOUS
 62
    7
 10
54.448043
 20
144.68085
 40
0.1333333
 50
90
 51
180
  0
ARC
  8
1-0
  6
CONTINUOUS
 62
    7
 10
55.948024
 20
144.84748
 40
0.1333333
 50
360
 51
90
  0
ARC
  8
1-0
  6
CONTINUOUS
 62
    7
 10
55.781348
 20
144.68085
 40
0.1333333
 50
360
 51
90
  0
CIRCLE
  8
1-0
  6
CONTINUOUS
 62
    7
 10
54.020591
 20
136.17321
 40
0.4666666
  0
ARC
  8
1-0
  6
CONTINUOUS
 62
    7
 10
54.120581
 20
136.17321
 40
0.4666666
 50
96.653945
 51
263.85607
  0
LINE
  8
1-0
  6
CONTINUOUS
 62
    7
 10
58.27801
 20
136.04746
 11
58.345797
 21
136.0719
  0
LINE
  8
1-0
  6
CONTINUOUS
 62
    7
 10
58.345797
 20
136.0719
 11
58.409724
 21
136.11363
  0
LINE
  8
1-0
  6
CONTINUOUS
 62
    7
 10
58.409724
 20
136.11363
 11
58.467849
 21
136.17138
  0
LINE
  8
1-0
  6
CONTINUOUS
 62
    7
 10
58.467849
 20
136.17138
 11
58.518407
 21
136.2434
  0
LINE
  8
1-0
  6
CONTINUOUS
 62
    7
 10
58.518407
 20
136.2434
 11
58.559861
 21
136.32749
  0
LINE
  8
1-0
  6
CONTINUOUS
 62
    7
 10
58.559861
 20
136.32749
 11
58.590951
 21
136.4211
  0
LINE
  8
1-0
  6
CONTINUOUS
 62
    7
 10
58.590951
 20
136.4211
 11
58.610732
 21
136.52139
  0
LINE
  8
1-0
  6
CONTINUOUS
 62
    7
 10
58.610732
 20
136.52139
 11
58.618605
 21
136.62531
  0
LINE
  8
1-0
  6
CONTINUOUS
 62
    7
 10
58.618605
 20
136.62531
 11
58.614329
 21
136.7297
  0
LINE
  8
1-0
  6
CONTINUOUS
 62
    7
 10
58.614329
 20
136.7297
 11
58.598034
 21
136.83139
  0
LINE
  8
1-0
  6
CONTINUOUS
 62
    7
 10
58.598034
 20
136.83139
 11
58.570216
 21
136.92729
  0
LINE
  8
1-0
  6
CONTINUOUS
 62
    7
 10
58.570216
 20
136.92729
 11
58.531719
 21
137.01449
  0
LINE
  8
1-0
  6
CONTINUOUS
 62
    7
 10
58.531719
 20
137.01449
 11
58.483714
 21
137.09033
  0
LINE
  8
1-0
  6
CONTINUOUS
 62
    7
 10
58.483714
 20
137.09033
 11
58.42766
 21
137.15252
  0
LINE
  8
1-0
  6
CONTINUOUS
 62
    7
 10
58.42766
 20
137.15252
 11
58.365258
 21
137.19916
  0
LINE
  8
1-0
  6
CONTINUOUS
 62
    7
 10
58.365258
 20
137.19916
 11
58.298406
 21
137.22883
  0
LINE
  8
1-0
  6
CONTINUOUS
 62
    7
 10
58.298406
 20
137.22883
 11
58.283193
 21
137.23301
  0
LINE
  8
1-0
  6
CONTINUOUS
 62
    7
 10
58.314025
 20
136.0618
 11
58.382643
 21
136.0433
  0
LINE
  8
1-0
  6
CONTINUOUS
 62
    7
 10
58.382643
 20
136.0433
 11
58.45236
 21
136.04296
  0
LINE
  8
1-0
  6
CONTINUOUS
 62
    7
 10
58.45236
 20
136.04296
 11
58.521058
 21
136.06078
  0
LINE
  8
1-0
  6
CONTINUOUS
 62
    7
 10
58.521058
 20
136.06078
 11
58.586649
 21
136.09623
  0
LINE
  8
1-0
  6
CONTINUOUS
 62
    7
 10
58.586649
 20
136.09623
 11
58.64714
 21
136.14822
  0
LINE
  8
1-0
  6
CONTINUOUS
 62
    7
 10
58.64714
 20
136.14822
 11
58.700694
 21
136.21519
  0
LINE
  8
1-0
  6
CONTINUOUS
 62
    7
 10
58.700694
 20
136.21519
 11
58.745683
 21
136.29508
  0
LINE
  8
1-0
  6
CONTINUOUS
 62
    7
 10
58.745683
 20
136.29508
 11
58.780739
 21
136.38549
  0
LINE
  8
1-0
  6
CONTINUOUS
 62
    7
 10
58.780739
 20
136.38549
 11
58.804799
 21
136.48365
  0
LINE
  8
1-0
  6
CONTINUOUS
 62
    7
 10
58.804799
 20
136.48365
 11
58.817131
 21
136.58659
  0
LINE
  8
1-0
  6
CONTINUOUS
 62
    7
 10
58.817131
 20
136.58659
 11
58.817359
 21
136.69117
  0
LINE
  8
1-0
  6
CONTINUOUS
 62
    7
 10
58.817359
 20
136.69117
 11
58.805478
 21
136.79423
  0
LINE
  8
1-0
  6
CONTINUOUS
 62
    7
 10
58.805478
 20
136.79423
 11
58.781849
 21
136.89263
  0
LINE
  8
1-0
  6
CONTINUOUS
 62
    7
 10
58.781849
 20
136.89263
 11
58.747188
 21
136.98337
  0
LINE
  8
1-0
  6
CONTINUOUS
 62
    7
 10
58.747188
 20
136.98337
 11
58.70255
 21
137.06371
  0
LINE
  8
1-0
  6
CONTINUOUS
 62
    7
 10
58.70255
 20
137.06371
 11
58.649291
 21
137.1312
  0
LINE
  8
1-0
  6
CONTINUOUS
 62
    7
 10
58.649291
 20
137.1312
 11
58.589028
 21
137.18379
  0
LINE
  8
1-0
  6
CONTINUOUS
 62
    7
 10
58.589028
 20
137.18379
 11
58.523594
 21
137.21988
  0
LINE
  8
1-0
  6
CONTINUOUS
 62
    7
 10
58.523594
 20
137.21988
 11
58.454975
 21
137.23838
  0
LINE
  8
1-0
  6
CONTINUOUS
 62
    7
 10
58.454975
 20
137.23838
 11
58.385258
 21
137.23873
  0
LINE
  8
1-0
  6
CONTINUOUS
 62
    7
 10
58.385258
 20
137.23873
 11
58.31656
 21
137.2209
  0
LINE
  8
1-0
  6
CONTINUOUS
 62
    7
 10
58.31656
 20
137.2209
 11
58.314638
 21
137.22013
  0
LINE
  8
1-0
  6
CONTINUOUS
 62
    7
 10
57.754384
 20
136.47853
 11
57.771749
 21
136.48106
  0
LINE
  8
1-0
  6
CONTINUOUS
 62
    7
 10
57.771749
 20
136.48106
 11
57.788586
 21
136.48858
  0
LINE
  8
1-0
  6
CONTINUOUS
 62
    7
 10
57.788586
 20
136.48858
 11
57.804384
 21
136.50086
  0
LINE
  8
1-0
  6
CONTINUOUS
 62
    7
 10
57.804384
 20
136.50086
 11
57.818662
 21
136.51752
  0
LINE
  8
1-0
  6
CONTINUOUS
 62
    7
 10
57.818662
 20
136.51752
 11
57.830988
 21
136.53807
  0
LINE
  8
1-0
  6
CONTINUOUS
 62
    7
 10
57.830988
 20
136.53807
 11
57.840986
 21
136.56186
  0
LINE
  8
1-0
  6
CONTINUOUS
 62
    7
 10
57.840986
 20
136.56186
 11
57.848353
 21
136.58819
  0
LINE
  8
1-0
  6
CONTINUOUS
 62
    7
 10
57.848353
 20
136.58819
 11
57.852864
 21
136.61626
  0
LINE
  8
1-0
  6
CONTINUOUS
 62
    7
 10
57.852864
 20
136.61626
 11
57.854384
 21
136.6452
  0
LINE
  8
1-0
  6
CONTINUOUS
 62
    7
 10
57.854384
 20
136.6452
 11
57.852864
 21
136.67414
  0
LINE
  8
1-0
  6
CONTINUOUS
 62
    7
 10
57.852864
 20
136.67414
 11
57.848353
 21
136.7022
  0
LINE
  8
1-0
  6
CONTINUOUS
 62
    7
 10
57.848353
 20
136.7022
 11
57.840986
 21
136.72853
  0
LINE
  8
1-0
  6
CONTINUOUS
 62
    7
 10
57.840986
 20
136.72853
 11
57.830988
 21
136.75233
  0
LINE
  8
1-0
  6
CONTINUOUS
 62
    7
 10
57.830988
 20
136.75233
 11
57.818662
 21
136.77287
  0
LINE
  8
1-0
  6
CONTINUOUS
 62
    7
 10
57.818662
 20
136.77287
 11
57.804384
 21
136.78953
  0
LINE
  8
1-0
  6
CONTINUOUS
 62
    7
 10
57.804384
 20
136.78953
 11
57.788586
 21
136.80181
  0
LINE
  8
1-0
  6
CONTINUOUS
 62
    7
 10
57.788586
 20
136.80181
 11
57.771749
 21
136.80933
  0
LINE
  8
1-0
  6
CONTINUOUS
 62
    7
 10
57.771749
 20
136.80933
 11
57.754384
 21
136.81186
  0
LINE
  8
1-0
  6
CONTINUOUS
 62
    7
 10
57.754384
 20
136.81186
 11
57.737019
 21
136.80933
  0
LINE
  8
1-0
  6
CONTINUOUS
 62
    7
 10
57.737019
 20
136.80933
 11
57.720182
 21
136.80181
  0
LINE
  8
1-0
  6
CONTINUOUS
 62
    7
 10
57.720182
 20
136.80181
 11
57.704384
 21
136.78953
  0
LINE
  8
1-0
  6
CONTINUOUS
 62
    7
 10
57.704384
 20
136.78953
 11
57.690105
 21
136.77287
  0
LINE
  8
1-0
  6
CONTINUOUS
 62
    7
 10
57.690105
 20
136.77287
 11
57.677779
 21
136.75233
  0
LINE
  8
1-0
  6
CONTINUOUS
 62
    7
 10
57.677779
 20
136.75233
 11
57.667781
 21
136.72853
  0
LINE
  8
1-0
  6
CONTINUOUS
 62
    7
 10
57.667781
 20
136.72853
 11
57.660414
 21
136.7022
  0
LINE
  8
1-0
  6
CONTINUOUS
 62
    7
 10
57.660414
 20
136.7022
 11
57.655903
 21
136.67414
  0
LINE
  8
1-0
  6
CONTINUOUS
 62
    7
 10
57.655903
 20
136.67414
 11
57.654384
 21
136.6452
  0
LINE
  8
1-0
  6
CONTINUOUS
 62
    7
 10
57.654384
 20
136.6452
 11
57.655903
 21
136.61626
  0
LINE
  8
1-0
  6
CONTINUOUS
 62
    7
 10
57.655903
 20
136.61626
 11
57.660414
 21
136.58819
  0
LINE
  8
1-0
  6
CONTINUOUS
 62
    7
 10
57.660414
 20
136.58819
 11
57.667781
 21
136.56186
  0
LINE
  8
1-0
  6
CONTINUOUS
 62
    7
 10
57.667781
 20
136.56186
 11
57.677779
 21
136.53807
  0
LINE
  8
1-0
  6
CONTINUOUS
 62
    7
 10
57.677779
 20
136.53807
 11
57.690105
 21
136.51752
  0
LINE
  8
1-0
  6
CONTINUOUS
 62
    7
 10
57.690105
 20
136.51752
 11
57.704384
 21
136.50086
  0
LINE
  8
1-0
  6
CONTINUOUS
 62
    7
 10
57.704384
 20
136.50086
 11
57.720182
 21
136.48858
  0
LINE
  8
1-0
  6
CONTINUOUS
 62
    7
 10
57.720182
 20
136.48858
 11
57.737019
 21
136.48106
  0
LINE
  8
1-0
  6
CONTINUOUS
 62
    7
 10
57.737019
 20
136.48106
 11
57.754384
 21
136.47853
  0
LINE
  8
1-0
  6
CONTINUOUS
 62
    7
 10
57.881528
 20
136.47885
 11
57.898953
 21
136.47959
  0
LINE
  8
1-0
  6
CONTINUOUS
 62
    7
 10
57.898953
 20
136.47959
 11
57.916036
 21
136.48537
  0
LINE
  8
1-0
  6
CONTINUOUS
 62
    7
 10
57.916036
 20
136.48537
 11
57.932257
 21
136.49601
  0
LINE
  8
1-0
  6
CONTINUOUS
 62
    7
 10
57.932257
 20
136.49601
 11
57.947124
 21
136.51117
  0
LINE
  8
1-0
  6
CONTINUOUS
 62
    7
 10
57.947124
 20
136.51117
 11
57.960185
 21
136.53041
  0
LINE
  8
1-0
  6
CONTINUOUS
 62
    7
 10
57.960185
 20
136.53041
 11
57.971042
 21
136.55314
  0
LINE
  8
1-0
  6
CONTINUOUS
 62
    7
 10
57.971042
 20
136.55314
 11
57.979367
 21
136.57867
  0
LINE
  8
1-0
  6
CONTINUOUS
 62
    7
 10
57.979367
 20
136.57867
 11
57.984906
 21
136.60621
  0
LINE
  8
1-0
  6
CONTINUOUS
 62
    7
 10
57.984906
 20
136.60621
 11
57.98749
 21
136.63494
  0
LINE
  8
1-0
  6
CONTINUOUS
 62
    7
 10
57.98749
 20
136.63494
 11
57.987042
 21
136.66399
  0
LINE
  8
1-0
  6
CONTINUOUS
 62
    7
 10
57.987042
 20
136.66399
 11
57.983575
 21
136.69246
  0
LINE
  8
1-0
  6
CONTINUOUS
 62
    7
 10
57.983575
 20
136.69246
 11
57.977194
 21
136.71949
  0
LINE
  8
1-0
  6
CONTINUOUS
 62
    7
 10
57.977194
 20
136.71949
 11
57.968093
 21
136.74427
  0
LINE
  8
1-0
  6
CONTINUOUS
 62
    7
 10
57.968093
 20
136.74427
 11
57.956549
 21
136.76604
  0
LINE
  8
1-0
  6
CONTINUOUS
 62
    7
 10
57.956549
 20
136.76604
 11
57.942912
 21
136.78413
  0
LINE
  8
1-0
  6
CONTINUOUS
 62
    7
 10
57.942912
 20
136.78413
 11
57.927597
 21
136.79801
  0
LINE
  8
1-0
  6
CONTINUOUS
 62
    7
 10
57.927597
 20
136.79801
 11
57.91107
 21
136.80724
  0
LINE
  8
1-0
  6
CONTINUOUS
 62
    7
 10
57.91107
 20
136.80724
 11
57.893831
 21
136.81155
  0
LINE
  8
1-0
  6
CONTINUOUS
 62
    7
 10
57.893831
 20
136.81155
 11
57.87723
 21
136.81095
  0
CIRCLE
  8
1-0
  6
CONTINUOUS
 62
    7
 10
38.111522
 20
141.11881
 40
0.1333333
  0
ARC
  8
1-0
  6
CONTINUOUS
 62
    7
 10
28.098622
 20
147.63717
 40
0.8333334
 50
358.85459
 51
181.22808
  0
ARC
  8
1-0
  6
CONTINUOUS
 62
    7
 10
28.098622
 20
145.8291
 40
0.8333334
 50
177.05783
 51
2.9824981
  0
CIRCLE
  8
1-0
  6
CONTINUOUS
 62
    7
 10
30.047161
 20
146.24883
 40
0.5333334
  0
CIRCLE
  8
1-0
  6
CONTINUOUS
 62
    7
 10
30.047161
 20
146.2831
 40
0.4
  0
ARC
  8
1-0
  6
CONTINUOUS
 62
    7
 10
28.092882
 20
147.63717
 40
1.6333336
 50
239.68362
 51
241.0063
  0
ARC
  8
1-0
  6
CONTINUOUS
 62
    7
 10
28.092882
 20
147.63717
 40
1.6333336
 50
300.65707
 51
301.72334
  0
ARC
  8
1-0
  6
CONTINUOUS
 62
    7
 10
28.092882
 20
147.63717
 40
1.6333336
 50
359.41671
 51
182.13606
  0
ARC
  8
1-0
  6
CONTINUOUS
 62
    7
 10
38.111522
 20
141.11881
 40
0.3
 50
240.32998
 51
72.305221
  0
ARC
  8
1-0
  6
CONTINUOUS
 62
    7
 10
60.354778
 20
121.55872
 40
0.6000001
 50
90
 51
180
  0
ARC
  8
1-0
  6
CONTINUOUS
 62
    7
 10
60.154797
 20
121.72537
 40
0.6000001
 50
90
 51
180
  0
ARC
  8
1-0
  6
CONTINUOUS
 62
    7
 10
48.554794
 20
121.72537
 40
0.6000001
 50
360
 51
90
  0
ARC
  8
1-0
  6
CONTINUOUS
 62
    7
 10
48.388118
 20
121.55872
 40
0.6000001
 50
360
 51
90
  0
CIRCLE
  8
1-0
  6
CONTINUOUS
 62
    7
 10
31.832341
 20
191.32766
 40
0.2
  0
CIRCLE
  8
1-0
  6
CONTINUOUS
 62
    7
 10
55.087799
 20
85.483461
 40
0.8000001
  0
CIRCLE
  8
1-0
  6
CONTINUOUS
 62
    7
 10
55.086735
 20
85.499495
 40
0.4
  0
CIRCLE
  8
1-0
  6
CONTINUOUS
 62
    7
 10
40.114176
 20
145.11076
 40
0.2
  0
CIRCLE
  8
1-0
  6
CONTINUOUS
 62
    7
 10
254.0526
 20
221.93617
 40
0.3333334
  0
CIRCLE
  8
1-0
  6
DASHED1
 62
    7
 10
245.02728
 20
167.76694
 40
1.0666668
  0
CIRCLE
  8
1-0
  6
DASHED1
 62
    7
 10
245.02728
 20
167.78119
 40
1.1666667
  0
CIRCLE
  8
1-0
  6
CONTINUOUS
 62
    7
 10
245.01886
 20
167.75665
 40
0.2
  0
ARC
  8
1-0
  6
CONTINUOUS
 62
    7
 10
245.01075
 20
167.76075
 40
0.3666667
 50
359.55616
 51
183.07437
  0
CIRCLE
  8
1-0
  6
CONTINUOUS
 62
    7
 10
244.81893
 20
167.52039
 40
0.0333333
  0
CIRCLE
  8
1-0
  6
CONTINUOUS
 62
    7
 10
245.2182
 20
167.51886
 40
0.0333333
  0
CIRCLE
  8
1-0
  6
DASHED1
 62
    7
 10
247.69399
 20
167.76694
 40
1.0666668
  0
CIRCLE
  8
1-0
  6
DASHED1
 62
    7
 10
247.69399
 20
167.78119
 40
1.1666667
  0
CIRCLE
  8
1-0
  6
CONTINUOUS
 62
    7
 10
247.68552
 20
167.75665
 40
0.2
  0
ARC
  8
1-0
  6
CONTINUOUS
 62
    7
 10
247.67728
 20
167.76075
 40
0.3666667
 50
359.55616
 51
183.07437
  0
CIRCLE
  8
1-0
  6
CONTINUOUS
 62
    7
 10
247.48559
 20
167.52039
 40
0.0333333
  0
CIRCLE
  8
1-0
  6
CONTINUOUS
 62
    7
 10
247.88481
 20
167.51886
 40
0.0333333
  0
CIRCLE
  8
1-0
  6
CONTINUOUS
 62
    7
 10
246.35806
 20
165.21282
 40
0.2333333
  0
CIRCLE
  8
1-0
  6
CONTINUOUS
 62
    7
 10
246.35153
 20
165.21935
 40
0.1666667
  0
CIRCLE
  8
1-0
  6
CONTINUOUS
 62
    7
 10
246.34851
 20
165.22019
 40
0.1
  0
CIRCLE
  8
1-0
  6
CONTINUOUS
 62
    7
 10
246.35153
 20
163.68604
 40
0.1666667
  0
CIRCLE
  8
1-0
  6
CONTINUOUS
 62
    7
 10
246.35153
 20
165.23251
 40
0.4
  0
ARC
  8
1-0
  6
CONTINUOUS
 62
    7
 10
245.01434
 20
167.75709
 40
1.2666667
 50
167.78451
 51
227.27418
  0
ARC
  8
1-0
  6
CONTINUOUS
 62
    7
 10
247.68102
 20
167.75709
 40
1.2666667
 50
313.38969
 51
13.180374
  0
ARC
  8
1-0
  6
CONTINUOUS
 62
    7
 10
246.35153
 20
163.69918
 40
0.4
 50
181.44825
 51
358.10054
  0
ARC
  8
1-0
  6
CONTINUOUS
 62
    7
 10
246.35346
 20
163.68695
 40
0.3333334
 50
178.45324
 51
0.3700714
  0
CIRCLE
  8
1-0
  6
CONTINUOUS
 62
    7
 10
246.18327
 20
163.88837
 40
0.0333333
  0
CIRCLE
  8
1-0
  6
CONTINUOUS
 62
    7
 10
246.51867
 20
163.88837
 40
0.0333333
  0
ARC
  8
1-0
  6
CONTINUOUS
 62
    7
 10
246.35311
 20
162.08859
 40
0.3
 50
161.22917
 51
0.6809387
  0
CIRCLE
  8
1-0
  6
CONTINUOUS
 62
    7
 10
245.81849
 20
162.95953
 40
0.0333333
  0
ARC
  8
1-0
  6
CONTINUOUS
 62
    7
 10
245.89658
 20
162.69507
 40
0.0666666
 50
62.95317
 51
149.91914
  0
ARC
  8
1-0
  6
CONTINUOUS
 62
    7
 10
245.81849
 20
162.95953
 40
0.1333333
 50
40.410842
 51
160.03816
  0
ARC
  8
1-0
  6
CONTINUOUS
 62
    7
 10
246.68159
 20
162.46272
 40
0.0833333
 50
232.12995
 51
60.946609
  0
ARC
  8
1-0
  6
CONTINUOUS
 62
    7
 10
245.247
 20
162.03876
 40
0.1666667
 50
141.72727
 51
330.73834
  0
CIRCLE
  8
1-0
  6
CONTINUOUS
 62
    7
 10
55.087799
 20
46.283488
 40
0.8000001
  0
CIRCLE
  8
1-0
  6
CONTINUOUS
 62
    7
 10
55.086735
 20
46.29946
 40
0.4
  0
ARC
  8
1-0
  6
CONTINUOUS
 62
    7
 10
61.845405
 20
145.3918
 40
0.5333334
 50
223.6652
 51
22.585937
  0
ARC
  8
1-0
  6
CONTINUOUS
 62
    7
 10
38.786488
 20
145.11321
 40
0.5468661
 50
184.76364
 51
13.240524
  0
ARC
  8
1-0
  6
CONTINUOUS
 62
    7
 10
40.11091
 20
145.11605
 40
0.5
 50
327.80195
 51
120.38172
  0
ARC
  8
1-0
  6
CONTINUOUS
 62
    7
 10
31.840457
 20
191.34387
 40
1.0666668
 50
352.06666
 51
236.31831
  0
CIRCLE
  8
1-0
  6
CONTINUOUS
 62
    7
 10
32.563055
 20
186.56187
 40
0.1718717
  0
ARC
  8
1-0
  6
CONTINUOUS
 62
    7
 10
32.539202
 20
186.58568
 40
0.5584514
 50
6.011795
 51
192.85325
  0
ARC
  8
1-0
  6
CONTINUOUS
 62
    7
 10
31.840457
 20
191.3772
 40
0.7333334
 50
36.453994
 51
191.1302
  0
CIRCLE
  8
1-0
  6
CONTINUOUS
 62
    7
 10
58.65697
 20
150.28749
 40
0.0533333
  0
CIRCLE
  8
1-0
  6
CONTINUOUS
 62
    7
 10
58.65697
 20
150.28749
 40
0.12
  0
ARC
  8
1-0
  6
CONTINUOUS
 62
    7
 10
254.0526
 20
221.93617
 40
1.1333335
 50
285.09942
 51
112.94757
  0
ARC
  8
1-0
  6
CONTINUOUS
 62
    7
 10
247.96765
 20
225.45998
 40
0.6666666
 50
90
 51
180
  0
ARC
  8
1-0
  6
CONTINUOUS
 62
    7
 10
247.96765
 20
225.45998
 40
0.4400001
 50
90
 51
180
  0
ARC
  8
1-0
  6
CONTINUOUS
 62
    7
 10
62.426295
 20
145.84214
 40
0.5
 50
356.09959
 51
124.0445
  0
ARC
  8
1-0
  6
CONTINUOUS
 62
    7
 10
62.426295
 20
145.84214
 40
0.7266667
 50
357.35749
 51
121.26252
  0
ARC
  8
1-0
  6
CONTINUOUS
 62
    7
 10
59.155982
 20
112.25681
 40
1.1297891
 50
127.08259
 51
166.94548
  0
ARC
  8
1-0
  6
CONTINUOUS
 62
    7
 10
59.155982
 20
106.03993
 40
1.1297891
 50
193.05451
 51
232.9174
  0
ARC
  8
1-0
  6
CONTINUOUS
 62
    7
 10
59.155982
 20
73.056835
 40
1.1297891
 50
127.08259
 51
166.94548
  0
ARC
  8
1-0
  6
CONTINUOUS
 62
    7
 10
59.155982
 20
66.839959
 40
1.1297891
 50
193.05451
 51
232.9174
  0
ARC
  8
1-0
  6
CONTINUOUS
 62
    7
 10
59.155982
 20
33.856794
 40
1.1297891
 50
127.08259
 51
166.94548
  0
ARC
  8
1-0
  6
CONTINUOUS
 62
    7
 10
59.155982
 20
27.639983
 40
1.1297891
 50
193.05451
 51
232.9174
  0
ARC
  8
1-1
  6
CONTINUOUS
 62
    7
 10
49.313172
 20
24.030563
 40
0.4378603
 50
65.317733
 51
114.68226
  0
ARC
  8
1-1
  6
CONTINUOUS
 62
    7
 10
48.947506
 20
24.030563
 40
0.4378603
 50
65.317733
 51
84.976959
  0
ARC
  8
1-1
  6
CONTINUOUS
 62
    7
 10
49.678863
 20
24.030563
 40
0.4378603
 50
95.027343
 51
114.68226
  0
ARC
  8
1-1
  6
CONTINUOUS
 62
    7
 10
49.313172
 20
24.377226
 40
0.4378603
 50
65.317733
 51
114.68226
  0
ARC
  8
1-1
  6
CONTINUOUS
 62
    7
 10
48.947506
 20
24.377226
 40
0.4378603
 50
65.317733
 51
84.976959
  0
ARC
  8
1-1
  6
CONTINUOUS
 62
    7
 10
49.678863
 20
24.377226
 40
0.4378603
 50
95.027343
 51
114.68226
  0
ARC
  8
1-1
  6
CONTINUOUS
 62
    7
 10
49.313172
 20
15.172975
 40
0.4378603
 50
245.31773
 51
294.68226
  0
ARC
  8
1-1
  6
CONTINUOUS
 62
    7
 10
48.947506
 20
15.172975
 40
0.4378603
 50
275.02304
 51
294.68226
  0
ARC
  8
1-1
  6
CONTINUOUS
 62
    7
 10
49.678863
 20
15.172975
 40
0.4378603
 50
245.31773
 51
264.97265
  0
ARC
  8
1-1
  6
CONTINUOUS
 62
    7
 10
49.313172
 20
14.612985
 40
0.4378603
 50
245.31773
 51
294.68226
  0
ARC
  8
1-1
  6
CONTINUOUS
 62
    7
 10
48.947506
 20
14.612985
 40
0.4378603
 50
275.02304
 51
294.68226
  0
ARC
  8
1-1
  6
CONTINUOUS
 62
    7
 10
49.678863
 20
14.612985
 40
0.4378603
 50
245.31773
 51
264.97265
  0
ARC
  8
1-1
  6
CONTINUOUS
 62
    7
 10
47.427557
 20
24.030563
 40
0.4378603
 50
65.317733
 51
114.68226
  0
ARC
  8
1-1
  6
CONTINUOUS
 62
    7
 10
47.793248
 20
24.030563
 40
0.4378603
 50
95.02304
 51
114.68226
  0
ARC
  8
1-1
  6
CONTINUOUS
 62
    7
 10
47.061866
 20
24.030563
 40
0.4378603
 50
65.317733
 51
84.972656
  0
ARC
  8
1-1
  6
CONTINUOUS
 62
    7
 10
47.427557
 20
24.377226
 40
0.4378603
 50
65.317733
 51
114.68226
  0
ARC
  8
1-1
  6
CONTINUOUS
 62
    7
 10
47.793248
 20
24.377226
 40
0.4378603
 50
95.02304
 51
114.68226
  0
ARC
  8
1-1
  6
CONTINUOUS
 62
    7
 10
47.061866
 20
24.377226
 40
0.4378603
 50
65.317733
 51
84.972656
  0
ARC
  8
1-1
  6
CONTINUOUS
 62
    7
 10
47.427557
 20
15.172975
 40
0.4378603
 50
245.31773
 51
294.68226
  0
ARC
  8
1-1
  6
CONTINUOUS
 62
    7
 10
47.793248
 20
15.172975
 40
0.4378603
 50
245.31773
 51
264.97695
  0
ARC
  8
1-1
  6
CONTINUOUS
 62
    7
 10
47.061866
 20
15.172975
 40
0.4378603
 50
275.02734
 51
294.68226
  0
ARC
  8
1-1
  6
CONTINUOUS
 62
    7
 10
47.427557
 20
14.612985
 40
0.4378603
 50
245.31773
 51
294.68226
  0
ARC
  8
1-1
  6
CONTINUOUS
 62
    7
 10
47.793248
 20
14.612985
 40
0.4378603
 50
245.31773
 51
264.97695
  0
ARC
  8
1-1
  6
CONTINUOUS
 62
    7
 10
47.061866
 20
14.612985
 40
0.4378603
 50
275.02734
 51
294.68226
  0
ARC
  8
1-1
  6
CONTINUOUS
 62
    7
 10
60.862549
 20
24.030563
 40
0.4378603
 50
65.317733
 51
114.68226
  0
ARC
  8
1-1
  6
CONTINUOUS
 62
    7
 10
61.228241
 20
24.030563
 40
0.4378603
 50
95.02304
 51
114.68226
  0
ARC
  8
1-1
  6
CONTINUOUS
 62
    7
 10
60.496858
 20
24.030563
 40
0.4378603
 50
65.317733
 51
84.972656
  0
ARC
  8
1-1
  6
CONTINUOUS
 62
    7
 10
60.862549
 20
24.377226
 40
0.4378603
 50
65.317733
 51
114.68226
  0
ARC
  8
1-1
  6
CONTINUOUS
 62
    7
 10
61.228241
 20
24.377226
 40
0.4378603
 50
95.02304
 51
114.68226
  0
ARC
  8
1-1
  6
CONTINUOUS
 62
    7
 10
60.496858
 20
24.377226
 40
0.4378603
 50
65.317733
 51
84.972656
  0
ARC
  8
1-1
  6
CONTINUOUS
 62
    7
 10
60.862549
 20
15.172975
 40
0.4378603
 50
245.31773
 51
294.68226
  0
ARC
  8
1-1
  6
CONTINUOUS
 62
    7
 10
61.228241
 20
15.172975
 40
0.4378603
 50
245.31773
 51
264.97695
  0
ARC
  8
1-1
  6
CONTINUOUS
 62
    7
 10
60.496858
 20
15.172975
 40
0.4378603
 50
275.02734
 51
294.68226
  0
ARC
  8
1-1
  6
CONTINUOUS
 62
    7
 10
60.862549
 20
14.612985
 40
0.4378603
 50
245.31773
 51
294.68226
  0
ARC
  8
1-1
  6
CONTINUOUS
 62
    7
 10
61.228241
 20
14.612985
 40
0.4378603
 50
245.31773
 51
264.97695
  0
ARC
  8
1-1
  6
CONTINUOUS
 62
    7
 10
60.496858
 20
14.612985
 40
0.4378603
 50
275.02734
 51
294.68226
  0
ARC
  8
1-1
  6
CONTINUOUS
 62
    7
 10
62.748165
 20
24.030563
 40
0.4378603
 50
65.317733
 51
114.68226
  0
ARC
  8
1-1
  6
CONTINUOUS
 62
    7
 10
62.382498
 20
24.030563
 40
0.4378603
 50
65.317733
 51
84.976959
  0
ARC
  8
1-1
  6
CONTINUOUS
 62
    7
 10
63.113881
 20
24.030563
 40
0.4378603
 50
95.027343
 51
114.68226
  0
ARC
  8
1-1
  6
CONTINUOUS
 62
    7
 10
62.748165
 20
24.377226
 40
0.4378603
 50
65.317733
 51
114.68226
  0
ARC
  8
1-1
  6
CONTINUOUS
 62
    7
 10
62.382498
 20
24.377226
 40
0.4378603
 50
65.317733
 51
84.976959
  0
ARC
  8
1-1
  6
CONTINUOUS
 62
    7
 10
63.113881
 20
24.377226
 40
0.4378603
 50
95.027343
 51
114.68226
  0
ARC
  8
1-1
  6
CONTINUOUS
 62
    7
 10
62.748165
 20
15.172975
 40
0.4378603
 50
245.31773
 51
294.68226
  0
ARC
  8
1-1
  6
CONTINUOUS
 62
    7
 10
62.382498
 20
15.172975
 40
0.4378603
 50
275.02304
 51
294.68226
  0
ARC
  8
1-1
  6
CONTINUOUS
 62
    7
 10
63.113881
 20
15.172975
 40
0.4378603
 50
245.31773
 51
264.97265
  0
ARC
  8
1-1
  6
CONTINUOUS
 62
    7
 10
62.748165
 20
14.612985
 40
0.4378603
 50
245.31773
 51
294.68226
  0
ARC
  8
1-1
  6
CONTINUOUS
 62
    7
 10
62.382498
 20
14.612985
 40
0.4378603
 50
275.02304
 51
294.68226
  0
ARC
  8
1-1
  6
CONTINUOUS
 62
    7
 10
63.113881
 20
14.612985
 40
0.4378603
 50
245.31773
 51
264.97265
  0
ARC
  8
1-1
  6
CONTINUOUS
 62
    7
 10
55.091263
 20
261.83797
 40
4.7999996
 50
146.65939
 51
212.23236
  0
ARC
  8
1-1
  6
CONTINUOUS
 62
    7
 10
55.091263
 20
261.83797
 40
4.7999996
 50
57.505111
 51
122.67956
  0
ARC
  8
1-1
  6
CONTINUOUS
 62
    7
 10
54.99778
 20
261.93145
 40
2.5333331
 50
65.831604
 51
110.89454
  0
ARC
  8
1-1
  6
CONTINUOUS
 62
    7
 10
54.99778
 20
261.93145
 40
2.5333331
 50
157.11741
 51
203.80296
  0
ARC
  8
1-1
  6
CONTINUOUS
 62
    7
 10
54.99778
 20
261.93145
 40
2.5333331
 50
250.3311
 51
292.24958
  0
ARC
  8
1-1
  6
CONTINUOUS
 62
    7
 10
54.99778
 20
261.93145
 40
2.5333331
 50
339.51094
 51
19.958618
  0
CIRCLE
  8
1-1
  6
CONTINUOUS
 62
    7
 10
60.853394
 20
254.23813
 40
0.2333333
  0
CIRCLE
  8
1-1
  6
CONTINUOUS
 62
    7
 10
62.739801
 20
256.12456
 40
0.2333333
  0
CIRCLE
  8
1-1
  6
CONTINUOUS
 62
    7
 10
62.742944
 20
267.65832
 40
0.2333333
  0
CIRCLE
  8
1-1
  6
CONTINUOUS
 62
    7
 10
60.856537
 20
269.54465
 40
0.2333333
  0
CIRCLE
  8
1-1
  6
CONTINUOUS
 62
    7
 10
49.547448
 20
261.90436
 40
0.75
  0
CIRCLE
  8
1-1
  6
CONTINUOUS
 62
    7
 10
49.566773
 20
261.89683
 40
0.5999999
  0
ARC
  8
1-1
  6
CONTINUOUS
 62
    7
 10
54.052931
 20
266.56127
 40
0.0666666
 50
75.565536
 51
283.39157
  0
ARC
  8
1-1
  6
CONTINUOUS
 62
    7
 10
56.054373
 20
266.56127
 40
0.0666666
 50
264.9458
 51
91.076416
  0
ARC
  8
1-1
  6
CONTINUOUS
 62
    7
 10
47.987563
 20
265.99246
 40
0.0666666
 50
90
 51
180
  0
ARC
  8
1-1
  6
CONTINUOUS
 62
    7
 10
50.187525
 20
265.99246
 40
0.0666666
 50
0
 51
90
  0
ARC
  8
1-1
  6
CONTINUOUS
 62
    7
 10
50.187525
 20
264.89254
 40
0.0666666
 50
270
 51
0
  0
ARC
  8
1-1
  6
CONTINUOUS
 62
    7
 10
47.987563
 20
264.89254
 40
0.0666666
 50
180
 51
270
  0
ARC
  8
1-1
  6
CONTINUOUS
 62
    7
 10
47.987563
 20
257.79245
 40
0.0666666
 50
180
 51
270
  0
ARC
  8
1-1
  6
CONTINUOUS
 62
    7
 10
50.187525
 20
257.79245
 40
0.0666666
 50
270
 51
360
  0
ARC
  8
1-1
  6
CONTINUOUS
 62
    7
 10
50.187525
 20
258.89249
 40
0.0666666
 50
360
 51
90
  0
ARC
  8
1-1
  6
CONTINUOUS
 62
    7
 10
47.987563
 20
258.89249
 40
0.0666666
 50
90
 51
180
  0
CIRCLE
  8
1-1
  6
CONTINUOUS
 62
    7
 10
49.567788
 20
263.5285
 40
0.1
  0
CIRCLE
  8
1-1
  6
CONTINUOUS
 62
    7
 10
48.148671
 20
261.05819
 40
0.1
  0
CIRCLE
  8
1-1
  6
CONTINUOUS
 62
    7
 10
49.574963
 20
260.23884
 40
0.1
  0
ARC
  8
1-1
  6
CENTER1
 62
    2
 10
49.565115
 20
261.89518
 40
1.6333332
 50
333.95613
 51
25.84906
  0
ARC
  8
1-1
  6
CONTINUOUS
 62
    7
 10
49.581892
 20
261.90436
 40
1.833333
 50
18.415634
 51
38.437454
  0
ARC
  8
1-1
  6
CONTINUOUS
 62
    7
 10
49.581892
 20
261.90436
 40
1.833333
 50
59.963088
 51
139.04901
  0
ARC
  8
1-1
  6
CENTER1
 62
    2
 10
49.565115
 20
261.89518
 40
1.6333332
 50
55.261291
 51
134.96453
  0
ARC
  8
1-1
  6
CONTINUOUS
 62
    7
 10
50.994056
 20
262.70915
 40
0.1
 50
268.35958
 51
88.183563
  0
ARC
  8
1-1
  6
CONTINUOUS
 62
    7
 10
50.997619
 20
261.06437
 40
0.1
 50
269.92561
 51
90.066406
  0
ARC
  8
1-1
  6
CONTINUOUS
 62
    7
 10
49.581892
 20
261.90436
 40
1.833333
 50
322.09164
 51
341.58706
  0
CIRCLE
  8
1-1
  6
CONTINUOUS
 62
    7
 10
53.642429
 20
260.1603
 40
0.05
  0
CIRCLE
  8
1-1
  6
CONTINUOUS
 62
    7
 10
54.367724
 20
259.75418
 40
0.05
  0
ARC
  8
1-1
  6
CONTINUOUS
 62
    7
 10
54.529476
 20
260.88733
 40
0.2666666
 50
329.5345
 51
150.48834
  0
ARC
  8
1-1
  6
CONTINUOUS
 62
    7
 10
52.376007
 20
258.27266
 40
0.3333333
 50
240.78222
 51
330.78187
  0
ARC
  8
1-1
  6
CONTINUOUS
 62
    7
 10
27.314213
 20
271.14584
 40
0.0666666
 50
90
 51
180
  0
ARC
  8
1-1
  6
CONTINUOUS
 62
    7
 10
28.914159
 20
271.14584
 40
0.0666666
 50
0
 51
90
  0
ARC
  8
1-1
  6
CONTINUOUS
 62
    7
 10
26.914202
 20
269.54579
 40
0.0666666
 50
90
 51
180
  0
ARC
  8
1-1
  6
CONTINUOUS
 62
    7
 10
29.31417
 20
269.54579
 40
0.0666666
 50
0
 51
90
  0
ARC
  8
1-1
  6
CONTINUOUS
 62
    7
 10
29.31417
 20
268.54586
 40
0.0666666
 50
270
 51
0
  0
ARC
  8
1-1
  6
CONTINUOUS
 62
    7
 10
26.914202
 20
268.54586
 40
0.0666666
 50
180
 51
270
  0
ARC
  8
1-1
  6
CONTINUOUS
 62
    7
 10
26.847566
 20
266.54583
 40
0.0666666
 50
90
 51
180
  0
ARC
  8
1-1
  6
CONTINUOUS
 62
    7
 10
29.38088
 20
266.54583
 40
0.0666666
 50
0
 51
90
  0
ARC
  8
1-1
  6
CONTINUOUS
 62
    7
 10
29.38088
 20
266.41254
 40
0.0666666
 50
270
 51
0
  0
ARC
  8
1-1
  6
CONTINUOUS
 62
    7
 10
26.847566
 20
266.41254
 40
0.0666666
 50
180
 51
270
  0
ARC
  8
1-1
  6
CONTINUOUS
 62
    7
 10
27.514219
 20
262.22583
 40
0.0666666
 50
180
 51
270
  0
ARC
  8
1-1
  6
CONTINUOUS
 62
    7
 10
28.714153
 20
262.22583
 40
0.0666666
 50
270
 51
0
  0
ARC
  8
1-1
  6
CONTINUOUS
 62
    7
 10
27.380849
 20
263.34584
 40
0.0666666
 50
90
 51
180
  0
ARC
  8
1-1
  6
CONTINUOUS
 62
    7
 10
28.847524
 20
263.34584
 40
0.0666666
 50
0
 51
90
  0
ARC
  8
1-1
  6
CONTINUOUS
 62
    7
 10
27.380849
 20
262.3592
 40
0.0666666
 50
180
 51
270
  0
ARC
  8
1-1
  6
CONTINUOUS
 62
    7
 10
28.847524
 20
262.3592
 40
0.0666666
 50
270
 51
0
  0
ARC
  8
1-1
  6
CONTINUOUS
 62
    7
 10
29.080389
 20
261.89231
 40
0.1
 50
269.56364
 51
90
  0
ARC
  8
1-1
  6
CONTINUOUS
 62
    7
 10
27.047547
 20
260.70581
 40
0.0666666
 50
90
 51
180
  0
ARC
  8
1-1
  6
CONTINUOUS
 62
    7
 10
29.180874
 20
260.70581
 40
0.0666666
 50
0
 51
90
  0
ARC
  8
1-1
  6
CONTINUOUS
 62
    7
 10
26.580826
 20
257.07255
 40
0.0666666
 50
90
 51
180
  0
ARC
  8
1-1
  6
CONTINUOUS
 62
    7
 10
29.647546
 20
257.07255
 40
0.0666666
 50
0
 51
90
  0
ARC
  8
1-1
  6
CONTINUOUS
 62
    7
 10
29.647546
 20
256.93918
 40
0.0666666
 50
270
 51
0
  0
ARC
  8
1-1
  6
CONTINUOUS
 62
    7
 10
26.580826
 20
256.93918
 40
0.0666666
 50
180
 51
270
  0
ARC
  8
1-1
  6
CONTINUOUS
 62
    7
 10
26.580826
 20
254.43922
 40
0.0666666
 50
90
 51
180
  0
ARC
  8
1-1
  6
CONTINUOUS
 62
    7
 10
29.647546
 20
254.43922
 40
0.0666666
 50
0
 51
90
  0
ARC
  8
1-1
  6
CONTINUOUS
 62
    7
 10
29.647546
 20
253.70583
 40
0.0666666
 50
270
 51
0
  0
ARC
  8
1-1
  6
CONTINUOUS
 62
    7
 10
26.580826
 20
253.70583
 40
0.0666666
 50
180
 51
270
  0
ARC
  8
1-1
  6
CONTINUOUS
 62
    7
 10
27.380849
 20
252.37253
 40
0.0666666
 50
180
 51
270
  0
ARC
  8
1-1
  6
CONTINUOUS
 62
    7
 10
28.847524
 20
252.37253
 40
0.0666666
 50
270
 51
0
  0
ARC
  8
1-1
  6
CONTINUOUS
 62
    7
 10
27.614209
 20
251.75252
 40
0.0666666
 50
180
 51
270
  0
ARC
  8
1-1
  6
CONTINUOUS
 62
    7
 10
28.614138
 20
251.75252
 40
0.0666666
 50
270
 51
0
  0
ARC
  8
1-1
  6
CONTINUOUS
 62
    7
 10
30.347553
 20
257.57248
 40
0.0666666
 50
270
 51
0
  0
CIRCLE
  8
1-1
  6
CONTINUOUS
 62
    7
 10
30.013509
 20
269.81469
 40
0.0833333
  0
CIRCLE
  8
1-1
  6
CONTINUOUS
 62
    7
 10
26.214838
 20
269.81469
 40
0.0833333
  0
CIRCLE
  8
1-1
  6
CONTINUOUS
 62
    7
 10
30.013509
 20
265.41028
 40
0.0833333
  0
CIRCLE
  8
1-1
  6
CONTINUOUS
 62
    7
 10
26.214838
 20
265.41028
 40
0.0833333
  0
CIRCLE
  8
1-1
  6
CONTINUOUS
 62
    7
 10
26.180815
 20
257.43943
 40
0.0833333
  0
CIRCLE
  8
1-1
  6
CONTINUOUS
 62
    7
 10
30.047532
 20
257.43943
 40
0.0833333
  0
CIRCLE
  8
1-1
  6
CONTINUOUS
 62
    7
 10
26.180815
 20
253.30557
 40
0.0833333
  0
CIRCLE
  8
1-1
  6
CONTINUOUS
 62
    7
 10
30.047532
 20
253.30557
 40
0.0833333
  0
ARC
  8
1-1
  6
CONTINUOUS
 62
    7
 10
49.319705
 20
269.54465
 40
0.2333333
 50
4.7878112
 51
176.08258
  0
ARC
  8
1-1
  6
CONTINUOUS
 62
    7
 10
49.322773
 20
254.23813
 40
0.2333333
 50
187.11642
 51
356.45506
  0
LINE
  8
1-1
  6
CONTINUOUS
 62
    7
 10
253.27668
 20
260.71327
 11
253.45513
 21
260.93458
  0
LINE
  8
1-1
  6
CONTINUOUS
 62
    7
 10
253.45513
 20
260.93458
 11
253.59442
 21
261.18521
  0
LINE
  8
1-1
  6
CONTINUOUS
 62
    7
 10
253.59442
 20
261.18521
 11
253.69034
 21
261.45754
  0
LINE
  8
1-1
  6
CONTINUOUS
 62
    7
 10
253.69034
 20
261.45754
 11
253.73996
 21
261.74331
  0
LINE
  8
1-1
  6
CONTINUOUS
 62
    7
 10
253.73996
 20
261.74331
 11
253.74179
 21
262.03382
  0
LINE
  8
1-1
  6
CONTINUOUS
 62
    7
 10
253.74179
 20
262.03382
 11
253.69576
 21
262.32025
  0
LINE
  8
1-1
  6
CONTINUOUS
 62
    7
 10
253.69576
 20
262.32025
 11
253.60326
 21
262.5939
  0
LINE
  8
1-1
  6
CONTINUOUS
 62
    7
 10
253.60326
 20
262.5939
 11
253.46713
 21
262.84646
  0
LINE
  8
1-1
  6
CONTINUOUS
 62
    7
 10
253.46713
 20
262.84646
 11
253.29148
 21
263.07024
  0
LINE
  8
1-1
  6
CONTINUOUS
 62
    7
 10
253.29148
 20
263.07024
 11
253.25392
 21
263.10906
  0
ARC
  8
1-1
  6
CONTINUOUS
 62
    7
 10
52.452887
 20
258.00047
 40
0.6666666
 50
320.49418
 51
330.78236
  0
ARC
  8
1-1
  6
CONTINUOUS
 62
    7
 10
55.091263
 20
261.83797
 40
4.7999996
 50
301.78623
 51
303.48301
  0
ARC
  8
1-1
  6
CONTINUOUS
 62
    7
 10
55.084063
 20
261.94788
 40
3.7333329
 50
245.15986
 51
249.99798
  0
ARC
  8
1-1
  6
CONTINUOUS
 62
    7
 10
55.084063
 20
261.94788
 40
3.7333329
 50
253.69876
 51
282.29396
  0
ARC
  8
1-1
  6
CONTINUOUS
 62
    7
 10
55.084063
 20
261.94788
 40
3.7333329
 50
313.30509
 51
236.75369
  0
ARC
  8
1-1
  6
CONTINUOUS
 62
    7
 10
49.581892
 20
261.90436
 40
1.833333
 50
200.77561
 51
242.65164
  0
ARC
  8
1-1
  6
CONTINUOUS
 62
    7
 10
49.581892
 20
261.90436
 40
1.833333
 50
277.19573
 51
299.71453
  0
ARC
  8
1-1
  6
CENTER1
 62
    2
 10
49.565115
 20
261.89518
 40
1.6333332
 50
204.04617
 51
249.3536
  0
ARC
  8
1-1
  6
CONTINUOUS
 62
    7
 10
49.557123
 20
261.90436
 40
1.3666666
 50
46.418365
 51
267.10014
  0
ARC
  8
1-1
  6
CONTINUOUS
 62
    7
 10
55.091263
 20
261.83797
 40
4.7999996
 50
30.384399
 51
33.586669
  0
ARC
  8
1-1
  6
CONTINUOUS
 62
    7
 10
55.091263
 20
261.83797
 40
4.7999996
 50
327.52323
 51
331.20375
  0
ARC
  8
1-1
  6
CONTINUOUS
 62
    7
 10
55.091263
 20
261.83797
 40
4.7999996
 50
340.56134
 51
21.491073
  0
ARC
  8
1-1
  6
CONTINUOUS
 62
    7
 10
55.089209
 20
261.89188
 40
31.866667
 50
146.04393
 51
267.60879
  0
ARC
  8
1-1
  6
CONTINUOUS
 62
    7
 10
79.063208
 20
163.68733
 40
5.2933331
 50
246.8984
 51
321.68571
  0
ARC
  8
1-1
  6
CONTINUOUS
 62
    7
 10
79.063208
 20
163.68733
 40
4.7599998
 50
249.63995
 51
286.53849
  0
ARC
  8
1-1
  6
CONTINUOUS
 62
    7
 10
79.063208
 20
163.68733
 40
4.7599998
 50
292.96151
 51
318.1869
  0
ARC
  8
1-1
  6
CONTINUOUS
 62
    7
 10
81.463944
 20
163.31389
 40
0.1333333
 50
19.751449
 51
109.74894
  0
ARC
  8
1-1
  6
CONTINUOUS
 62
    7
 10
79.832573
 20
162.72817
 40
0.1333333
 50
109.75144
 51
199.75144
  0
ARC
  8
1-1
  6
CONTINUOUS
 62
    7
 10
79.079638
 20
162.45782
 40
0.1333333
 50
19.751449
 51
109.74716
  0
ARC
  8
1-1
  6
CONTINUOUS
 62
    7
 10
76.695333
 20
161.60178
 40
0.1333333
 50
109.75144
 51
199.75056
  0
CIRCLE
  8
2-0
  6
CONTINUOUS
 62
    7
 10
328.91086
 20
212.1354
 40
0.64
  0
CIRCLE
  8
2-0
  6
CONTINUOUS
 62
    7
 10
334.56763
 20
206.47852
 40
0.64
  0
CIRCLE
  8
2-0
  6
CONTINUOUS
 62
    7
 10
369.21594
 20
252.44043
 40
0.64
  0
CIRCLE
  8
2-0
  6
CONTINUOUS
 62
    7
 10
374.87281
 20
246.78365
 40
0.64
  0
CIRCLE
  8
2-0
  6
CONTINUOUS
 62
    7
 10
328.91086
 20
246.78351
 40
0.64
  0
CIRCLE
  8
2-0
  6
CONTINUOUS
 62
    7
 10
334.56763
 20
252.44038
 40
0.64
  0
CIRCLE
  8
2-0
  6
CONTINUOUS
 62
    7
 10
374.87271
 20
212.1354
 40
0.64
  0
CIRCLE
  8
2-0
  6
CONTINUOUS
 62
    7
 10
369.21594
 20
206.47852
 40
0.64
  0
ARC
  8
2-0
  6
CONTINUOUS
 62
    7
 10
351.62071
 20
229.57481
 40
7.5999996
 50
65.831604
 51
159.5867
  0
ARC
  8
2-0
  6
CONTINUOUS
 62
    7
 10
351.62071
 20
229.57481
 40
7.5999996
 50
157.11741
 51
257.45045
  0
ARC
  8
2-0
  6
CONTINUOUS
 62
    7
 10
351.62071
 20
229.57481
 40
7.5999996
 50
250.3311
 51
346.19863
  0
ARC
  8
2-0
  6
CONTINUOUS
 62
    7
 10
351.62071
 20
229.57481
 40
7.5999996
 50
339.51094
 51
74.921035
  0
ARC
  8
2-0
  6
CONTINUOUS
 62
    7
 10
351.90114
 20
229.29436
 40
14.400001
 50
327.52323
 51
60.819717
  0
ARC
  8
2-0
  6
CONTINUOUS
 62
    7
 10
351.90114
 20
229.29436
 40
14.400001
 50
57.505111
 51
151.41696
  0
ARC
  8
2-0
  6
CONTINUOUS
 62
    7
 10
351.90114
 20
229.29436
 40
14.400001
 50
146.65939
 51
239.16654
  0
ARC
  8
2-0
  6
CONTINUOUS
 62
    7
 10
351.90114
 20
229.29436
 40
14.400001
 50
236.68618
 51
332.69677
  0
ARC
  8
2-1
  6
CONTINUOUS
 62
    7
 10
334.56768
 20
186.89912
 40
1.3135809
 50
65.317733
 51
114.68226
  0
ARC
  8
2-1
  6
CONTINUOUS
 62
    7
 10
333.47068
 20
186.89912
 40
1.3135809
 50
65.317733
 51
84.976959
  0
ARC
  8
2-1
  6
CONTINUOUS
 62
    7
 10
335.66476
 20
186.89912
 40
1.3135809
 50
95.027343
 51
114.68226
  0
ARC
  8
2-1
  6
CONTINUOUS
 62
    7
 10
334.56768
 20
187.93911
 40
1.3135809
 50
65.317733
 51
114.68226
  0
ARC
  8
2-1
  6
CONTINUOUS
 62
    7
 10
333.47068
 20
187.93911
 40
1.3135809
 50
65.317733
 51
84.976959
  0
ARC
  8
2-1
  6
CONTINUOUS
 62
    7
 10
335.66476
 20
187.93911
 40
1.3135809
 50
95.027343
 51
114.68226
  0
ARC
  8
2-1
  6
CONTINUOUS
 62
    7
 10
334.56768
 20
160.32631
 40
1.3135809
 50
245.31773
 51
294.68226
  0
ARC
  8
2-1
  6
CONTINUOUS
 62
    7
 10
333.47068
 20
160.32631
 40
1.3135809
 50
275.02304
 51
294.68226
  0
ARC
  8
2-1
  6
CONTINUOUS
 62
    7
 10
335.66476
 20
160.32631
 40
1.3135809
 50
245.31773
 51
264.97265
  0
ARC
  8
2-1
  6
CONTINUOUS
 62
    7
 10
334.56768
 20
158.64637
 40
1.3135809
 50
245.31773
 51
294.68226
  0
ARC
  8
2-1
  6
CONTINUOUS
 62
    7
 10
333.47068
 20
158.64637
 40
1.3135809
 50
275.02304
 51
294.68226
  0
ARC
  8
2-1
  6
CONTINUOUS
 62
    7
 10
335.66476
 20
158.64637
 40
1.3135809
 50
245.31773
 51
264.97265
  0
ARC
  8
2-1
  6
CONTINUOUS
 62
    7
 10
328.91084
 20
186.89912
 40
1.3135809
 50
65.317733
 51
114.68226
  0
ARC
  8
2-1
  6
CONTINUOUS
 62
    7
 10
330.00791
 20
186.89912
 40
1.3135809
 50
95.02304
 51
114.68226
  0
ARC
  8
2-1
  6
CONTINUOUS
 62
    7
 10
327.81376
 20
186.89912
 40
1.3135809
 50
65.317733
 51
84.972656
  0
ARC
  8
2-1
  6
CONTINUOUS
 62
    7
 10
328.91084
 20
187.93911
 40
1.3135809
 50
65.317733
 51
114.68226
  0
ARC
  8
2-1
  6
CONTINUOUS
 62
    7
 10
330.00791
 20
187.93911
 40
1.3135809
 50
95.02304
 51
114.68226
  0
ARC
  8
2-1
  6
CONTINUOUS
 62
    7
 10
327.81376
 20
187.93911
 40
1.3135809
 50
65.317733
 51
84.972656
  0
ARC
  8
2-1
  6
CONTINUOUS
 62
    7
 10
328.91084
 20
160.32631
 40
1.3135809
 50
245.31773
 51
294.68226
  0
ARC
  8
2-1
  6
CONTINUOUS
 62
    7
 10
330.00791
 20
160.32631
 40
1.3135809
 50
245.31773
 51
264.97695
  0
ARC
  8
2-1
  6
CONTINUOUS
 62
    7
 10
327.81376
 20
160.32631
 40
1.3135809
 50
275.02734
 51
294.68226
  0
ARC
  8
2-1
  6
CONTINUOUS
 62
    7
 10
328.91084
 20
158.64637
 40
1.3135809
 50
245.31773
 51
294.68226
  0
ARC
  8
2-1
  6
CONTINUOUS
 62
    7
 10
330.00791
 20
158.64637
 40
1.3135809
 50
245.31773
 51
264.97695
  0
ARC
  8
2-1
  6
CONTINUOUS
 62
    7
 10
327.81376
 20
158.64637
 40
1.3135809
 50
275.02734
 51
294.68226
  0
ARC
  8
2-1
  6
CONTINUOUS
 62
    7
 10
369.21581
 20
186.89912
 40
1.3135809
 50
65.317733
 51
114.68226
  0
ARC
  8
2-1
  6
CONTINUOUS
 62
    7
 10
370.31289
 20
186.89912
 40
1.3135809
 50
95.02304
 51
114.68226
  0
ARC
  8
2-1
  6
CONTINUOUS
 62
    7
 10
368.11874
 20
186.89912
 40
1.3135809
 50
65.317733
 51
84.972656
  0
ARC
  8
2-1
  6
CONTINUOUS
 62
    7
 10
369.21581
 20
187.93911
 40
1.3135809
 50
65.317733
 51
114.68226
  0
ARC
  8
2-1
  6
CONTINUOUS
 62
    7
 10
370.31289
 20
187.93911
 40
1.3135809
 50
95.02304
 51
114.68226
  0
ARC
  8
2-1
  6
CONTINUOUS
 62
    7
 10
368.11874
 20
187.93911
 40
1.3135809
 50
65.317733
 51
84.972656
  0
ARC
  8
2-1
  6
CONTINUOUS
 62
    7
 10
369.21581
 20
160.32631
 40
1.3135809
 50
245.31773
 51
294.68226
  0
ARC
  8
2-1
  6
CONTINUOUS
 62
    7
 10
370.31289
 20
160.32631
 40
1.3135809
 50
245.31773
 51
264.97695
  0
ARC
  8
2-1
  6
CONTINUOUS
 62
    7
 10
368.11874
 20
160.32631
 40
1.3135809
 50
275.02734
 51
294.68226
  0
ARC
  8
2-1
  6
CONTINUOUS
 62
    7
 10
369.21581
 20
158.64637
 40
1.3135809
 50
245.31773
 51
294.68226
  0
ARC
  8
2-1
  6
CONTINUOUS
 62
    7
 10
370.31289
 20
158.64637
 40
1.3135809
 50
245.31773
 51
264.97695
  0
ARC
  8
2-1
  6
CONTINUOUS
 62
    7
 10
368.11874
 20
158.64637
 40
1.3135809
 50
275.02734
 51
294.68226
  0
ARC
  8
2-1
  6
CONTINUOUS
 62
    7
 10
374.87266
 20
186.89912
 40
1.3135809
 50
65.317733
 51
114.68226
  0
ARC
  8
2-1
  6
CONTINUOUS
 62
    7
 10
373.77566
 20
186.89912
 40
1.3135809
 50
65.317733
 51
84.976959
  0
ARC
  8
2-1
  6
CONTINUOUS
 62
    7
 10
375.96981
 20
186.89912
 40
1.3135809
 50
95.027343
 51
114.68226
  0
ARC
  8
2-1
  6
CONTINUOUS
 62
    7
 10
374.87266
 20
187.93911
 40
1.3135809
 50
65.317733
 51
114.68226
  0
ARC
  8
2-1
  6
CONTINUOUS
 62
    7
 10
373.77566
 20
187.93911
 40
1.3135809
 50
65.317733
 51
84.976959
  0
ARC
  8
2-1
  6
CONTINUOUS
 62
    7
 10
375.96981
 20
187.93911
 40
1.3135809
 50
95.027343
 51
114.68226
  0
ARC
  8
2-1
  6
CONTINUOUS
 62
    7
 10
374.87266
 20
160.32631
 40
1.3135809
 50
245.31773
 51
294.68226
  0
ARC
  8
2-1
  6
CONTINUOUS
 62
    7
 10
373.77566
 20
160.32631
 40
1.3135809
 50
275.02304
 51
294.68226
  0
ARC
  8
2-1
  6
CONTINUOUS
 62
    7
 10
375.96981
 20
160.32631
 40
1.3135809
 50
245.31773
 51
264.97265
  0
ARC
  8
2-1
  6
CONTINUOUS
 62
    7
 10
374.87266
 20
158.64637
 40
1.3135809
 50
245.31773
 51
294.68226
  0
ARC
  8
2-1
  6
CONTINUOUS
 62
    7
 10
373.77566
 20
158.64637
 40
1.3135809
 50
275.02304
 51
294.68226
  0
ARC
  8
2-1
  6
CONTINUOUS
 62
    7
 10
375.96981
 20
158.64637
 40
1.3135809
 50
245.31773
 51
264.97265
  0
ARC
  8
1-1
  6
CONTINUOUS
 62
    7
 10
144.86875
 20
206.14713
 40
1.0035667
 50
22.987396
 51
95.206024
  0
ARC
  8
1-1
  6
CONTINUOUS
 62
    7
 10
144.56738
 20
208.60151
 40
1.0035667
 50
278.79397
 51
351.0126
  0
ARC
  8
1-1
  6
CONTINUOUS
 62
    7
 10
144.74926
 20
207.37817
 40
0.2333333
 50
97
 51
277
  0
CIRCLE
  8
1-1
  6
CONTINUOUS
 62
    7
 10
144.74926
 20
207.37817
 40
0.1333333
  0
ARC
  8
1-1
  6
CONTINUOUS
 62
    7
 10
145.77488
 20
207.50409
 40
0.8666666
 50
204.56816
 51
267.96409
  0
ARC
  8
1-1
  6
CONTINUOUS
 62
    7
 10
145.77488
 20
207.50409
 40
0.8666666
 50
106.03591
 51
169.43182
  0
ARC
  8
1-1
  6
CONTINUOUS
 62
    7
 10
147.82615
 20
207.75596
 40
0.3333333
 50
295.36907
 51
78.63092
  0
CIRCLE
  8
1-1
  6
CONTINUOUS
 62
    7
 10
147.82615
 20
207.75596
 40
0.1333333
  0
CIRCLE
  8
1-1
  6
CONTINUOUS
 62
    7
 10
147.26371
 20
207.6869
 40
0.25
  0
CIRCLE
  8
1-1
  6
CONTINUOUS
 62
    7
 10
147.26371
 20
207.6869
 40
0.19
  0
ARC
  8
1-1
  6
CONTINUOUS
 62
    7
 10
145.77488
 20
207.50409
 40
0.7866667
 50
208.62031
 51
263.91195
  0
ARC
  8
1-1
  6
CONTINUOUS
 62
    7
 10
145.77488
 20
207.50409
 40
0.7866667
 50
110.08805
 51
165.37966
  0
CIRCLE
  8
1-1
  6
CONTINUOUS
 62
    7
 10
145.77488
 20
207.50409
 40
0.1666666
  0
ARC
  8
1-1
  6
CONTINUOUS
 62
    7
 10
145.77488
 20
207.50409
 40
0.3333333
 50
97
 51
277
  0
ARC
  8
1-1
  6
CONTINUOUS
 62
    7
 10
145.00155
 20
266.57189
 40
0.04
 50
310.78092
 51
49.218856
  0
ARC
  8
1-1
  6
CONTINUOUS
 62
    7
 10
146.54822
 20
266.57189
 40
0.04
 50
130.78114
 51
229.21907
  0
CIRCLE
  8
1-1
  6
CONTINUOUS
 62
    7
 10
145.77488
 20
265.30522
 40
0.1666666
  0
ARC
  8
1-1
  6
CONTINUOUS
 62
    7
 10
145.77488
 20
265.30522
 40
0.3333333
 50
90
 51
270
  0
ARC
  8
1-1
  6
CONTINUOUS
 62
    7
 10
145.77488
 20
265.30522
 40
0.4333333
 50
180
 51
270
  0
ARC
  8
1-1
  6
CONTINUOUS
 62
    7
 10
146.84155
 20
266.20523
 40
0.7333333
 50
180
 51
270
  0
ARC
  8
1-1
  6
CONTINUOUS
 62
    7
 10
145.77488
 20
265.30522
 40
0.7866667
 50
123.42517
 51
326.57484
  0
ARC
  8
1-1
  6
CONTINUOUS
 62
    7
 10
145.77488
 20
265.30522
 40
0.7866667
 50
17.669677
 51
62.642364
  0
ARC
  8
1-1
  6
CONTINUOUS
 62
    7
 10
145.77488
 20
265.30522
 40
0.8666666
 50
119.99998
 51
330.00001
  0
ARC
  8
1-1
  6
CONTINUOUS
 62
    7
 10
145.77488
 20
265.30522
 40
0.8666666
 50
13.454177
 51
66.857772
  0
ARC
  8
1-1
  6
CONTINUOUS
 62
    7
 10
145.00155
 20
257.21188
 40
0.04
 50
310.78114
 51
49.21907
  0
ARC
  8
1-1
  6
CONTINUOUS
 62
    7
 10
146.54822
 20
257.21188
 40
0.04
 50
130.78092
 51
229.21885
  0
CIRCLE
  8
1-1
  6
CONTINUOUS
 62
    7
 10
145.77488
 20
258.47855
 40
0.1666666
  0
ARC
  8
1-1
  6
CONTINUOUS
 62
    7
 10
145.77488
 20
258.47855
 40
0.3333333
 50
90
 51
270
  0
ARC
  8
1-1
  6
CONTINUOUS
 62
    7
 10
145.77488
 20
258.47855
 40
0.4333333
 50
90
 51
180
  0
ARC
  8
1-1
  6
CONTINUOUS
 62
    7
 10
146.84155
 20
257.57854
 40
0.7333333
 50
90
 51
180
  0
ARC
  8
1-1
  6
CONTINUOUS
 62
    7
 10
145.77488
 20
258.47855
 40
0.7866667
 50
33.425155
 51
236.57482
  0
ARC
  8
1-1
  6
CONTINUOUS
 62
    7
 10
145.77488
 20
258.47855
 40
0.7866667
 50
297.35763
 51
342.33032
  0
ARC
  8
1-1
  6
CONTINUOUS
 62
    7
 10
145.77488
 20
258.47855
 40
0.8666666
 50
29.999984
 51
240.00001
  0
ARC
  8
1-1
  6
CONTINUOUS
 62
    7
 10
145.77488
 20
258.47855
 40
0.8666666
 50
293.14222
 51
346.54582
  0
CIRCLE
  8
1-2
  6
CONTINUOUS
 62
    7
 10
252.41054
 20
220.10086
 40
0.0833333
  0
CIRCLE
  8
1-2
  6
CONTINUOUS
 62
    7
 10
252.41054
 20
220.10086
 40
0.05
  0
CIRCLE
  8
1-2
  6
CONTINUOUS
 62
    7
 10
252.86634
 20
219.19842
 40
0.0833333
  0
CIRCLE
  8
1-2
  6
CONTINUOUS
 62
    7
 10
252.86634
 20
219.19842
 40
0.05
  0
TEXT
  8
0-0
 10
323.25882
 20
49.805379
 40
2.5
 41
1
 50
0
  1
DESCRIPTION
  0
TEXT
  8
0-0
 10
357.93273
 20
50.049575
 40
2.5
 41
1
 50
0
  1
MATL
  0
TEXT
  8
0-0
 10
371.11855
 20
49.805379
 40
2.5
 41
1
 50
0
  1
QTY
  0
TEXT
  8
0-0
 10
380.80602
 20
49.805379
 40
2.5
 41
1
 50
0
  1
WEIGHT
  0
TEXT
  8
0-0
 10
396.75772
 20
49.561203
 40
2.5
 41
1
 50
0
  1
NOTE
  0
TEXT
  8
0-0
 10
368.92096
 20
42.470938
 40
2.5
 41
1
 50
0
  1
APPROVED  BY
  0
TEXT
  8
0-0
 10
369.40929
 20
35.878028
 40
2.5
 41
1
 50
0
  1
CHECKED   BY
  0
TEXT
  8
0-0
 10
369.89768
 20
28.796727
 40
2.5
 41
1
 50
0
  1
DESIGNED  BY
  0
TEXT
  8
0-0
 10
369.89768
 20
22.203795
 40
2.5
 41
1
 50
0
  1
DRAWN     BY
  0
TEXT
  8
0-0
 10
386.74626
 20
14.154747
 40
2.5
 41
1
 50
0
  1
DRAWING  NO
  0
TEXT
  8
0-0
 10
323.74721
 20
42.235719
 40
2.5
 41
1
 50
0
  1
TITLE
  0
TEXT
  8
0-0
 10
302.01499
 20
29.049871
 40
2.5
 41
1
 50
0
  1
PRODUCTION NO
  0
TEXT
  8
0-0
 10
302.01499
 20
21.968593
 40
2.5
 41
1
 50
0
  1
SCALE
  0
TEXT
  8
0-0
 10
339.55644
 20
21.968593
 40
2.5
 41
1
 50
0
  1
DATE
  0
TEXT
  8
0-0
 10
311.04967
 20
10.00365
 40
4
 41
1
 50
0
  1
MATSUDA ENGRG CO.LTD.
  0
TEXT
  8
0-0
 10
320.08448
 20
5.119993
 40
2.5
 41
1
 50
0
  1
MATSUDO CHIBA JAPAN
  0
TEXT
  8
0-0
 10
302.99169
 20
9.7594634
 40
3
 41
1
 50
0
  1
MEC
  0
TEXT
  8
0-0
 10
199.62989
 20
282.20179
 40
3
 41
1
 50
0
  1
MEC
  0
TEXT
  8
0-0
 10
300.78391
 20
46.125764
 40
3
 41
1
 50
0
  1
符号
  0
TEXT
  8
0-0
 10
302.89865
 20
49.879778
 40
2.5
 41
1
 50
0
  1
No
  0
TEXT
  8
0-0
 10
322.28521
 20
46.120731
 40
3
 41
1
 50
0
  1
名　　　称
  0
TEXT
  8
0-0
 10
355.38603
 20
46.120731
 40
3
 41
1
 50
0
  1
材　質
  0
TEXT
  8
0-0
 10
368.50141
 20
45.912548
 40
3
 41
1
 50
0
  1
個　数
  0
TEXT
  8
0-0
 10
380.36778
 20
45.912548
 40
3
 41
1
 50
0
  1
重　量
  0
TEXT
  8
0-0
 10
394.16336
 20
46.211301
 40
3
 41
1
 50
0
  1
摘　　要
  0
TEXT
  8
0-0
 10
371.31519
 20
39.174564
 40
3
 41
1
 50
0
  1
承　　認
  0
TEXT
  8
0-0
 10
371.24601
 20
32.316475
 40
3
 41
1
 50
0
  1
検　　図
  0
TEXT
  8
0-0
 10
371.32593
 20
25.365247
 40
3
 41
1
 50
0
  1
設　　計
  0
TEXT
  8
0-0
 10
371.36807
 20
18.588647
 40
3
 41
1
 50
0
  1
製　　図
  0
TEXT
  8
0-0
 10
371.53551
 20
14.067495
 40
3
 41
1
 50
0
  1
図　　番
  0
TEXT
  8
0-0
 10
306.30053
 20
41.599808
 40
3
 41
1
 50
0
  1
名　　称
  0
TEXT
  8
0-0
 10
312.2494
 20
37.078665
 40
4
 41
1
 50
0
  1
ＶＣ－６０Ａ
  0
TEXT
  8
0-0
 10
305.64454
 20
25.557118
 40
3
 41
1
 50
0
  1
製　　番
  0
TEXT
  8
0-0
 10
302.34857
 20
18.569593
 40
3
 41
1
 50
0
  1
尺　度
  0
TEXT
  8
0-0
 10
338.08892
 20
18.569593
 40
3
 41
1
 50
0
  1
日　付
  0
TEXT
  8
1-1
 10
151.67146
 20
126.88321
 40
3
 41
1
 50
0.0001373
  1
30,000
  0
TEXT
  8
1-1
 10
118.83813
 20
93.880381
 40
3
 41
1
 50
0
  1
１０
  0
TEXT
  8
1-1
 10
185.50482
 20
93.880381
 40
3
 41
1
 50
0
  1
２０
  0
TEXT
  8
1-1
 10
225.50487
 20
93.880381
 40
3
 41
1
 50
0
  1
２６
  0
TEXT
  8
1-1
 10
252.17151
 20
93.880381
 40
3
 41
1
 50
0
  1
３０
  0
TEXT
  8
1-1
 10
134.55718
 20
101.13007
 40
3
 41
1
 50
0
  1
旋回半径　Ｍ
  0
TEXT
  8
1-1
 10
245.08253
 20
65.026955
 40
3
 41
1
 50
359.99992
  1
定格荷重　Ｔ
  0
TEXT
  8
1-1
 10
256.19864
 20
80.450671
 40
3
 41
1
 50
0
  1
１．５
  0
TEXT
  8
1-1
 10
256.19864
 20
76.068543
 40
3
 41
1
 50
0
  1
２．０
  0
TEXT
  8
1-1
 10
256.19864
 20
71.701558
 40
3
 41
1
 50
0
  1
２．７
  0
TEXT
  8
0-0
 10
327.88688
 20
32.490348
 40
3
 41
1
 50
0
  1
組立外形図
  0
TEXT
  8
1-1
 10
342.29216
 20
37.447208
 40
3
 41
1
 50
0
  1
１８Ｍ自立
  0
TEXT
  8
1-1
 10
34.991628
 20
38.765079
 40
3
 41
1
 50
90
  1
5,880
  0
TEXT
  8
1-1
 10
35.667757
 20
243.00344
 40
3
 41
1
 50
45.000106
  1
R4,780
  0
TEXT
  8
0-0
 10
5.8494209
 20
279.26953
 40
3
 41
1
 50
0
  1
VC603018
  0
TEXT
  8
2-0
 10
399.03523
 20
169.0427
 40
3
 41
1
 50
90
  1
1,700
  0
TEXT
  8
2-0
 10
393.16232
 20
180.29271
 40
3
 41
1
 50
90
  1
750
  0
TEXT
  8
2-0
 10
388.85021
 20
163.29271
 40
3
 41
1
 50
90
  1
950
  0
TEXT
  8
2-0
 10
386.50636
 20
190.76036
 40
3
 41
1
 50
90
  1
165
  0
TEXT
  8
2-0
 10
386.50636
 20
184.39767
 40
3
 41
1
 50
90
  1
97
  0
TEXT
  8
2-0
 10
386.50636
 20
177.67271
 40
3
 41
1
 50
90
  1
488
  0
TEXT
  8
2-0
 10
368.84307
 20
228.68499
 40
3
 41
1
 50
45
  1
2,850
  0
TEXT
  8
2-0
 10
374.33572
 20
203.48008
 40
3
 41
1
 50
44.999893
  1
400
  0
TEXT
  8
2-0
 10
328.93244
 20
237.83737
 40
3
 41
1
 50
315
  1
3,000
  0
TEXT
  8
2-0
 10
325.28475
 20
206.38806
 40
3
 41
1
 50
315.0001
  1
300
  0
TEXT
  8
2-0
 10
347.64173
 20
262.09516
 40
3
 41
1
 50
0
  1
1,732
  0
TEXT
  8
2-0
 10
377.52714
 20
197.61089
 40
3
 41
1
 50
0
  1
ボルトＭ６４
  0
TEXT
  8
0-0
 10
283.92524
 20
124.58255
 40
3
 41
1
 50
0
  1
型　　式
  0
TEXT
  8
0-0
 10
283.92524
 20
120.58254
 40
3
 41
1
 50
0
  1
定格荷重
  0
TEXT
  8
0-0
 10
283.92524
 20
116.58255
 40
3
 41
1
 50
0
  1
旋回半径
  0
TEXT
  8
0-0
 10
283.92524
 20
112.58255
 40
3
 41
1
 50
0
  1
揚　　程
  0
TEXT
  8
0-0
 10
277.76292
 20
102.45557
 40
3
 41
1
 50
0
  1
速　度
  0
TEXT
  8
0-0
 10
292.05564
 20
108.45557
 40
3
 41
1
 50
0
  1
巻　上
  0
TEXT
  8
0-0
 10
292.05564
 20
104.45558
 40
3
 41
1
 50
0
  1
起　伏
  0
TEXT
  8
0-0
 10
292.05564
 20
100.45557
 40
3
 41
1
 50
0
  1
旋　回
  0
TEXT
  8
0-0
 10
292.05564
 20
96.455574
 40
3
 41
1
 50
0
  1
ｸﾗｲﾐﾝｸﾞ
  0
TEXT
  8
0-0
 10
277.76292
 20
86.455572
 40
3
 41
1
 50
0
  1
電動機
  0
TEXT
  8
0-0
 10
292.05564
 20
92.455573
 40
3
 41
1
 50
0
  1
巻　上
  0
TEXT
  8
0-0
 10
292.05564
 20
88.455572
 40
3
 41
1
 50
0
  1
起　伏
  0
TEXT
  8
0-0
 10
292.05564
 20
84.455571
 40
3
 41
1
 50
0
  1
旋　回
  0
TEXT
  8
0-0
 10
292.05564
 20
80.455571
 40
3
 41
1
 50
0
  1
ｸﾗｲﾐﾝｸﾞ
  0
TEXT
  8
0-0
 10
278.43888
 20
74.426904
 40
3
 41
1
 50
0
  1
安　全　装　置
  0
TEXT
  8
0-0
 10
278.43888
 20
68.426902
 40
3
 41
1
 50
0
  1
自　立　高　さ
  0
TEXT
  8
0-0
 10
278.43888
 20
64.426902
 40
3
 41
1
 50
0
  1
操　作　方　式
  0
TEXT
  8
0-0
 10
278.43888
 20
60.426901
 40
3
 41
1
 50
0
  1
電　　　　　源
  0
TEXT
  8
0-0
 10
306.5762
 20
64.452617
 40
3
 41
1
 50
0
  1
ﾌﾟｯｼｭﾎﾞﾀﾝﾘﾓｰﾄｺﾝﾄﾛｰﾙ（２ヶ所切換式）
  0
TEXT
  8
0-0
 10
306.5762
 20
76.452619
 40
3
 41
1
 50
0
  1
過巻防止・起伏制限・旋回制限　各装置付
  0
TEXT
  8
0-0
 10
306.5762
 20
72.452618
 40
3
 41
1
 50
0
  1
ﾓｰﾒﾝﾄﾘﾐｯﾀｰ装備
  0
TEXT
  8
0-0
 10
306.5762
 20
96.452623
 40
3
 41
1
 50
0
  1
ＵＰ０．６／０．７３m/min　ＤＯＷＮ０．９／１．０５m/min
  0
TEXT
  8
0-0
 10
306.5762
 20
108.45262
 40
3
 41
1
 50
0
  1
高速２１／２５m/min　低速２．５／３．０m/min
  0
TEXT
  8
0-0
 10
328.82186
 20
124.45261
 40
3
 41
1
 50
0
  1
ＶＣ－６０Ａ
  0
TEXT
  8
0-0
 10
302.18563
 20
128.45261
 40
3
 41
1
 50
0
  1
仕　　　　　　　　　　　　　　　様
  0
TEXT
  8
0-0
 10
315.06467
 20
120.45261
 40
3
 41
1
 50
0
  1
２．７ｔ
  0
TEXT
  8
0-0
 10
315.06467
 20
116.45262
 40
3
 41
1
 50
0
  1
２０ｍ
  0
TEXT
  8
0-0
 10
348.06468
 20
120.45261
 40
3
 41
1
 50
0
  1
２．０ｔ
  0
TEXT
  8
0-0
 10
381.06469
 20
120.45261
 40
3
 41
1
 50
0
  1
１．５ｔ
  0
TEXT
  8
0-0
 10
348.06468
 20
116.45262
 40
3
 41
1
 50
0
  1
２６ｍ
  0
TEXT
  8
0-0
 10
381.06469
 20
116.45262
 40
3
 41
1
 50
0
  1
３０ｍ
  0
TEXT
  8
0-0
 10
340.53007
 20
112.45261
 40
3
 41
1
 50
0
  1
９０ｍ
  0
TEXT
  8
0-0
 10
306.5762
 20
104.45261
 40
3
 41
1
 50
0
  1
１１．６／１４．０m/min
  0
TEXT
  8
0-0
 10
306.5762
 20
100.45261
 40
3
 41
1
 50
0
  1
０．５／０．６RPM
  0
TEXT
  8
0-0
 10
315.65009
 20
92.452622
 40
3
 41
1
 50
0
  1
１５／１．９kw
  0
TEXT
  8
0-0
 10
315.65009
 20
88.452621
 40
3
 41
1
 50
0
  1
８．０kw
  0
TEXT
  8
0-0
 10
315.65009
 20
84.452621
 40
3
 41
1
 50
0
  1
２．２kw　ｼﾘｺﾝｶｯﾌﾟﾘﾝｸﾞ内蔵
  0
TEXT
  8
0-0
 10
315.65009
 20
80.45262
 40
3
 41
1
 50
0
  1
３．７kw
  0
TEXT
  8
0-0
 10
327.65102
 20
68.452618
 40
3
 41
1
 50
0
  1
１８Ｍ
  0
TEXT
  8
0-0
 10
306.5762
 20
60.452616
 40
3
 41
1
 50
0
  1
三相 50/60HZ 200/220V
  0
TEXT
  8
1-2
 10
21.233251
 20
123.09913
 40
3
 41
1
 50
90
  1
3,370
  0
TEXT
  8
1-2
 10
21.233251
 20
137.54754
 40
3
 41
1
 50
90
  1
440
  0
TEXT
  8
1-2
 10
21.233251
 20
162.17127
 40
3
 41
1
 50
90
  1
7,472
  0
TEXT
  8
1-2
 10
9.2297295
 20
19.288428
 40
3
 41
1
 50
90
  1
488
  0
TEXT
  8
1-2
 10
9.2297295
 20
77.090074
 40
3
 41
1
 50
90
  1
17,640
  0
TEXT
  8
1-2
 10
14.094594
 20
161.92172
 40
3
 41
1
 50
90
  1
7,547
  0
TEXT
  8
1-2
 10
14.094594
 20
124.31621
 40
3
 41
1
 50
90
  1
3,735
  0
TEXT
  8
1-2
 10
35.631457
 20
127.04986
 40
3
 41
1
 50
0
  1
4,562
  0
TEXT
  8
1-2
 10
316.69213
 20
18.5156
 40
3
 41
1
 50
0
  1
1/150 1/50
  0
TEXT
  8
2-2
 10
358.9043
 20
146.75675
 40
3
 41
1
 50
0
  1
ベース詳細図　縮尺１／５０
  0
POINT
  8
1-1
 62
    4
 10
55.088121
 20
126.54986
  0
POINT
  8
1-1
 62
    4
 10
255.08818
 20
126.54986
  0
POINT
  8
1-1
 62
    4
 10
41.275411
 20
18.918917
  0
POINT
  8
1-1
 62
    4
 10
43.275393
 20
18.918917
  0
POINT
  8
1-1
 62
    4
 10
45.2754
 20
18.918917
  0
POINT
  8
1-1
 62
    4
 10
47.275406
 20
18.918917
  0
POINT
  8
1-1
 62
    4
 10
49.275413
 20
18.918917
  0
POINT
  8
1-1
 62
    4
 10
51.275395
 20
18.918917
  0
POINT
  8
1-1
 62
    4
 10
53.275401
 20
18.918917
  0
POINT
  8
1-1
 62
    4
 10
55.275408
 20
18.918917
  0
POINT
  8
1-1
 62
    4
 10
57.275414
 20
18.918917
  0
POINT
  8
1-1
 62
    4
 10
59.275396
 20
18.918917
  0
POINT
  8
1-1
 62
    4
 10
61.275403
 20
18.918917
  0
POINT
  8
1-1
 62
    4
 10
63.275409
 20
18.918917
  0
POINT
  8
1-1
 62
    4
 10
65.275416
 20
18.918917
  0
POINT
  8
1-1
 62
    4
 10
67.27541
 20
18.918917
  0
POINT
  8
1-1
 62
    4
 10
69.275417
 20
18.918917
  0
POINT
  8
1-1
 62
    4
 10
42.275415
 20
16.91892
  0
POINT
  8
1-1
 62
    4
 10
44.275396
 20
16.91892
  0
POINT
  8
1-1
 62
    4
 10
46.275403
 20
16.91892
  0
POINT
  8
1-1
 62
    4
 10
48.27541
 20
16.91892
  0
POINT
  8
1-1
 62
    4
 10
50.275416
 20
16.91892
  0
POINT
  8
1-1
 62
    4
 10
52.275398
 20
16.91892
  0
POINT
  8
1-1
 62
    4
 10
54.275405
 20
16.91892
  0
POINT
  8
1-1
 62
    4
 10
56.275411
 20
16.91892
  0
POINT
  8
1-1
 62
    4
 10
58.275418
 20
16.91892
  0
POINT
  8
1-1
 62
    4
 10
60.2754
 20
16.91892
  0
POINT
  8
1-1
 62
    4
 10
62.275406
 20
16.91892
  0
POINT
  8
1-1
 62
    4
 10
64.275413
 20
16.91892
  0
POINT
  8
1-1
 62
    4
 10
66.275419
 20
16.91892
  0
POINT
  8
1-1
 62
    4
 10
68.275414
 20
16.91892
  0
POINT
  8
1-1
 62
    4
 10
41.275411
 20
14.91892
  0
POINT
  8
1-1
 62
    4
 10
43.275393
 20
14.91892
  0
POINT
  8
1-1
 62
    4
 10
45.2754
 20
14.91892
  0
POINT
  8
1-1
 62
    4
 10
47.275406
 20
14.91892
  0
POINT
  8
1-1
 62
    4
 10
49.275413
 20
14.91892
  0
POINT
  8
1-1
 62
    4
 10
51.275395
 20
14.91892
  0
POINT
  8
1-1
 62
    4
 10
53.275401
 20
14.91892
  0
POINT
  8
1-1
 62
    4
 10
55.275408
 20
14.91892
  0
POINT
  8
1-1
 62
    4
 10
57.275414
 20
14.91892
  0
POINT
  8
1-1
 62
    4
 10
59.275396
 20
14.91892
  0
POINT
  8
1-1
 62
    4
 10
61.275403
 20
14.91892
  0
POINT
  8
1-1
 62
    4
 10
63.275409
 20
14.91892
  0
POINT
  8
1-1
 62
    4
 10
65.275416
 20
14.91892
  0
POINT
  8
1-1
 62
    4
 10
67.27541
 20
14.91892
  0
POINT
  8
1-1
 62
    4
 10
69.275417
 20
14.91892
  0
POINT
  8
1-1
 62
    4
 10
42.275415
 20
12.918932
  0
POINT
  8
1-1
 62
    4
 10
44.275396
 20
12.918932
  0
POINT
  8
1-1
 62
    4
 10
46.275403
 20
12.918932
  0
POINT
  8
1-1
 62
    4
 10
48.27541
 20
12.918932
  0
POINT
  8
1-1
 62
    4
 10
50.275416
 20
12.918932
  0
POINT
  8
1-1
 62
    4
 10
52.275398
 20
12.918932
  0
POINT
  8
1-1
 62
    4
 10
54.275405
 20
12.918932
  0
POINT
  8
1-1
 62
    4
 10
56.275411
 20
12.918932
  0
POINT
  8
1-1
 62
    4
 10
58.275418
 20
12.918932
  0
POINT
  8
1-1
 62
    4
 10
60.2754
 20
12.918932
  0
POINT
  8
1-1
 62
    4
 10
62.275406
 20
12.918932
  0
POINT
  8
1-1
 62
    4
 10
64.275413
 20
12.918932
  0
POINT
  8
1-1
 62
    4
 10
66.275419
 20
12.918932
  0
POINT
  8
1-1
 62
    4
 10
68.275414
 20
12.918932
  0
POINT
  8
1-1
 62
    4
 10
41.275411
 20
10.918925
  0
POINT
  8
1-1
 62
    4
 10
43.275393
 20
10.918925
  0
POINT
  8
1-1
 62
    4
 10
45.2754
 20
10.918925
  0
POINT
  8
1-1
 62
    4
 10
47.275406
 20
10.918925
  0
POINT
  8
1-1
 62
    4
 10
49.275413
 20
10.918925
  0
POINT
  8
1-1
 62
    4
 10
51.275395
 20
10.918925
  0
POINT
  8
1-1
 62
    4
 10
53.275401
 20
10.918925
  0
POINT
  8
1-1
 62
    4
 10
55.275408
 20
10.918925
  0
POINT
  8
1-1
 62
    4
 10
57.275414
 20
10.918925
  0
POINT
  8
1-1
 62
    4
 10
59.275396
 20
10.918925
  0
POINT
  8
1-1
 62
    4
 10
61.275403
 20
10.918925
  0
POINT
  8
1-1
 62
    4
 10
63.275409
 20
10.918925
  0
POINT
  8
1-1
 62
    4
 10
65.275416
 20
10.918925
  0
POINT
  8
1-1
 62
    4
 10
67.27541
 20
10.918925
  0
POINT
  8
1-1
 62
    4
 10
69.275417
 20
10.918925
  0
POINT
  8
1-1
 62
    4
 10
42.275415
 20
8.9189188
  0
POINT
  8
1-1
 62
    4
 10
44.275396
 20
8.9189188
  0
POINT
  8
1-1
 62
    4
 10
46.275403
 20
8.9189188
  0
POINT
  8
1-1
 62
    4
 10
48.27541
 20
8.9189188
  0
POINT
  8
1-1
 62
    4
 10
50.275416
 20
8.9189188
  0
POINT
  8
1-1
 62
    4
 10
52.275398
 20
8.9189188
  0
POINT
  8
1-1
 62
    4
 10
54.275405
 20
8.9189188
  0
POINT
  8
1-1
 62
    4
 10
56.275411
 20
8.9189188
  0
POINT
  8
1-1
 62
    4
 10
58.275418
 20
8.9189188
  0
POINT
  8
1-1
 62
    4
 10
60.2754
 20
8.9189188
  0
POINT
  8
1-1
 62
    4
 10
62.275406
 20
8.9189188
  0
POINT
  8
1-1
 62
    4
 10
64.275413
 20
8.9189188
  0
POINT
  8
1-1
 62
    4
 10
66.275419
 20
8.9189188
  0
POINT
  8
1-1
 62
    4
 10
68.275414
 20
8.9189188
  0
POINT
  8
1-1
 62
    4
 10
35.491629
 20
23.415112
  0
POINT
  8
1-1
 62
    4
 10
35.491629
 20
62.615048
  0
POINT
  8
1-1
 62
    4
 10
145.77488
 20
207.50409
  0
POINT
  8
2-0
 62
    4
 10
395.22312
 20
156.29269
  0
POINT
  8
2-0
 62
    4
 10
395.22312
 20
190.29271
  0
POINT
  8
2-0
 62
    4
 10
389.35021
 20
190.2927
  0
POINT
  8
2-0
 62
    4
 10
389.35021
 20
175.29274
  0
POINT
  8
2-0
 62
    4
 10
389.35021
 20
156.29269
  0
POINT
  8
2-0
 62
    4
 10
382.69426
 20
190.2927
  0
POINT
  8
2-0
 62
    4
 10
382.69426
 20
186.99266
  0
POINT
  8
2-0
 62
    4
 10
382.69426
 20
185.05268
  0
POINT
  8
2-0
 62
    4
 10
382.69426
 20
175.29274
  0
POINT
  8
2-0
 62
    4
 10
341.16502
 20
199.88121
  0
POINT
  8
2-0
 62
    4
 10
381.4701
 20
240.18629
  0
POINT
  8
2-0
 62
    4
 10
373.62863
 20
202.06588
  0
POINT
  8
2-0
 62
    4
 10
379.28545
 20
207.72271
  0
POINT
  8
2-0
 62
    4
 10
322.72034
 20
242.71443
  0
POINT
  8
2-0
 62
    4
 10
365.14672
 20
200.28804
  0
POINT
  8
2-0
 62
    4
 10
324.57767
 20
206.38804
  0
POINT
  8
2-0
 62
    4
 10
328.82027
 20
202.14544
  0
POINT
  8
2-0
 62
    4
 10
334.56766
 20
261.59515
  0
POINT
  8
2-0
 62
    4
 10
369.21581
 20
261.59515
  0
POINT
  8
1-2
 62
    4
 10
21.733251
 20
138.58089
  0
POINT
  8
1-2
 62
    4
 10
21.733251
 20
116.11735
  0
POINT
  8
1-2
 62
    4
 10
21.733251
 20
141.51417
  0
POINT
  8
1-2
 62
    4
 10
21.733251
 20
191.32838
  0
POINT
  8
1-2
 62
    4
 10
9.7297296
 20
20.161773
  0
POINT
  8
1-2
 62
    4
 10
9.7297296
 20
23.415081
  0
POINT
  8
1-2
 62
    4
 10
14.594594
 20
141.01506
  0
POINT
  8
1-2
 62
    4
 10
14.594594
 20
191.32838
  0
POINT
  8
1-2
 62
    4
 10
14.594594
 20
116.11735
  0
POINT
  8
1-2
 62
    4
 10
24.674797
 20
126.54986
  0
POINT
  8
1-2
 62
    4
 10
55.088121
 20
115.46034
  0
ENDSEC
  0
EOF
