  0
SECTION
  2
HEADER
  9
$EXTMIN
 10
   0.0
 20
   0.0
  9
$EXTMAX
 10
 388.0
 20
 272.0
  9
$LIMMIN
 10
   0.0
 20
   0.0
  9
$LIMMAX
 10
 388.0
 20
 272.0
  9
$LTSCALE
 40
20.0
  9
$TEXTSTYLE
  7
BIGFONT
  9
$CLAYER
  8
0
  0
ENDSEC
  0
SECTION
  2
TABLES
  0
TABLE
  2
STYLE
 70
     2
  0
STYLE
  2
STANDARD
 70
     0
 40
0.0
 41
1.0
 50
0.0
 71
     0
 42
0.2
  3
TXT
  4
BIGFONT
  0
STYLE
  2
KANJI
 70
    64
 40
0.0
 41
1.0
 50
0.0
 71
     0
 42
0.2
  3
TXT
  4
BIGFONT
  0
ENDTAB
  0
TABLE
  2
LTYPE
 70
     2
  0
LTYPE
  2
CONTINUOUS
 70
    64
  3
_____________________________________________
 72
    65
 73
     0
 40
0.375
  0
LTYPE
  2
HIDDEN
 70
    64
  3
_ _ _ _ _ _ _ _ _ _ _ _ _ _ _ _ _ _ _ _ _ _ _
 72
    65
 73
     2
 40
0.375
 49
0.25
 49
-0.125
  0
LTYPE
  2
CENTER
 70
    64
  3
____ _ ____ _ ____ _ ____ _ ____ _ ____ _ ____
 72
    65
 73
     4
 40
2.0
 49
1.25
 49
-0.25
 49
0.25
 49
-0.25
  0
LTYPE
  2
DASHED
 70
    64
  3
__ __ __ __ __ __ __ __ __ __ __ __ __ __ __
 72
    65
 73
     2
 40
0.75
 49
0.5
 49
-0.25
  0
LTYPE
  2
PHANTOM
 70
    64
  3
_____ _ _ _____ _ _ _____ _ _ _____ _ _ ____
 72
    65
 73
     6
 40
2.5
 49
1.25
 49
-0.25
 49
0.25
 49
-0.25
 49
0.25
 49
-0.25
  0
ENDTAB
  0
TABLE
  2
LAYER
 70
    18
  0
LAYER
  2
L-1-1
 70
     0
 62
4
  6
CONTINUOUS
  0
LAYER
  2
L-1-2
 70
     0
 62
6
  6
CONTINUOUS
  0
LAYER
  2
L-1-3
 70
     0
 62
2
  6
CONTINUOUS
  0
LAYER
  2
L-2-1
 70
     0
 62
4
  6
HIDDEN
  0
LAYER
  2
L-2-2
 70
     0
 62
6
  6
HIDDEN
  0
LAYER
  2
L-2-3
 70
     0
 62
2
  6
HIDDEN
  0
LAYER
  2
L-3-1
 70
     0
 62
4
  6
CENTER
  0
LAYER
  2
L-3-2
 70
     0
 62
6
  6
CENTER
  0
LAYER
  2
L-3-3
 70
     0
 62
2
  6
CENTER
  0
LAYER
  2
L-4-1
 70
     0
 62
4
  6
DASHED
  0
LAYER
  2
L-4-2
 70
     0
 62
6
  6
DASHED
  0
LAYER
  2
L-4-3
 70
     0
 62
2
  6
DASHED
  0
LAYER
  2
L-5-1
 70
     0
 62
4
  6
PHANTOM
  0
LAYER
  2
L-5-2
 70
     0
 62
6
  6
PHANTOM
  0
LAYER
  2
L-5-3
 70
     0
 62
2
  6
PHANTOM
  0
LAYER
  2
TSHIN
 70
     0
 62
3
  6
CENTER
  0
LAYER
  2
SPLIN
 70
    64
 62
3
  6
CONTINUOUS
  0
LAYER
  2
SPTXT
 70
    64
 62
2
  6
CONTINUOUS
  0
LAYER
  2
NTEXT
 70
    64
 62
2
  6
CONTINUOUS
  0
LAYER
  2
KGLIN
 70
    64
 62
3
  6
CONTINUOUS
  0
LAYER
  2
KGTXT
 70
    64
 62
6
  6
CONTINUOUS
  0
ENDTAB
  0
ENDSEC
  0
SECTION
  2
ENTITIES
  0
LINE
  8
L-1-1
 10
2555.04
 20
5737.20
 11
2567.43
 21
5737.20
  0
LINE
  8
L-1-1
 10
2555.04
 20
1737.20
 11
2567.43
 21
1737.20
  0
LINE
  8
L-1-1
 10
2569.23
 20
1737.20
 11
2588.14
 21
1737.20
  0
LINE
  8
L-1-1
 10
2569.23
 20
5737.20
 11
2588.14
 21
5737.20
  0
LINE
  8
L-1-1
 10
320.77
 20
2082.02
 11
333.16
 21
2082.02
  0
LINE
  8
L-1-1
 10
320.77
 20
-1917.98
 11
333.16
 21
-1917.98
  0
LINE
  8
L-1-1
 10
334.96
 20
-1917.98
 11
353.87
 21
-1917.98
  0
LINE
  8
L-1-1
 10
334.96
 20
2082.02
 11
353.87
 21
2082.02
  0
LINE
  8
L-1-1
 10
336.91
 20
2092.17
 11
349.30
 21
2092.17
  0
LINE
  8
L-1-1
 10
336.91
 20
-1907.83
 11
349.30
 21
-1907.83
  0
LINE
  8
L-1-1
 10
351.10
 20
-1907.83
 11
370.01
 21
-1907.83
  0
LINE
  8
L-1-1
 10
351.10
 20
2092.17
 11
370.01
 21
2092.17
  0
LINE
  8
L-1-1
 10
92806.81
 20
125734.88
 11
92811.50
 21
125734.88
  0
LINE
  8
L-1-1
 10
276.58
 20
1.53
 11
276.58
 21
50.03
  0
LINE
  8
L-1-1
 10
343.58
 20
1.53
 11
343.58
 21
50.03
  0
LINE
  8
L-1-1
 10
355.53
 20
42.73
 11
355.53
 21
49.85
  0
LINE
  8
L-1-1
 10
330.08
 20
42.73
 11
330.08
 21
50.03
  0
LINE
  8
L-1-1
 10
283.58
 20
42.73
 11
283.58
 21
50.03
  0
LINE
  8
L-1-1
 10
286.12
 20
33.58
 11
338.71
 21
33.58
  0
LINE
  8
L-1-1
 10
367.91
 20
15.06
 11
367.91
 21
50.03
  0
LINE
  8
L-1-1
 10
352.84
 20
4.28
 11
358.70
 21
4.28
  0
LINE
  8
L-1-1
 10
365.30
 20
4.28
 11
372.13
 21
4.28
  0
LINE
  8
L-1-1
 10
290.08
 20
15.27
 11
290.08
 21
22.11
  0
LINE
  8
L-1-1
 10
305.58
 20
15.27
 11
305.58
 21
22.11
  0
LINE
  8
L-1-1
 10
319.08
 20
15.27
 11
319.08
 21
22.11
  0
LINE
  8
L-1-1
 10
277.46
 20
8.58
 11
281.48
 21
11.73
  0
LINE
  8
L-1-1
 10
277.46
 20
8.58
 11
281.48
 21
5.38
  0
LINE
  8
L-1-1
 10
281.48
 20
5.38
 11
285.53
 21
8.55
  0
LINE
  8
L-1-1
 10
281.48
 20
11.78
 11
285.53
 21
8.55
  0
LINE
  8
L-1-1
 10
194.10
 20
271.03
 11
198.12
 21
274.17
  0
LINE
  8
L-1-1
 10
194.10
 20
271.03
 11
198.12
 21
267.83
  0
LINE
  8
L-1-1
 10
198.12
 20
267.83
 11
202.17
 21
271.00
  0
LINE
  8
L-1-1
 10
198.12
 20
274.22
 11
202.17
 21
271.00
  0
LINE
  8
L-1-1
 10
276.58
 20
15.03
 11
385.54
 21
15.03
  0
LINE
  8
L-1-1
 10
276.58
 20
22.03
 11
385.54
 21
22.03
  0
LINE
  8
L-1-1
 10
343.64
 20
35.78
 11
385.54
 21
35.78
  0
LINE
  8
L-1-1
 10
276.58
 20
50.03
 11
385.12
 21
50.03
  0
LINE
  8
L-1-1
 10
276.58
 20
29.03
 11
385.53
 21
29.03
  0
LINE
  8
L-1-1
 10
276.58
 20
42.53
 11
385.44
 21
42.53
  0
LINE
  8
L-1-1
 10
298.58
 20
22.11
 11
298.58
 21
28.83
  0
LINE
  8
L-1-2
 10
1.44
 20
270.99
 11
194.10
 21
270.99
  0
LINE
  8
L-1-2
 10
202.16
 20
270.99
 11
385.57
 21
270.99
  0
LINE
  8
L-1-2
 10
385.57
 20
1.26
 11
385.57
 21
270.99
  0
LINE
  8
L-1-2
 10
1.44
 20
1.26
 11
1.44
 21
270.99
  0
LINE
  8
L-1-2
 10
1.44
 20
1.26
 11
385.57
 21
1.26
  0
LINE
  8
L-1-1
 10
336.91
 20
2092.17
 11
349.30
 21
2092.17
  0
LINE
  8
L-1-1
 10
336.91
 20
-1907.83
 11
349.30
 21
-1907.83
  0
LINE
  8
L-1-1
 10
351.10
 20
-1907.83
 11
370.01
 21
-1907.83
  0
LINE
  8
L-1-1
 10
351.10
 20
2092.17
 11
370.01
 21
2092.17
  0
LINE
  8
L-1-1
 10
315.10
 20
103.73
 11
315.10
 21
109.07
  0
LINE
  8
L-1-1
 10
152.16
 20
237.89
 11
151.62
 21
239.81
  0
LINE
  8
L-1-1
 10
151.01
 20
239.33
 11
150.76
 21
240.22
  0
LINE
  8
L-1-1
 10
151.10
 20
239.32
 11
150.84
 21
240.24
  0
LINE
  8
L-1-1
 10
152.32
 20
239.66
 11
152.05
 21
240.59
  0
LINE
  8
L-1-1
 10
152.38
 20
239.72
 11
152.13
 21
240.61
  0
LINE
  8
L-1-1
 10
150.76
 20
240.22
 11
152.13
 21
240.61
  0
LINE
  8
L-1-1
 10
151.56
 20
238.79
 11
151.45
 21
239.17
  0
LINE
  8
L-1-1
 10
151.45
 20
239.17
 11
152.09
 21
239.35
  0
LINE
  8
L-1-1
 10
152.20
 20
238.97
 11
152.09
 21
239.35
  0
LINE
  8
L-1-1
 10
151.58
 20
238.90
 11
151.72
 21
238.94
  0
LINE
  8
L-1-1
 10
151.98
 20
239.01
 11
152.13
 21
239.05
  0
LINE
  8
L-1-1
 10
151.58
 20
238.90
 11
151.53
 21
239.08
  0
LINE
  8
L-1-1
 10
151.53
 20
239.08
 11
151.58
 21
239.17
  0
LINE
  8
L-1-1
 10
151.58
 20
239.17
 11
151.99
 21
239.29
  0
LINE
  8
L-1-1
 10
152.13
 20
239.05
 11
152.07
 21
239.24
  0
LINE
  8
L-1-1
 10
151.99
 20
239.29
 11
152.07
 21
239.24
  0
LINE
  8
L-1-1
 10
151.64
 20
239.05
 11
151.72
 21
239.07
  0
LINE
  8
L-1-1
 10
151.97
 20
239.15
 11
152.05
 21
239.17
  0
LINE
  8
L-1-1
 10
151.67
 20
239.02
 11
151.65
 21
239.09
  0
LINE
  8
L-1-1
 10
151.99
 20
239.11
 11
151.97
 21
239.18
  0
LINE
  8
L-1-1
 10
151.53
 20
238.68
 11
151.02
 21
239.60
  0
LINE
  8
L-1-1
 10
152.28
 20
238.89
 11
152.24
 21
239.95
  0
LINE
  8
L-1-1
 10
151.18
 20
238.68
 11
152.23
 21
238.98
  0
LINE
  8
L-1-1
 10
183.28
 20
114.71
 11
183.17
 21
114.98
  0
LINE
  8
L-1-1
 10
183.79
 20
114.85
 11
183.74
 21
115.14
  0
LINE
  8
L-1-1
 10
172.04
 20
153.20
 11
172.00
 21
153.32
  0
LINE
  8
L-1-1
 10
172.04
 20
153.20
 11
173.19
 21
153.53
  0
LINE
  8
L-1-1
 10
173.19
 20
153.53
 11
173.16
 21
153.65
  0
LINE
  8
L-1-1
 10
172.00
 20
153.32
 11
173.16
 21
153.65
  0
LINE
  8
L-1-1
 10
183.17
 20
114.98
 11
172.33
 21
153.28
  0
LINE
  8
L-1-1
 10
183.74
 20
115.14
 11
172.90
 21
153.45
  0
LINE
  8
L-1-1
 10
188.09
 20
116.07
 11
187.98
 21
116.34
  0
LINE
  8
L-1-1
 10
188.60
 20
116.21
 11
188.55
 21
116.50
  0
LINE
  8
L-1-1
 10
176.85
 20
154.56
 11
176.81
 21
154.68
  0
LINE
  8
L-1-1
 10
176.85
 20
154.56
 11
178.00
 21
154.89
  0
LINE
  8
L-1-1
 10
178.00
 20
154.89
 11
177.97
 21
155.01
  0
LINE
  8
L-1-1
 10
176.81
 20
154.68
 11
177.97
 21
155.01
  0
LINE
  8
L-1-1
 10
183.56
 20
115.76
 11
187.80
 21
116.96
  0
LINE
  8
L-1-1
 10
183.62
 20
115.55
 11
187.86
 21
116.75
  0
LINE
  8
L-1-1
 10
182.54
 20
119.39
 11
187.69
 21
117.38
  0
LINE
  8
L-1-1
 10
182.61
 20
119.12
 11
187.76
 21
117.10
  0
LINE
  8
L-1-1
 10
182.49
 20
119.55
 11
185.82
 21
123.96
  0
LINE
  8
L-1-1
 10
182.41
 20
119.82
 11
185.74
 21
124.24
  0
LINE
  8
L-1-1
 10
180.43
 20
126.84
 11
183.76
 21
131.26
  0
LINE
  8
L-1-1
 10
180.35
 20
127.12
 11
183.68
 21
131.53
  0
LINE
  8
L-1-1
 10
180.47
 20
126.69
 11
185.62
 21
124.67
  0
LINE
  8
L-1-1
 10
180.55
 20
126.41
 11
185.70
 21
124.40
  0
LINE
  8
L-1-1
 10
178.41
 20
133.98
 11
183.56
 21
131.97
  0
LINE
  8
L-1-1
 10
178.49
 20
133.71
 11
183.63
 21
131.69
  0
LINE
  8
L-1-1
 10
178.31
 20
134.34
 11
182.55
 21
135.54
  0
LINE
  8
L-1-1
 10
178.37
 20
134.12
 11
182.61
 21
135.32
  0
LINE
  8
L-1-1
 10
173.11
 20
152.69
 11
177.35
 21
153.89
  0
LINE
  8
L-1-1
 10
173.05
 20
152.91
 11
177.29
 21
154.11
  0
LINE
  8
L-1-1
 10
174.14
 20
149.06
 11
177.47
 21
153.48
  0
LINE
  8
L-1-1
 10
174.06
 20
149.34
 11
177.39
 21
153.75
  0
LINE
  8
L-1-1
 10
174.18
 20
148.90
 11
179.33
 21
146.89
  0
LINE
  8
L-1-1
 10
174.26
 20
148.63
 11
179.41
 21
146.62
  0
LINE
  8
L-1-1
 10
176.25
 20
141.61
 11
181.40
 21
139.59
  0
LINE
  8
L-1-1
 10
176.33
 20
141.33
 11
181.48
 21
139.32
  0
LINE
  8
L-1-1
 10
176.20
 20
141.77
 11
179.53
 21
146.18
  0
LINE
  8
L-1-1
 10
176.13
 20
142.04
 11
179.46
 21
146.46
  0
LINE
  8
L-1-1
 10
178.27
 20
134.47
 11
181.60
 21
138.89
  0
LINE
  8
L-1-1
 10
178.19
 20
134.75
 11
181.52
 21
139.16
  0
LINE
  8
L-1-1
 10
172.00
 20
153.32
 11
171.97
 21
153.44
  0
LINE
  8
L-1-1
 10
171.97
 20
153.44
 11
173.12
 21
153.77
  0
LINE
  8
L-1-1
 10
173.16
 20
153.65
 11
173.12
 21
153.77
  0
LINE
  8
L-1-1
 10
172.00
 20
153.32
 11
173.16
 21
153.65
  0
LINE
  8
L-1-1
 10
176.81
 20
154.68
 11
176.78
 21
154.81
  0
LINE
  8
L-1-1
 10
176.78
 20
154.81
 11
177.93
 21
155.13
  0
LINE
  8
L-1-1
 10
177.97
 20
155.01
 11
177.93
 21
155.13
  0
LINE
  8
L-1-1
 10
176.81
 20
154.68
 11
177.97
 21
155.01
  0
LINE
  8
L-1-1
 10
162.17
 20
191.37
 11
166.41
 21
192.57
  0
LINE
  8
L-1-1
 10
162.11
 20
191.59
 11
166.35
 21
192.79
  0
LINE
  8
L-1-1
 10
163.19
 20
187.74
 11
166.52
 21
192.16
  0
LINE
  8
L-1-1
 10
163.12
 20
188.02
 11
166.45
 21
192.43
  0
LINE
  8
L-1-1
 10
163.24
 20
187.58
 11
168.39
 21
185.57
  0
LINE
  8
L-1-1
 10
163.32
 20
187.31
 11
168.47
 21
185.30
  0
LINE
  8
L-1-1
 10
165.30
 20
180.29
 11
170.45
 21
178.28
  0
LINE
  8
L-1-1
 10
165.38
 20
180.02
 11
170.53
 21
178.00
  0
LINE
  8
L-1-1
 10
165.26
 20
180.45
 11
168.59
 21
184.86
  0
LINE
  8
L-1-1
 10
165.18
 20
180.72
 11
168.51
 21
185.14
  0
LINE
  8
L-1-1
 10
167.32
 20
173.15
 11
170.65
 21
177.57
  0
LINE
  8
L-1-1
 10
167.24
 20
173.43
 11
170.57
 21
177.84
  0
LINE
  8
L-1-1
 10
167.42
 20
172.80
 11
171.66
 21
174.00
  0
LINE
  8
L-1-1
 10
167.36
 20
173.02
 11
171.60
 21
174.22
  0
LINE
  8
L-1-1
 10
172.62
 20
154.45
 11
176.86
 21
155.65
  0
LINE
  8
L-1-1
 10
172.68
 20
154.23
 11
176.92
 21
155.43
  0
LINE
  8
L-1-1
 10
171.59
 20
158.07
 11
176.74
 21
156.06
  0
LINE
  8
L-1-1
 10
171.67
 20
157.80
 11
176.82
 21
155.78
  0
LINE
  8
L-1-1
 10
171.55
 20
158.23
 11
174.88
 21
162.64
  0
LINE
  8
L-1-1
 10
171.47
 20
158.50
 11
174.80
 21
162.92
  0
LINE
  8
L-1-1
 10
169.48
 20
165.53
 11
172.81
 21
169.94
  0
LINE
  8
L-1-1
 10
169.40
 20
165.80
 11
172.73
 21
170.21
  0
LINE
  8
L-1-1
 10
169.53
 20
165.37
 11
174.68
 21
163.35
  0
LINE
  8
L-1-1
 10
169.60
 20
165.09
 11
174.75
 21
163.08
  0
LINE
  8
L-1-1
 10
167.46
 20
172.66
 11
172.61
 21
170.65
  0
LINE
  8
L-1-1
 10
167.54
 20
172.39
 11
172.69
 21
170.37
  0
LINE
  8
L-1-1
 10
161.09
 20
191.88
 11
161.06
 21
192.00
  0
LINE
  8
L-1-1
 10
161.09
 20
191.88
 11
162.25
 21
192.21
  0
LINE
  8
L-1-1
 10
162.25
 20
192.21
 11
162.21
 21
192.33
  0
LINE
  8
L-1-1
 10
161.06
 20
192.00
 11
162.21
 21
192.33
  0
LINE
  8
L-1-1
 10
165.90
 20
193.24
 11
165.87
 21
193.37
  0
LINE
  8
L-1-1
 10
165.90
 20
193.24
 11
167.06
 21
193.57
  0
LINE
  8
L-1-1
 10
167.06
 20
193.57
 11
167.02
 21
193.69
  0
LINE
  8
L-1-1
 10
165.87
 20
193.37
 11
167.02
 21
193.69
  0
LINE
  8
L-1-1
 10
161.06
 20
192.00
 11
162.21
 21
192.33
  0
LINE
  8
L-1-1
 10
165.87
 20
193.37
 11
167.02
 21
193.69
  0
LINE
  8
L-1-1
 10
177.07
 20
154.89
 11
166.19
 21
193.33
  0
LINE
  8
L-1-1
 10
177.64
 20
155.05
 11
166.76
 21
193.49
  0
LINE
  8
L-1-1
 10
172.26
 20
153.53
 11
161.38
 21
191.96
  0
LINE
  8
L-1-1
 10
172.83
 20
153.69
 11
161.95
 21
192.13
  0
LINE
  8
L-1-1
 10
181.15
 20
120.94
 11
181.45
 21
121.03
  0
LINE
  8
L-1-1
 10
181.09
 20
121.16
 11
181.39
 21
121.25
  0
LINE
  8
L-1-1
 10
180.53
 20
121.29
 11
171.89
 21
151.85
  0
LINE
  8
L-1-1
 10
172.23
 20
152.47
 11
172.53
 21
152.55
  0
LINE
  8
L-1-1
 10
180.75
 20
121.35
 11
172.10
 21
151.91
  0
LINE
  8
L-1-1
 10
172.29
 20
152.25
 11
172.60
 21
152.33
  0
LINE
  8
L-1-1
 10
161.28
 20
191.15
 11
161.59
 21
191.23
  0
LINE
  8
L-1-1
 10
171.75
 20
154.17
 11
172.05
 21
154.26
  0
LINE
  8
L-1-1
 10
171.69
 20
154.39
 11
171.99
 21
154.48
  0
LINE
  8
L-1-1
 10
161.35
 20
190.93
 11
161.65
 21
191.02
  0
LINE
  8
L-1-1
 10
171.13
 20
154.52
 11
160.94
 21
190.53
  0
LINE
  8
L-1-1
 10
171.35
 20
154.58
 11
161.16
 21
190.59
  0
LINE
  8
L-1-1
 10
161.06
 20
192.00
 11
161.02
 21
192.13
  0
LINE
  8
L-1-1
 10
161.02
 20
192.13
 11
162.18
 21
192.45
  0
LINE
  8
L-1-1
 10
162.21
 20
192.33
 11
162.18
 21
192.45
  0
LINE
  8
L-1-1
 10
161.06
 20
192.00
 11
162.21
 21
192.33
  0
LINE
  8
L-1-1
 10
165.87
 20
193.37
 11
165.83
 21
193.49
  0
LINE
  8
L-1-1
 10
165.83
 20
193.49
 11
166.99
 21
193.81
  0
LINE
  8
L-1-1
 10
167.02
 20
193.69
 11
166.99
 21
193.81
  0
LINE
  8
L-1-1
 10
165.87
 20
193.37
 11
167.02
 21
193.69
  0
LINE
  8
L-1-1
 10
161.06
 20
192.00
 11
162.21
 21
192.33
  0
LINE
  8
L-1-1
 10
165.87
 20
193.37
 11
167.02
 21
193.69
  0
LINE
  8
L-1-1
 10
161.73
 20
193.14
 11
165.88
 21
194.32
  0
LINE
  8
L-1-1
 10
161.78
 20
192.92
 11
165.95
 21
194.10
  0
LINE
  8
L-1-1
 10
161.32
 20
192.21
 11
151.51
 21
237.97
  0
LINE
  8
L-1-1
 10
166.69
 20
193.73
 11
152.55
 21
238.16
  0
LINE
  8
L-1-1
 10
163.92
 20
201.53
 11
163.93
 21
201.55
  0
LINE
  8
L-1-1
 10
163.73
 20
201.66
 11
163.74
 21
201.67
  0
LINE
  8
L-1-1
 10
161.68
 20
208.80
 11
161.73
 21
208.89
  0
LINE
  8
L-1-1
 10
161.00
 20
196.54
 11
165.83
 21
194.47
  0
LINE
  8
L-1-1
 10
160.96
 20
196.80
 11
165.74
 21
194.75
  0
LINE
  8
L-1-1
 10
160.90
 20
197.01
 11
163.69
 21
201.19
  0
LINE
  8
L-1-1
 10
160.83
 20
197.31
 11
163.61
 21
201.47
  0
LINE
  8
L-1-1
 10
159.43
 20
203.88
 11
163.54
 21
201.69
  0
LINE
  8
L-1-1
 10
159.36
 20
204.17
 11
163.44
 21
202.00
  0
LINE
  8
L-1-1
 10
159.23
 20
204.77
 11
161.33
 21
208.63
  0
LINE
  8
L-1-1
 10
159.34
 20
204.50
 11
161.42
 21
208.33
  0
LINE
  8
L-1-1
 10
157.86
 20
211.20
 11
161.23
 21
208.93
  0
LINE
  8
L-1-1
 10
157.79
 20
211.52
 11
161.12
 21
209.28
  0
LINE
  8
L-1-1
 10
157.64
 20
212.23
 11
159.06
 21
215.76
  0
LINE
  8
L-1-1
 10
157.55
 20
212.62
 11
158.95
 21
216.10
  0
LINE
  8
L-1-1
 10
157.69
 20
211.96
 11
160.06
 21
212.62
  0
LINE
  8
L-1-1
 10
157.74
 20
211.73
 11
160.13
 21
212.41
  0
LINE
  8
L-1-1
 10
156.22
 20
218.81
 11
158.79
 21
216.55
  0
LINE
  8
L-1-1
 10
156.14
 20
219.18
 11
158.68
 21
216.95
  0
LINE
  8
L-1-1
 10
156.03
 20
219.72
 11
156.82
 21
222.80
  0
LINE
  8
L-1-1
 10
155.92
 20
220.22
 11
156.69
 21
223.21
  0
LINE
  8
L-1-1
 10
156.48
 20
223.86
 11
154.68
 21
225.99
  0
LINE
  8
L-1-1
 10
156.30
 20
224.42
 11
154.58
 21
226.46
  0
LINE
  8
L-1-1
 10
154.35
 20
227.61
 11
154.40
 21
230.40
  0
LINE
  8
L-1-1
 10
154.14
 20
228.51
 11
154.19
 21
231.08
  0
LINE
  8
L-1-1
 10
153.49
 20
231.55
 11
153.99
 21
231.69
  0
LINE
  8
L-1-1
 10
153.54
 20
231.33
 11
154.06
 21
231.48
  0
LINE
  8
L-1-1
 10
161.89
 20
192.37
 11
152.37
 21
236.80
  0
LINE
  8
L-1-1
 10
166.12
 20
193.57
 11
152.37
 21
236.80
  0
LINE
  8
L-1-1
 10
160.43
 20
192.85
 11
160.46
 21
192.85
  0
LINE
  8
L-1-1
 10
152.62
 20
231.25
 11
152.93
 21
231.32
  0
LINE
  8
L-1-1
 10
152.67
 20
231.03
 11
152.98
 21
231.09
  0
LINE
  8
L-1-1
 10
160.89
 20
192.71
 11
161.20
 21
192.78
  0
LINE
  8
L-1-1
 10
160.30
 20
193.10
 11
152.24
 21
230.66
  0
LINE
  8
L-1-1
 10
160.52
 20
193.15
 11
152.46
 21
230.70
  0
LINE
  8
L-1-1
 10
160.84
 20
192.94
 11
161.15
 21
193.00
  0
LINE
  8
L-1-1
 10
183.37
 20
114.44
 11
183.27
 21
114.72
  0
LINE
  8
L-1-1
 10
183.91
 20
114.69
 11
183.78
 21
114.90
  0
LINE
  8
L-1-1
 10
183.17
 20
114.98
 11
183.74
 21
115.14
  0
LINE
  8
L-1-1
 10
183.14
 20
115.06
 11
183.72
 21
115.22
  0
LINE
  8
L-1-1
 10
188.10
 20
115.85
 11
188.68
 21
115.96
  0
LINE
  8
L-1-1
 10
188.11
 20
115.77
 11
188.69
 21
115.88
  0
LINE
  8
L-1-1
 10
188.10
 20
115.85
 11
188.07
 21
116.10
  0
LINE
  8
L-1-1
 10
188.68
 20
115.96
 11
188.60
 21
116.21
  0
LINE
  8
L-1-1
 10
187.98
 20
116.34
 11
177.14
 21
154.64
  0
LINE
  8
L-1-1
 10
187.98
 20
116.34
 11
188.55
 21
116.50
  0
LINE
  8
L-1-1
 10
188.55
 20
116.50
 11
177.71
 21
154.81
  0
LINE
  8
L-1-1
 10
187.96
 20
116.42
 11
188.53
 21
116.58
  0
LINE
  8
L-1-1
 10
183.37
 20
114.44
 11
183.91
 21
114.69
  0
LINE
  8
L-1-1
 10
183.40
 20
114.37
 11
183.94
 21
114.62
  0
LINE
  8
L-1-1
 10
184.11
 20
114.26
 11
188.18
 21
115.41
  0
LINE
  8
L-1-1
 10
184.20
 20
114.05
 11
188.23
 21
115.19
  0
LINE
  8
L-1-1
 10
185.99
 20
110.21
 11
188.35
 21
114.54
  0
LINE
  8
L-1-1
 10
185.87
 20
110.46
 11
188.29
 21
114.89
  0
LINE
  8
L-1-1
 10
195.83
 20
94.79
 11
195.83
 21
94.95
  0
LINE
  8
L-1-1
 10
194.03
 20
110.53
 11
194.03
 21
112.07
  0
LINE
  8
L-1-1
 10
192.44
 20
112.42
 11
194.02
 21
112.07
  0
LINE
  8
L-1-1
 10
192.69
 20
110.53
 11
194.03
 21
110.53
  0
LINE
  8
L-1-1
 10
192.69
 20
110.53
 11
192.03
 21
111.91
  0
LINE
  8
L-1-1
 10
194.01
 20
112.07
 11
195.36
 21
112.07
  0
LINE
  8
L-1-1
 10
191.47
 20
95.83
 11
192.51
 21
95.83
  0
LINE
  8
L-1-1
 10
192.38
 20
94.94
 11
192.03
 21
95.67
  0
LINE
  8
L-1-1
 10
192.36
 20
111.55
 11
192.36
 21
112.41
  0
LINE
  8
L-1-1
 10
192.36
 20
94.99
 11
192.36
 21
96.37
  0
LINE
  8
L-1-1
 10
196.05
 20
95.01
 11
195.74
 21
95.47
  0
LINE
  8
L-1-1
 10
192.36
 20
96.19
 11
192.68
 21
96.19
  0
LINE
  8
L-1-1
 10
191.47
 20
95.23
 11
192.51
 21
95.23
  0
LINE
  8
L-1-1
 10
192.02
 20
95.53
 11
192.53
 21
95.53
  0
LINE
  8
L-1-1
 10
192.36
 20
94.79
 11
192.36
 21
94.86
  0
LINE
  8
L-1-1
 10
193.03
 20
94.94
 11
193.03
 21
110.54
  0
LINE
  8
L-1-1
 10
193.36
 20
96.19
 11
195.75
 21
95.46
  0
LINE
  8
L-1-1
 10
193.04
 20
96.19
 11
193.36
 21
96.19
  0
LINE
  8
L-1-1
 10
193.36
 20
96.19
 11
193.36
 21
110.54
  0
LINE
  8
L-1-1
 10
195.36
 20
95.62
 11
195.36
 21
112.07
  0
LINE
  8
L-1-1
 10
192.36
 20
94.79
 11
195.56
 21
94.79
  0
LINE
  8
L-1-1
 10
192.38
 20
94.94
 11
195.57
 21
94.94
  0
LINE
  8
L-1-1
 10
187.12
 20
110.20
 11
192.69
 21
110.20
  0
LINE
  8
L-1-1
 10
187.12
 20
109.97
 11
192.69
 21
109.97
  0
LINE
  8
L-1-1
 10
192.69
 20
95.01
 11
192.69
 21
110.54
  0
LINE
  8
L-1-1
 10
186.89
 20
95.97
 11
186.89
 21
111.51
  0
LINE
  8
L-1-1
 10
187.12
 20
96.19
 11
187.12
 21
111.51
  0
LINE
  8
L-1-1
 10
187.79
 20
95.53
 11
192.69
 21
95.53
  0
LINE
  8
L-1-1
 10
194.63
 20
103.60
 11
194.63
 21
108.27
  0
LINE
  8
L-1-1
 10
193.37
 20
103.60
 11
194.63
 21
103.60
  0
LINE
  8
L-1-1
 10
193.38
 20
108.27
 11
194.63
 21
108.27
  0
LINE
  8
L-1-1
 10
191.13
 20
105.13
 11
191.13
 21
107.67
  0
LINE
  8
L-1-1
 10
188.05
 20
106.74
 11
188.28
 21
106.84
  0
LINE
  8
L-1-1
 10
188.05
 20
106.07
 11
188.05
 21
106.74
  0
LINE
  8
L-1-1
 10
188.05
 20
106.07
 11
188.29
 21
105.97
  0
LINE
  8
L-1-1
 10
188.29
 20
106.83
 11
188.38
 21
107.00
  0
LINE
  8
L-1-1
 10
188.29
 20
105.97
 11
188.29
 21
106.83
  0
LINE
  8
L-1-1
 10
188.38
 20
105.80
 11
188.29
 21
105.97
  0
LINE
  8
L-1-1
 10
188.39
 20
105.74
 11
188.39
 21
107.06
  0
LINE
  8
L-1-1
 10
188.45
 20
105.74
 11
188.45
 21
107.06
  0
LINE
  8
L-1-1
 10
188.49
 20
105.74
 11
188.49
 21
107.06
  0
LINE
  8
L-1-1
 10
189.72
 20
105.74
 11
189.72
 21
107.06
  0
LINE
  8
L-1-1
 10
189.69
 20
105.74
 11
189.69
 21
107.06
  0
LINE
  8
L-1-1
 10
188.39
 20
107.06
 11
189.79
 21
107.06
  0
LINE
  8
L-1-1
 10
188.39
 20
105.74
 11
189.79
 21
105.74
  0
LINE
  8
L-1-1
 10
189.79
 20
105.74
 11
189.79
 21
107.06
  0
LINE
  8
L-1-1
 10
193.03
 20
79.53
 11
193.03
 21
94.83
  0
LINE
  8
L-1-1
 10
190.33
 20
88.37
 11
190.96
 21
88.37
  0
LINE
  8
L-1-1
 10
192.59
 20
94.83
 11
193.03
 21
94.83
  0
LINE
  8
L-1-1
 10
192.59
 20
79.53
 11
192.59
 21
94.83
  0
LINE
  8
L-1-1
 10
186.89
 20
79.57
 11
192.59
 21
79.57
  0
LINE
  8
L-1-1
 10
187.76
 20
94.52
 11
192.58
 21
94.52
  0
LINE
  8
L-1-1
 10
187.12
 20
79.80
 11
187.12
 21
93.56
  0
LINE
  8
L-1-1
 10
187.85
 20
94.29
 11
192.58
 21
94.29
  0
LINE
  8
L-1-1
 10
187.15
 20
87.56
 11
192.58
 21
87.56
  0
LINE
  8
L-1-1
 10
187.15
 20
87.33
 11
192.58
 21
87.33
  0
LINE
  8
L-1-1
 10
191.03
 20
90.37
 11
192.54
 21
90.37
  0
LINE
  8
L-1-1
 10
191.03
 20
88.03
 11
192.54
 21
88.03
  0
LINE
  8
L-1-1
 10
190.96
 20
88.60
 11
191.01
 21
88.60
  0
LINE
  8
L-1-1
 10
190.96
 20
88.13
 11
190.96
 21
88.60
  0
LINE
  8
L-1-1
 10
190.96
 20
88.13
 11
191.01
 21
88.13
  0
LINE
  8
L-1-1
 10
189.78
 20
88.53
 11
190.96
 21
88.53
  0
LINE
  8
L-1-1
 10
189.76
 20
88.51
 11
189.78
 21
88.53
  0
LINE
  8
L-1-1
 10
189.76
 20
88.22
 11
189.76
 21
88.51
  0
LINE
  8
L-1-1
 10
189.78
 20
88.20
 11
190.96
 21
88.20
  0
LINE
  8
L-1-1
 10
189.76
 20
88.22
 11
189.78
 21
88.20
  0
LINE
  8
L-1-1
 10
189.96
 20
88.22
 11
189.96
 21
88.51
  0
LINE
  8
L-1-1
 10
189.80
 20
88.37
 11
190.06
 21
88.37
  0
LINE
  8
L-1-1
 10
191.30
 20
89.70
 11
191.49
 21
89.70
  0
LINE
  8
L-1-1
 10
191.39
 20
89.58
 11
191.39
 21
91.25
  0
LINE
  8
L-1-1
 10
191.29
 20
91.10
 11
191.47
 21
91.10
  0
LINE
  8
L-1-1
 10
191.23
 20
89.70
 11
191.23
 21
91.11
  0
LINE
  8
L-1-1
 10
191.56
 20
89.68
 11
191.56
 21
91.10
  0
LINE
  8
L-1-1
 10
191.03
 20
88.03
 11
191.03
 21
90.37
  0
LINE
  8
L-1-1
 10
186.56
 20
93.00
 11
192.54
 21
93.00
  0
LINE
  8
L-1-1
 10
186.56
 20
92.56
 11
186.56
 21
93.00
  0
LINE
  8
L-1-1
 10
186.56
 20
92.56
 11
192.57
 21
92.56
  0
LINE
  8
L-1-1
 10
186.56
 20
88.64
 11
191.01
 21
88.64
  0
LINE
  8
L-1-1
 10
186.56
 20
88.20
 11
186.56
 21
88.64
  0
LINE
  8
L-1-1
 10
186.56
 20
88.20
 11
190.96
 21
88.20
  0
LINE
  8
L-1-1
 10
186.59
 20
88.60
 11
186.59
 21
92.60
  0
LINE
  8
L-1-1
 10
186.59
 20
92.60
 11
191.93
 21
92.60
  0
LINE
  8
L-1-1
 10
191.93
 20
90.38
 11
191.93
 21
92.60
  0
LINE
  8
L-1-1
 10
186.59
 20
88.60
 11
191.01
 21
88.60
  0
LINE
  8
L-1-1
 10
186.89
 20
79.57
 11
186.89
 21
94.53
  0
LINE
  8
L-1-1
 10
187.76
 20
95.40
 11
189.23
 21
95.40
  0
LINE
  8
L-1-1
 10
187.76
 20
95.17
 11
189.23
 21
95.17
  0
LINE
  8
L-1-1
 10
187.12
 20
94.31
 11
187.12
 21
94.53
  0
LINE
  8
L-1-1
 10
187.12
 20
79.57
 11
187.12
 21
93.72
  0
LINE
  8
L-1-1
 10
189.87
 20
94.52
 11
189.87
 21
94.53
  0
LINE
  8
L-1-1
 10
190.09
 20
94.52
 11
190.09
 21
94.53
  0
LINE
  8
L-1-1
 10
192.69
 20
80.44
 11
192.69
 21
80.98
  0
LINE
  8
L-1-1
 10
192.20
 20
80.73
 11
192.87
 21
80.73
  0
LINE
  8
L-1-1
 10
192.62
 20
80.88
 11
193.02
 21
81.07
  0
LINE
  8
L-1-1
 10
192.62
 20
80.58
 11
193.02
 21
80.40
  0
LINE
  8
L-1-1
 10
192.36
 20
94.76
 11
195.36
 21
94.76
  0
LINE
  8
L-1-1
 10
192.92
 20
93.73
 11
192.99
 21
93.73
  0
LINE
  8
L-1-1
 10
192.92
 20
93.73
 11
192.36
 21
94.66
  0
LINE
  8
L-1-1
 10
195.83
 20
94.79
 11
195.83
 21
94.94
  0
LINE
  8
L-1-1
 10
192.36
 20
94.87
 11
195.56
 21
94.87
  0
LINE
  8
L-1-1
 10
195.48
 20
93.87
 11
196.05
 21
94.72
  0
LINE
  8
L-1-1
 10
195.35
 20
93.87
 11
195.48
 21
93.87
  0
LINE
  8
L-1-1
 10
192.36
 20
94.66
 11
192.36
 21
94.87
  0
LINE
  8
L-1-1
 10
192.36
 20
94.21
 11
192.36
 21
94.30
  0
LINE
  8
L-1-1
 10
192.35
 20
94.27
 11
192.58
 21
94.27
  0
LINE
  8
L-1-1
 10
192.36
 20
94.07
 11
192.59
 21
94.07
  0
LINE
  8
L-1-1
 10
192.36
 20
94.47
 11
192.50
 21
94.47
  0
LINE
  8
L-1-1
 10
195.36
 20
88.00
 11
195.36
 21
94.87
  0
LINE
  8
L-1-1
 10
193.70
 20
79.53
 11
195.37
 21
88.03
  0
LINE
  8
L-1-1
 10
192.59
 20
79.53
 11
193.70
 21
79.53
  0
LINE
  8
L-1-1
 10
195.30
 20
87.95
 11
195.30
 21
94.87
  0
LINE
  8
L-1-1
 10
193.64
 20
79.54
 11
195.30
 21
87.95
  0
LINE
  8
L-1-1
 10
192.27
 20
87.71
 11
192.27
 21
87.97
  0
LINE
  8
L-1-1
 10
192.19
 20
84.44
 11
192.19
 21
84.87
  0
LINE
  8
L-1-1
 10
192.19
 20
84.44
 11
192.21
 21
84.44
  0
LINE
  8
L-1-1
 10
192.27
 20
84.51
 11
192.27
 21
84.77
  0
LINE
  8
L-1-1
 10
191.23
 20
85.07
 11
191.56
 21
85.07
  0
LINE
  8
L-1-1
 10
191.23
 20
87.61
 11
191.56
 21
87.61
  0
LINE
  8
L-1-1
 10
191.23
 20
84.87
 11
191.56
 21
84.87
  0
LINE
  8
L-1-1
 10
191.93
 20
87.77
 11
192.06
 21
87.77
  0
LINE
  8
L-1-1
 10
191.93
 20
87.56
 11
191.93
 21
87.77
  0
LINE
  8
L-1-1
 10
192.06
 20
87.84
 11
192.19
 21
87.84
  0
LINE
  8
L-1-1
 10
190.40
 20
87.90
 11
191.93
 21
87.77
  0
LINE
  8
L-1-1
 10
192.19
 20
84.44
 11
192.19
 21
84.87
  0
LINE
  8
L-1-1
 10
192.19
 20
84.44
 11
192.21
 21
84.44
  0
LINE
  8
L-1-1
 10
191.23
 20
85.07
 11
191.56
 21
85.07
  0
LINE
  8
L-1-1
 10
191.23
 20
84.87
 11
191.56
 21
84.87
  0
LINE
  8
L-1-1
 10
191.93
 20
84.71
 11
192.06
 21
84.71
  0
LINE
  8
L-1-1
 10
191.93
 20
84.71
 11
191.93
 21
84.92
  0
LINE
  8
L-1-1
 10
192.19
 20
84.46
 11
192.19
 21
85.02
  0
LINE
  8
L-1-1
 10
192.06
 20
84.64
 11
192.19
 21
84.64
  0
LINE
  8
L-1-1
 10
192.06
 20
84.64
 11
192.06
 21
84.96
  0
LINE
  8
L-1-1
 10
190.40
 20
84.58
 11
191.93
 21
84.71
  0
LINE
  8
L-1-1
 10
188.30
 20
86.24
 11
189.08
 21
86.24
  0
LINE
  8
L-1-1
 10
188.69
 20
86.40
 11
188.72
 21
86.40
  0
LINE
  8
L-1-1
 10
188.69
 20
86.07
 11
188.69
 21
86.40
  0
LINE
  8
L-1-1
 10
188.69
 20
86.07
 11
188.73
 21
86.07
  0
LINE
  8
L-1-1
 10
188.59
 20
86.34
 11
188.69
 21
86.34
  0
LINE
  8
L-1-1
 10
188.59
 20
86.14
 11
188.59
 21
86.34
  0
LINE
  8
L-1-1
 10
188.59
 20
86.14
 11
188.69
 21
86.14
  0
LINE
  8
L-1-1
 10
188.73
 20
85.84
 11
188.73
 21
86.64
  0
LINE
  8
L-1-1
 10
188.79
 20
85.84
 11
188.79
 21
86.64
  0
LINE
  8
L-1-1
 10
188.73
 20
86.64
 11
188.88
 21
86.64
  0
LINE
  8
L-1-1
 10
188.73
 20
85.84
 11
188.88
 21
85.84
  0
LINE
  8
L-1-1
 10
192.19
 20
87.57
 11
192.19
 21
88.02
  0
LINE
  8
L-1-1
 10
192.06
 20
87.57
 11
192.06
 21
87.84
  0
LINE
  8
L-1-1
 10
192.19
 20
87.61
 11
192.59
 21
87.61
  0
LINE
  8
L-1-1
 10
192.19
 20
84.87
 11
192.59
 21
84.87
  0
LINE
  8
L-1-1
 10
192.34
 20
84.83
 11
192.59
 21
84.83
  0
LINE
  8
L-1-1
 10
192.34
 20
87.65
 11
192.59
 21
87.65
  0
LINE
  8
L-1-1
 10
192.19
 20
87.61
 11
192.19
 21
88.03
  0
LINE
  8
L-1-1
 10
192.12
 20
84.64
 11
192.54
 21
84.64
  0
LINE
  8
L-1-1
 10
192.34
 20
83.07
 11
192.34
 21
83.28
  0
LINE
  8
L-1-1
 10
192.27
 20
80.46
 11
192.27
 21
80.80
  0
LINE
  8
L-1-1
 10
192.27
 20
80.46
 11
192.28
 21
80.46
  0
LINE
  8
L-1-1
 10
192.34
 20
80.51
 11
192.34
 21
80.72
  0
LINE
  8
L-1-1
 10
192.06
 20
83.12
 11
192.17
 21
83.12
  0
LINE
  8
L-1-1
 10
192.17
 20
83.18
 11
192.27
 21
83.18
  0
LINE
  8
L-1-1
 10
190.84
 20
83.22
 11
192.06
 21
83.12
  0
LINE
  8
L-1-1
 10
192.27
 20
80.46
 11
192.27
 21
80.80
  0
LINE
  8
L-1-1
 10
192.27
 20
80.46
 11
192.28
 21
80.46
  0
LINE
  8
L-1-1
 10
192.06
 20
80.67
 11
192.17
 21
80.67
  0
LINE
  8
L-1-1
 10
192.06
 20
80.67
 11
192.06
 21
80.84
  0
LINE
  8
L-1-1
 10
192.27
 20
80.47
 11
192.27
 21
80.92
  0
LINE
  8
L-1-1
 10
192.17
 20
80.62
 11
192.27
 21
80.62
  0
LINE
  8
L-1-1
 10
192.17
 20
80.62
 11
192.17
 21
80.87
  0
LINE
  8
L-1-1
 10
190.84
 20
80.57
 11
192.06
 21
80.67
  0
LINE
  8
L-1-1
 10
189.16
 20
81.89
 11
189.79
 21
81.89
  0
LINE
  8
L-1-1
 10
189.39
 20
81.81
 11
189.39
 21
81.97
  0
LINE
  8
L-1-1
 10
192.27
 20
82.99
 11
192.59
 21
82.99
  0
LINE
  8
L-1-1
 10
192.27
 20
80.80
 11
192.59
 21
80.80
  0
LINE
  8
L-1-1
 10
192.39
 20
80.77
 11
192.59
 21
80.77
  0
LINE
  8
L-1-1
 10
192.39
 20
83.02
 11
192.59
 21
83.02
  0
LINE
  8
L-1-1
 10
192.27
 20
82.99
 11
192.27
 21
83.33
  0
LINE
  8
L-1-1
 10
192.21
 20
80.62
 11
192.55
 21
80.62
  0
LINE
  8
L-1-1
 10
187.12
 20
79.80
 11
193.14
 21
79.80
  0
LINE
  8
L-1-1
 10
190.09
 20
79.80
 11
190.09
 21
94.29
  0
LINE
  8
L-1-1
 10
189.87
 20
79.80
 11
189.87
 21
94.29
  0
LINE
  8
L-1-1
 10
189.87
 20
79.80
 11
189.87
 21
94.30
  0
LINE
  8
L-1-1
 10
192.27
 20
80.86
 11
192.27
 21
83.32
  0
LINE
  8
L-1-1
 10
192.17
 20
80.90
 11
192.17
 21
83.18
  0
LINE
  8
L-1-1
 10
192.06
 20
80.84
 11
192.06
 21
83.12
  0
LINE
  8
L-1-1
 10
175.73
 20
106.40
 11
211.55
 21
106.40
  0
LINE
  8
L-1-1
 10
198.75
 20
102.73
 11
198.75
 21
110.07
  0
LINE
  8
L-1-1
 10
198.68
 20
102.73
 11
198.75
 21
102.73
  0
LINE
  8
L-1-1
 10
198.69
 20
102.73
 11
198.69
 21
110.07
  0
LINE
  8
L-1-1
 10
198.69
 20
110.07
 11
198.75
 21
110.07
  0
LINE
  8
L-1-1
 10
217.26
 20
97.43
 11
217.26
 21
103.47
  0
LINE
  8
L-1-1
 10
217.46
 20
97.43
 11
217.46
 21
103.47
  0
LINE
  8
L-1-1
 10
198.75
 20
109.73
 11
215.23
 21
109.73
  0
LINE
  8
L-1-1
 10
215.26
 20
97.30
 11
215.26
 21
109.83
  0
LINE
  8
L-1-1
 10
215.46
 20
97.50
 11
215.46
 21
109.63
  0
LINE
  8
L-1-1
 10
218.79
 20
103.66
 11
218.79
 21
109.60
  0
LINE
  8
L-1-1
 10
218.59
 20
103.67
 11
218.59
 21
109.60
  0
LINE
  8
L-1-1
 10
215.26
 20
97.30
 11
222.03
 21
97.30
  0
LINE
  8
L-1-1
 10
222.03
 20
97.30
 11
222.03
 21
109.83
  0
LINE
  8
L-1-1
 10
215.26
 20
109.83
 11
222.03
 21
109.83
  0
LINE
  8
L-1-1
 10
215.46
 20
97.50
 11
221.29
 21
97.50
  0
LINE
  8
L-1-1
 10
215.46
 20
109.63
 11
221.29
 21
109.63
  0
LINE
  8
L-1-1
 10
221.36
 20
97.40
 11
221.36
 21
109.81
  0
LINE
  8
L-1-1
 10
219.46
 20
97.50
 11
219.46
 21
103.43
  0
LINE
  8
L-1-1
 10
219.26
 20
97.50
 11
219.26
 21
103.46
  0
LINE
  8
L-1-1
 10
219.46
 20
103.07
 11
221.29
 21
103.07
  0
LINE
  8
L-1-1
 10
217.48
 20
103.07
 11
219.21
 21
103.07
  0
LINE
  8
L-1-1
 10
206.69
 20
107.73
 11
207.36
 21
107.73
  0
LINE
  8
L-1-1
 10
206.69
 20
96.40
 11
206.69
 21
107.73
  0
LINE
  8
L-1-1
 10
206.69
 20
96.40
 11
207.36
 21
96.40
  0
LINE
  8
L-1-1
 10
207.36
 20
96.40
 11
207.36
 21
107.73
  0
LINE
  8
L-1-1
 10
200.69
 20
96.45
 11
200.69
 21
103.21
  0
LINE
  8
L-1-1
 10
198.76
 20
103.07
 11
200.68
 21
103.07
  0
LINE
  8
L-1-1
 10
200.89
 20
96.65
 11
200.89
 21
103.01
  0
LINE
  8
L-1-1
 10
203.59
 20
96.64
 11
203.59
 21
103.00
  0
LINE
  8
L-1-1
 10
203.79
 20
96.64
 11
203.79
 21
103.00
  0
LINE
  8
L-1-1
 10
200.89
 20
96.65
 11
206.67
 21
96.65
  0
LINE
  8
L-1-1
 10
200.69
 20
96.45
 11
206.68
 21
96.45
  0
LINE
  8
L-1-1
 10
200.89
 20
103.01
 11
206.68
 21
103.01
  0
LINE
  8
L-1-1
 10
200.69
 20
103.21
 11
206.68
 21
103.21
  0
LINE
  8
L-1-1
 10
155.18
 20
89.07
 11
157.81
 21
89.07
  0
LINE
  8
L-1-1
 10
275.90
 20
104.03
 11
275.90
 21
108.77
  0
LINE
  8
L-1-1
 10
236.83
 20
103.73
 11
236.83
 21
109.07
  0
LINE
  8
L-1-1
 10
235.50
 20
109.07
 11
237.90
 21
109.07
  0
LINE
  8
L-1-1
 10
222.07
 20
104.03
 11
236.56
 21
104.03
  0
LINE
  8
L-1-1
 10
222.07
 20
108.77
 11
236.56
 21
108.77
  0
LINE
  8
L-1-1
 10
235.37
 20
103.87
 11
235.37
 21
104.03
  0
LINE
  8
L-1-1
 10
235.37
 20
108.76
 11
235.37
 21
108.93
  0
LINE
  8
L-1-1
 10
235.37
 20
105.40
 11
235.37
 21
105.53
  0
LINE
  8
L-1-1
 10
235.37
 20
106.33
 11
235.37
 21
106.47
  0
LINE
  8
L-1-1
 10
235.37
 20
107.27
 11
235.37
 21
107.40
  0
LINE
  8
L-1-1
 10
236.58
 20
103.73
 11
236.58
 21
109.07
  0
LINE
  8
L-1-1
 10
235.37
 20
105.53
 11
236.58
 21
105.53
  0
LINE
  8
L-1-1
 10
235.37
 20
105.40
 11
236.57
 21
105.40
  0
LINE
  8
L-1-1
 10
235.37
 20
106.33
 11
236.58
 21
106.33
  0
LINE
  8
L-1-1
 10
235.37
 20
106.47
 11
236.57
 21
106.47
  0
LINE
  8
L-1-1
 10
235.37
 20
107.27
 11
236.57
 21
107.27
  0
LINE
  8
L-1-1
 10
235.37
 20
107.40
 11
236.57
 21
107.40
  0
LINE
  8
L-1-1
 10
238.04
 20
103.87
 11
238.04
 21
104.03
  0
LINE
  8
L-1-1
 10
238.04
 20
108.76
 11
238.04
 21
108.93
  0
LINE
  8
L-1-1
 10
238.04
 20
105.40
 11
238.04
 21
105.53
  0
LINE
  8
L-1-1
 10
238.04
 20
106.33
 11
238.04
 21
106.47
  0
LINE
  8
L-1-1
 10
238.04
 20
107.27
 11
238.04
 21
107.40
  0
LINE
  8
L-1-1
 10
236.83
 20
103.73
 11
236.83
 21
109.07
  0
LINE
  8
L-1-1
 10
236.83
 20
105.53
 11
238.04
 21
105.53
  0
LINE
  8
L-1-1
 10
236.83
 20
105.40
 11
238.04
 21
105.40
  0
LINE
  8
L-1-1
 10
236.83
 20
106.33
 11
238.04
 21
106.33
  0
LINE
  8
L-1-1
 10
236.83
 20
106.47
 11
238.04
 21
106.47
  0
LINE
  8
L-1-1
 10
236.83
 20
107.27
 11
238.04
 21
107.27
  0
LINE
  8
L-1-1
 10
236.84
 20
107.40
 11
238.04
 21
107.40
  0
LINE
  8
L-1-1
 10
275.78
 20
103.73
 11
275.78
 21
109.07
  0
LINE
  8
L-1-1
 10
275.90
 20
103.75
 11
275.90
 21
109.04
  0
LINE
  8
L-1-1
 10
274.70
 20
103.73
 11
277.10
 21
103.73
  0
LINE
  8
L-1-1
 10
274.70
 20
109.07
 11
277.10
 21
109.07
  0
LINE
  8
L-1-1
 10
277.24
 20
103.87
 11
277.24
 21
104.03
  0
LINE
  8
L-1-1
 10
277.24
 20
108.76
 11
277.24
 21
108.93
  0
LINE
  8
L-1-1
 10
277.24
 20
105.40
 11
277.24
 21
105.53
  0
LINE
  8
L-1-1
 10
277.24
 20
106.33
 11
277.24
 21
106.47
  0
LINE
  8
L-1-1
 10
277.24
 20
107.27
 11
277.24
 21
107.40
  0
LINE
  8
L-1-1
 10
276.03
 20
103.73
 11
276.03
 21
109.07
  0
LINE
  8
L-1-1
 10
276.03
 20
105.53
 11
277.24
 21
105.53
  0
LINE
  8
L-1-1
 10
276.03
 20
105.40
 11
277.24
 21
105.40
  0
LINE
  8
L-1-1
 10
276.03
 20
106.33
 11
277.24
 21
106.33
  0
LINE
  8
L-1-1
 10
276.03
 20
106.47
 11
277.24
 21
106.47
  0
LINE
  8
L-1-1
 10
276.03
 20
107.27
 11
277.24
 21
107.27
  0
LINE
  8
L-1-1
 10
276.04
 20
107.40
 11
277.24
 21
107.40
  0
LINE
  8
L-1-1
 10
274.57
 20
103.87
 11
274.57
 21
104.03
  0
LINE
  8
L-1-1
 10
274.57
 20
108.76
 11
274.57
 21
108.93
  0
LINE
  8
L-1-1
 10
274.57
 20
105.40
 11
274.57
 21
105.53
  0
LINE
  8
L-1-1
 10
274.57
 20
106.33
 11
274.57
 21
106.47
  0
LINE
  8
L-1-1
 10
274.57
 20
107.27
 11
274.57
 21
107.40
  0
LINE
  8
L-1-1
 10
275.78
 20
103.73
 11
275.78
 21
109.07
  0
LINE
  8
L-1-1
 10
274.57
 20
105.53
 11
275.78
 21
105.53
  0
LINE
  8
L-1-1
 10
274.57
 20
105.40
 11
275.77
 21
105.40
  0
LINE
  8
L-1-1
 10
274.57
 20
106.33
 11
275.78
 21
106.33
  0
LINE
  8
L-1-1
 10
274.57
 20
106.47
 11
275.77
 21
106.47
  0
LINE
  8
L-1-1
 10
274.57
 20
107.27
 11
275.77
 21
107.27
  0
LINE
  8
L-1-1
 10
274.57
 20
107.40
 11
275.77
 21
107.40
  0
LINE
  8
L-1-1
 10
239.44
 20
103.60
 11
240.50
 21
103.60
  0
LINE
  8
L-1-1
 10
239.44
 20
103.60
 11
239.44
 21
104.02
  0
LINE
  8
L-1-1
 10
240.50
 20
103.60
 11
240.50
 21
104.02
  0
LINE
  8
L-1-1
 10
232.90
 20
103.60
 11
233.97
 21
103.60
  0
LINE
  8
L-1-1
 10
232.90
 20
103.60
 11
232.90
 21
104.02
  0
LINE
  8
L-1-1
 10
233.97
 20
103.60
 11
233.97
 21
104.02
  0
LINE
  8
L-1-1
 10
226.37
 20
103.60
 11
227.44
 21
103.60
  0
LINE
  8
L-1-1
 10
226.37
 20
103.60
 11
226.37
 21
104.02
  0
LINE
  8
L-1-1
 10
227.44
 20
103.60
 11
227.44
 21
104.02
  0
LINE
  8
L-1-1
 10
245.97
 20
103.60
 11
247.04
 21
103.60
  0
LINE
  8
L-1-1
 10
245.97
 20
103.60
 11
245.97
 21
104.02
  0
LINE
  8
L-1-1
 10
247.04
 20
103.60
 11
247.04
 21
104.02
  0
LINE
  8
L-1-1
 10
252.50
 20
103.60
 11
253.57
 21
103.60
  0
LINE
  8
L-1-1
 10
252.50
 20
103.60
 11
252.50
 21
104.02
  0
LINE
  8
L-1-1
 10
253.57
 20
103.60
 11
253.57
 21
104.02
  0
LINE
  8
L-1-1
 10
259.04
 20
103.60
 11
260.10
 21
103.60
  0
LINE
  8
L-1-1
 10
259.04
 20
103.60
 11
259.04
 21
104.02
  0
LINE
  8
L-1-1
 10
260.10
 20
103.60
 11
260.10
 21
104.02
  0
LINE
  8
L-1-1
 10
265.57
 20
103.60
 11
266.64
 21
103.60
  0
LINE
  8
L-1-1
 10
265.57
 20
103.60
 11
265.57
 21
104.02
  0
LINE
  8
L-1-1
 10
266.64
 20
103.60
 11
266.64
 21
104.02
  0
LINE
  8
L-1-1
 10
272.10
 20
103.60
 11
273.17
 21
103.60
  0
LINE
  8
L-1-1
 10
272.10
 20
103.60
 11
272.10
 21
104.02
  0
LINE
  8
L-1-1
 10
273.17
 20
103.60
 11
273.17
 21
104.02
  0
LINE
  8
L-1-1
 10
240.51
 20
103.83
 11
245.95
 21
103.83
  0
LINE
  8
L-1-1
 10
247.04
 20
103.83
 11
252.49
 21
103.83
  0
LINE
  8
L-1-1
 10
253.55
 20
103.83
 11
259.03
 21
103.83
  0
LINE
  8
L-1-1
 10
260.08
 20
103.83
 11
265.56
 21
103.83
  0
LINE
  8
L-1-1
 10
266.71
 20
103.83
 11
272.10
 21
103.83
  0
LINE
  8
L-1-1
 10
236.77
 20
102.07
 11
256.24
 21
102.07
  0
LINE
  8
L-1-1
 10
236.77
 20
102.07
 11
236.77
 21
102.27
  0
LINE
  8
L-1-1
 10
256.24
 20
102.07
 11
256.24
 21
102.27
  0
LINE
  8
L-1-1
 10
236.77
 20
102.27
 11
256.24
 21
102.27
  0
LINE
  8
L-1-1
 10
239.80
 20
102.30
 11
239.80
 21
103.54
  0
LINE
  8
L-1-1
 10
240.14
 20
102.30
 11
240.14
 21
103.54
  0
LINE
  8
L-1-1
 10
252.87
 20
102.30
 11
252.87
 21
103.48
  0
LINE
  8
L-1-1
 10
253.20
 20
102.30
 11
253.20
 21
103.48
  0
LINE
  8
L-1-1
 10
235.50
 20
103.73
 11
237.90
 21
103.73
  0
LINE
  8
L-1-1
 10
222.07
 20
103.83
 11
226.34
 21
103.83
  0
LINE
  8
L-1-1
 10
227.43
 20
103.83
 11
232.83
 21
103.83
  0
LINE
  8
L-1-1
 10
222.03
 20
104.43
 11
236.57
 21
104.43
  0
LINE
  8
L-1-1
 10
236.84
 20
104.43
 11
275.78
 21
104.43
  0
LINE
  8
L-1-1
 10
236.84
 20
105.07
 11
275.78
 21
105.07
  0
LINE
  8
L-1-1
 10
222.03
 20
105.07
 11
236.56
 21
105.07
  0
LINE
  8
L-1-1
 10
236.84
 20
107.69
 11
275.78
 21
107.69
  0
LINE
  8
L-1-1
 10
222.03
 20
107.69
 11
236.54
 21
107.69
  0
LINE
  8
L-1-1
 10
221.97
 20
108.37
 11
236.56
 21
108.37
  0
LINE
  8
L-1-1
 10
236.85
 20
108.37
 11
275.78
 21
108.37
  0
LINE
  8
L-1-1
 10
259.04
 20
103.60
 11
260.10
 21
103.60
  0
LINE
  8
L-1-1
 10
259.04
 20
103.60
 11
259.04
 21
104.02
  0
LINE
  8
L-1-1
 10
260.10
 20
103.60
 11
260.10
 21
104.02
  0
LINE
  8
L-1-1
 10
265.57
 20
103.60
 11
266.64
 21
103.60
  0
LINE
  8
L-1-1
 10
265.57
 20
103.60
 11
265.57
 21
104.02
  0
LINE
  8
L-1-1
 10
266.64
 20
103.60
 11
266.64
 21
104.02
  0
LINE
  8
L-1-1
 10
272.10
 20
103.60
 11
273.17
 21
103.60
  0
LINE
  8
L-1-1
 10
272.10
 20
103.60
 11
272.10
 21
104.02
  0
LINE
  8
L-1-1
 10
273.17
 20
103.60
 11
273.17
 21
104.02
  0
LINE
  8
L-1-1
 10
260.11
 20
103.83
 11
265.55
 21
103.83
  0
LINE
  8
L-1-1
 10
266.64
 20
103.83
 11
272.09
 21
103.83
  0
LINE
  8
L-1-1
 10
256.37
 20
102.07
 11
275.84
 21
102.07
  0
LINE
  8
L-1-1
 10
256.37
 20
102.07
 11
256.37
 21
102.27
  0
LINE
  8
L-1-1
 10
275.84
 20
102.07
 11
275.84
 21
102.27
  0
LINE
  8
L-1-1
 10
256.37
 20
102.27
 11
275.84
 21
102.27
  0
LINE
  8
L-1-1
 10
259.40
 20
102.30
 11
259.40
 21
103.54
  0
LINE
  8
L-1-1
 10
259.74
 20
102.30
 11
259.74
 21
103.54
  0
LINE
  8
L-1-1
 10
272.47
 20
102.30
 11
272.47
 21
103.48
  0
LINE
  8
L-1-1
 10
272.80
 20
102.30
 11
272.80
 21
103.48
  0
LINE
  8
L-1-1
 10
226.37
 20
103.60
 11
227.44
 21
103.60
  0
LINE
  8
L-1-1
 10
226.37
 20
103.60
 11
226.37
 21
104.02
  0
LINE
  8
L-1-1
 10
227.44
 20
103.60
 11
227.44
 21
104.02
  0
LINE
  8
L-1-1
 10
232.90
 20
103.60
 11
233.97
 21
103.60
  0
LINE
  8
L-1-1
 10
232.90
 20
103.60
 11
232.90
 21
104.02
  0
LINE
  8
L-1-1
 10
233.97
 20
103.60
 11
233.97
 21
104.02
  0
LINE
  8
L-1-1
 10
239.44
 20
103.60
 11
240.50
 21
103.60
  0
LINE
  8
L-1-1
 10
239.44
 20
103.60
 11
239.44
 21
104.02
  0
LINE
  8
L-1-1
 10
240.50
 20
103.60
 11
240.50
 21
104.02
  0
LINE
  8
L-1-1
 10
227.44
 20
103.83
 11
232.89
 21
103.83
  0
LINE
  8
L-1-1
 10
236.64
 20
102.07
 11
236.64
 21
102.27
  0
LINE
  8
L-1-1
 10
233.27
 20
102.30
 11
233.27
 21
103.48
  0
LINE
  8
L-1-1
 10
233.60
 20
102.30
 11
233.60
 21
103.48
  0
LINE
  8
L-1-1
 10
239.44
 20
103.60
 11
240.50
 21
103.60
  0
LINE
  8
L-1-1
 10
239.44
 20
103.60
 11
239.44
 21
104.02
  0
LINE
  8
L-1-1
 10
240.50
 20
103.60
 11
240.50
 21
104.02
  0
LINE
  8
L-1-1
 10
236.77
 20
102.07
 11
236.77
 21
102.27
  0
LINE
  8
L-1-1
 10
239.80
 20
102.30
 11
239.80
 21
103.54
  0
LINE
  8
L-1-1
 10
240.14
 20
102.30
 11
240.14
 21
103.54
  0
LINE
  8
L-1-1
 10
222.01
 20
103.83
 11
226.35
 21
103.83
  0
LINE
  8
L-1-1
 10
222.24
 20
102.27
 11
236.64
 21
102.27
  0
LINE
  8
L-1-1
 10
222.26
 20
102.07
 11
236.64
 21
102.07
  0
LINE
  8
L-1-1
 10
226.74
 20
102.28
 11
226.74
 21
103.59
  0
LINE
  8
L-1-1
 10
227.07
 20
102.28
 11
227.07
 21
103.59
  0
LINE
  8
L-1-1
 10
236.83
 20
104.03
 11
275.77
 21
104.03
  0
LINE
  8
L-1-1
 10
236.83
 20
108.77
 11
275.76
 21
108.77
  0
LINE
  8
L-1-1
 10
276.03
 20
103.73
 11
276.03
 21
109.07
  0
LINE
  8
L-1-1
 10
275.90
 20
103.75
 11
275.90
 21
109.04
  0
LINE
  8
L-1-1
 10
275.78
 20
103.73
 11
275.78
 21
109.07
  0
LINE
  8
L-1-1
 10
277.24
 20
103.87
 11
277.24
 21
104.03
  0
LINE
  8
L-1-1
 10
277.24
 20
108.76
 11
277.24
 21
108.93
  0
LINE
  8
L-1-1
 10
277.24
 20
105.40
 11
277.24
 21
105.53
  0
LINE
  8
L-1-1
 10
277.24
 20
106.33
 11
277.24
 21
106.47
  0
LINE
  8
L-1-1
 10
277.24
 20
107.27
 11
277.24
 21
107.40
  0
LINE
  8
L-1-1
 10
276.03
 20
103.73
 11
276.03
 21
109.07
  0
LINE
  8
L-1-1
 10
276.03
 20
105.53
 11
277.24
 21
105.53
  0
LINE
  8
L-1-1
 10
276.03
 20
105.40
 11
277.24
 21
105.40
  0
LINE
  8
L-1-1
 10
276.03
 20
106.33
 11
277.24
 21
106.33
  0
LINE
  8
L-1-1
 10
276.03
 20
106.47
 11
277.24
 21
106.47
  0
LINE
  8
L-1-1
 10
276.03
 20
107.27
 11
277.24
 21
107.27
  0
LINE
  8
L-1-1
 10
276.04
 20
107.40
 11
277.24
 21
107.40
  0
LINE
  8
L-1-1
 10
314.98
 20
103.73
 11
314.98
 21
109.07
  0
LINE
  8
L-1-1
 10
313.77
 20
103.87
 11
313.77
 21
104.03
  0
LINE
  8
L-1-1
 10
313.77
 20
108.76
 11
313.77
 21
108.93
  0
LINE
  8
L-1-1
 10
313.77
 20
105.40
 11
313.77
 21
105.53
  0
LINE
  8
L-1-1
 10
313.77
 20
106.33
 11
313.77
 21
106.47
  0
LINE
  8
L-1-1
 10
313.77
 20
107.27
 11
313.77
 21
107.40
  0
LINE
  8
L-1-1
 10
314.98
 20
103.73
 11
314.98
 21
109.07
  0
LINE
  8
L-1-1
 10
313.77
 20
105.53
 11
314.98
 21
105.53
  0
LINE
  8
L-1-1
 10
313.77
 20
105.40
 11
314.97
 21
105.40
  0
LINE
  8
L-1-1
 10
313.77
 20
106.33
 11
314.98
 21
106.33
  0
LINE
  8
L-1-1
 10
313.77
 20
106.47
 11
314.97
 21
106.47
  0
LINE
  8
L-1-1
 10
313.77
 20
107.27
 11
314.97
 21
107.27
  0
LINE
  8
L-1-1
 10
313.77
 20
107.40
 11
314.97
 21
107.40
  0
LINE
  8
L-1-1
 10
278.64
 20
103.60
 11
279.70
 21
103.60
  0
LINE
  8
L-1-1
 10
278.64
 20
103.60
 11
278.64
 21
104.02
  0
LINE
  8
L-1-1
 10
279.70
 20
103.60
 11
279.70
 21
104.02
  0
LINE
  8
L-1-1
 10
285.17
 20
103.60
 11
286.24
 21
103.60
  0
LINE
  8
L-1-1
 10
285.17
 20
103.60
 11
285.17
 21
104.02
  0
LINE
  8
L-1-1
 10
286.24
 20
103.60
 11
286.24
 21
104.02
  0
LINE
  8
L-1-1
 10
291.70
 20
103.60
 11
292.77
 21
103.60
  0
LINE
  8
L-1-1
 10
291.70
 20
103.60
 11
291.70
 21
104.02
  0
LINE
  8
L-1-1
 10
292.77
 20
103.60
 11
292.77
 21
104.02
  0
LINE
  8
L-1-1
 10
298.24
 20
103.60
 11
299.30
 21
103.60
  0
LINE
  8
L-1-1
 10
298.24
 20
103.60
 11
298.24
 21
104.02
  0
LINE
  8
L-1-1
 10
299.30
 20
103.60
 11
299.30
 21
104.02
  0
LINE
  8
L-1-1
 10
304.77
 20
103.60
 11
305.84
 21
103.60
  0
LINE
  8
L-1-1
 10
304.77
 20
103.60
 11
304.77
 21
104.02
  0
LINE
  8
L-1-1
 10
305.84
 20
103.60
 11
305.84
 21
104.02
  0
LINE
  8
L-1-1
 10
311.30
 20
103.60
 11
312.37
 21
103.60
  0
LINE
  8
L-1-1
 10
311.30
 20
103.60
 11
311.30
 21
104.02
  0
LINE
  8
L-1-1
 10
312.37
 20
103.60
 11
312.37
 21
104.02
  0
LINE
  8
L-1-1
 10
279.71
 20
103.83
 11
285.15
 21
103.83
  0
LINE
  8
L-1-1
 10
286.24
 20
103.83
 11
291.69
 21
103.83
  0
LINE
  8
L-1-1
 10
292.75
 20
103.83
 11
298.23
 21
103.83
  0
LINE
  8
L-1-1
 10
299.28
 20
103.83
 11
304.76
 21
103.83
  0
LINE
  8
L-1-1
 10
305.91
 20
103.83
 11
311.30
 21
103.83
  0
LINE
  8
L-1-1
 10
275.97
 20
102.07
 11
295.44
 21
102.07
  0
LINE
  8
L-1-1
 10
275.97
 20
102.07
 11
275.97
 21
102.27
  0
LINE
  8
L-1-1
 10
295.44
 20
102.07
 11
295.44
 21
102.27
  0
LINE
  8
L-1-1
 10
275.97
 20
102.27
 11
295.44
 21
102.27
  0
LINE
  8
L-1-1
 10
279.00
 20
102.30
 11
279.00
 21
103.54
  0
LINE
  8
L-1-1
 10
279.34
 20
102.30
 11
279.34
 21
103.54
  0
LINE
  8
L-1-1
 10
292.07
 20
102.30
 11
292.07
 21
103.48
  0
LINE
  8
L-1-1
 10
292.40
 20
102.30
 11
292.40
 21
103.48
  0
LINE
  8
L-1-1
 10
276.04
 20
104.43
 11
314.98
 21
104.43
  0
LINE
  8
L-1-1
 10
276.04
 20
105.07
 11
314.98
 21
105.07
  0
LINE
  8
L-1-1
 10
276.04
 20
107.69
 11
314.98
 21
107.69
  0
LINE
  8
L-1-1
 10
276.05
 20
108.37
 11
314.98
 21
108.37
  0
LINE
  8
L-1-1
 10
298.24
 20
103.60
 11
299.30
 21
103.60
  0
LINE
  8
L-1-1
 10
298.24
 20
103.60
 11
298.24
 21
104.02
  0
LINE
  8
L-1-1
 10
299.30
 20
103.60
 11
299.30
 21
104.02
  0
LINE
  8
L-1-1
 10
304.77
 20
103.60
 11
305.84
 21
103.60
  0
LINE
  8
L-1-1
 10
304.77
 20
103.60
 11
304.77
 21
104.02
  0
LINE
  8
L-1-1
 10
305.84
 20
103.60
 11
305.84
 21
104.02
  0
LINE
  8
L-1-1
 10
311.30
 20
103.60
 11
312.37
 21
103.60
  0
LINE
  8
L-1-1
 10
311.30
 20
103.60
 11
311.30
 21
104.02
  0
LINE
  8
L-1-1
 10
312.37
 20
103.60
 11
312.37
 21
104.02
  0
LINE
  8
L-1-1
 10
299.31
 20
103.83
 11
304.75
 21
103.83
  0
LINE
  8
L-1-1
 10
305.84
 20
103.83
 11
311.29
 21
103.83
  0
LINE
  8
L-1-1
 10
295.57
 20
102.07
 11
315.04
 21
102.07
  0
LINE
  8
L-1-1
 10
295.57
 20
102.07
 11
295.57
 21
102.27
  0
LINE
  8
L-1-1
 10
315.04
 20
102.07
 11
315.04
 21
102.27
  0
LINE
  8
L-1-1
 10
295.57
 20
102.27
 11
315.04
 21
102.27
  0
LINE
  8
L-1-1
 10
298.60
 20
102.30
 11
298.60
 21
103.54
  0
LINE
  8
L-1-1
 10
298.94
 20
102.30
 11
298.94
 21
103.54
  0
LINE
  8
L-1-1
 10
278.64
 20
103.60
 11
279.70
 21
103.60
  0
LINE
  8
L-1-1
 10
278.64
 20
103.60
 11
278.64
 21
104.02
  0
LINE
  8
L-1-1
 10
279.70
 20
103.60
 11
279.70
 21
104.02
  0
LINE
  8
L-1-1
 10
275.84
 20
102.07
 11
275.84
 21
102.27
  0
LINE
  8
L-1-1
 10
278.64
 20
103.60
 11
279.70
 21
103.60
  0
LINE
  8
L-1-1
 10
278.64
 20
103.60
 11
278.64
 21
104.02
  0
LINE
  8
L-1-1
 10
279.70
 20
103.60
 11
279.70
 21
104.02
  0
LINE
  8
L-1-1
 10
275.97
 20
102.07
 11
275.97
 21
102.27
  0
LINE
  8
L-1-1
 10
279.00
 20
102.30
 11
279.00
 21
103.54
  0
LINE
  8
L-1-1
 10
279.34
 20
102.30
 11
279.34
 21
103.54
  0
LINE
  8
L-1-1
 10
276.03
 20
104.03
 11
314.97
 21
104.03
  0
LINE
  8
L-1-1
 10
276.03
 20
108.77
 11
314.96
 21
108.77
  0
LINE
  8
L-1-1
 10
276.04
 20
104.03
 11
314.94
 21
104.03
  0
LINE
  8
L-1-1
 10
276.04
 20
108.77
 11
314.94
 21
108.77
  0
LINE
  8
L-1-1
 10
311.67
 20
102.30
 11
311.67
 21
103.58
  0
LINE
  8
L-1-1
 10
312.00
 20
102.30
 11
312.00
 21
103.56
  0
LINE
  8
L-1-1
 10
236.70
 20
103.75
 11
236.70
 21
109.07
  0
LINE
  8
L-1-1
 10
154.20
 20
149.74
 11
154.16
 21
152.08
  0
LINE
  8
L-1-1
 10
155.00
 20
149.76
 11
154.96
 21
152.09
  0
LINE
  8
L-1-1
 10
153.64
 20
149.57
 11
153.63
 21
149.90
  0
LINE
  8
L-1-1
 10
155.56
 20
149.60
 11
155.55
 21
149.93
  0
LINE
  8
L-1-1
 10
153.63
 20
149.90
 11
154.19
 21
149.91
  0
LINE
  8
L-1-1
 10
154.99
 20
149.92
 11
155.55
 21
149.93
  0
LINE
  8
L-1-1
 10
153.64
 20
149.57
 11
154.24
 21
149.58
  0
LINE
  8
L-1-1
 10
154.96
 20
149.59
 11
155.56
 21
149.60
  0
LINE
  8
L-1-1
 10
154.33
 20
149.88
 11
154.32
 21
150.08
  0
LINE
  8
L-1-1
 10
154.32
 20
150.08
 11
154.86
 21
150.09
  0
LINE
  8
L-1-1
 10
154.86
 20
149.89
 11
154.86
 21
150.09
  0
LINE
  8
L-1-1
 10
154.33
 20
149.88
 11
154.49
 21
149.88
  0
LINE
  8
L-1-1
 10
154.69
 20
149.88
 11
154.86
 21
149.89
  0
LINE
  8
L-1-1
 10
154.60
 20
149.42
 11
154.55
 21
152.34
  0
LINE
  8
L-1-1
 10
154.33
 20
152.08
 11
154.82
 21
152.09
  0
LINE
  8
L-1-1
 10
154.34
 20
149.75
 11
154.67
 21
149.75
  0
LINE
  8
L-1-1
 10
156.36
 20
87.80
 11
156.36
 21
91.63
  0
LINE
  8
L-1-1
 10
155.96
 20
89.37
 11
155.98
 21
92.07
  0
LINE
  8
L-1-1
 10
207.52
 20
239.37
 11
207.52
 21
239.53
  0
LINE
  8
L-1-1
 10
204.39
 20
239.53
 11
207.52
 21
239.53
  0
LINE
  8
L-1-1
 10
204.39
 20
239.37
 11
204.39
 21
239.53
  0
LINE
  8
L-1-1
 10
205.66
 20
239.03
 11
205.66
 21
240.41
  0
LINE
  8
L-1-1
 10
204.59
 20
239.67
 11
204.76
 21
239.69
  0
LINE
  8
L-1-1
 10
204.59
 20
239.80
 11
204.76
 21
239.77
  0
LINE
  8
L-1-1
 10
204.59
 20
239.60
 11
204.59
 21
239.67
  0
LINE
  8
L-1-1
 10
204.59
 20
239.80
 11
204.59
 21
239.87
  0
LINE
  8
L-1-1
 10
207.19
 20
239.03
 11
207.19
 21
240.41
  0
LINE
  8
L-1-1
 10
206.82
 20
239.29
 11
206.82
 21
239.37
  0
LINE
  8
L-1-1
 10
208.32
 20
239.03
 11
208.32
 21
240.41
  0
LINE
  8
L-1-1
 10
206.82
 20
239.29
 11
208.72
 21
239.29
  0
LINE
  8
L-1-1
 10
208.72
 20
239.29
 11
208.72
 21
239.37
  0
LINE
  8
L-1-1
 10
204.39
 20
239.37
 11
208.72
 21
239.37
  0
LINE
  8
L-1-1
 10
208.16
 20
239.15
 11
208.49
 21
239.15
  0
LINE
  8
L-1-1
 10
208.49
 20
239.15
 11
208.49
 21
239.29
  0
LINE
  8
L-1-1
 10
207.99
 20
239.25
 11
208.19
 21
239.25
  0
LINE
  8
L-1-1
 10
207.99
 20
239.25
 11
207.99
 21
239.29
  0
LINE
  8
L-1-1
 10
208.19
 20
239.25
 11
208.19
 21
239.29
  0
LINE
  8
L-1-1
 10
208.16
 20
239.15
 11
208.16
 21
239.25
  0
LINE
  8
L-1-1
 10
205.36
 20
239.15
 11
205.96
 21
239.15
  0
LINE
  8
L-1-1
 10
206.12
 20
239.33
 11
206.12
 21
239.37
  0
LINE
  8
L-1-1
 10
205.82
 20
239.33
 11
206.12
 21
239.33
  0
LINE
  8
L-1-1
 10
205.82
 20
239.33
 11
205.82
 21
239.37
  0
LINE
  8
L-1-1
 10
205.96
 20
239.15
 11
205.96
 21
239.33
  0
LINE
  8
L-1-1
 10
207.52
 20
239.93
 11
207.52
 21
240.10
  0
LINE
  8
L-1-1
 10
204.39
 20
239.93
 11
207.52
 21
239.93
  0
LINE
  8
L-1-1
 10
204.39
 20
239.93
 11
204.39
 21
240.10
  0
LINE
  8
L-1-1
 10
206.82
 20
240.10
 11
206.82
 21
240.18
  0
LINE
  8
L-1-1
 10
206.82
 20
240.18
 11
208.72
 21
240.18
  0
LINE
  8
L-1-1
 10
208.72
 20
240.10
 11
208.72
 21
240.18
  0
LINE
  8
L-1-1
 10
204.39
 20
240.10
 11
208.72
 21
240.10
  0
LINE
  8
L-1-1
 10
208.16
 20
240.31
 11
208.49
 21
240.31
  0
LINE
  8
L-1-1
 10
208.49
 20
240.18
 11
208.49
 21
240.31
  0
LINE
  8
L-1-1
 10
207.99
 20
240.22
 11
208.19
 21
240.22
  0
LINE
  8
L-1-1
 10
207.99
 20
240.18
 11
207.99
 21
240.22
  0
LINE
  8
L-1-1
 10
208.19
 20
240.18
 11
208.19
 21
240.22
  0
LINE
  8
L-1-1
 10
208.16
 20
240.22
 11
208.16
 21
240.31
  0
LINE
  8
L-1-1
 10
205.36
 20
240.31
 11
205.96
 21
240.31
  0
LINE
  8
L-1-1
 10
206.12
 20
240.10
 11
206.12
 21
240.14
  0
LINE
  8
L-1-1
 10
205.82
 20
240.14
 11
206.12
 21
240.14
  0
LINE
  8
L-1-1
 10
205.82
 20
240.10
 11
205.82
 21
240.14
  0
LINE
  8
L-1-1
 10
205.96
 20
240.14
 11
205.96
 21
240.31
  0
LINE
  8
L-1-1
 10
205.66
 20
239.53
 11
205.66
 21
239.93
  0
LINE
  8
L-1-1
 10
204.59
 20
239.60
 11
205.66
 21
239.60
  0
LINE
  8
L-1-1
 10
204.59
 20
239.67
 11
205.66
 21
239.67
  0
LINE
  8
L-1-1
 10
204.59
 20
239.80
 11
205.66
 21
239.80
  0
LINE
  8
L-1-1
 10
204.59
 20
239.87
 11
205.66
 21
239.87
  0
LINE
  8
L-1-1
 10
206.86
 20
239.53
 11
206.86
 21
239.93
  0
LINE
  8
L-1-1
 10
206.96
 20
239.22
 11
207.42
 21
239.22
  0
LINE
  8
L-1-1
 10
207.42
 20
239.22
 11
207.42
 21
239.29
  0
LINE
  8
L-1-1
 10
206.99
 20
240.50
 11
207.04
 21
240.55
  0
LINE
  8
L-1-1
 10
207.04
 20
240.55
 11
207.34
 21
240.55
  0
LINE
  8
L-1-1
 10
207.34
 20
240.55
 11
207.39
 21
240.50
  0
LINE
  8
L-1-1
 10
206.99
 20
240.50
 11
207.39
 21
240.50
  0
LINE
  8
L-1-1
 10
206.96
 20
239.22
 11
206.96
 21
239.29
  0
LINE
  8
L-1-1
 10
207.39
 20
240.18
 11
207.39
 21
240.50
  0
LINE
  8
L-1-1
 10
207.39
 20
239.53
 11
207.39
 21
239.93
  0
LINE
  8
L-1-1
 10
206.99
 20
240.18
 11
206.99
 21
240.50
  0
LINE
  8
L-1-1
 10
206.99
 20
239.53
 11
206.99
 21
239.93
  0
LINE
  8
L-1-1
 10
205.26
 20
239.87
 11
205.26
 21
239.93
  0
LINE
  8
L-1-1
 10
205.26
 20
239.53
 11
205.26
 21
239.60
  0
LINE
  8
L-1-1
 10
205.36
 20
240.10
 11
205.36
 21
240.31
  0
LINE
  8
L-1-1
 10
205.36
 20
239.15
 11
205.36
 21
239.37
  0
LINE
  8
L-1-1
 10
208.09
 20
239.37
 11
208.09
 21
240.10
  0
LINE
  8
L-1-1
 10
208.56
 20
239.37
 11
208.56
 21
240.10
  0
LINE
  8
L-1-1
 10
207.69
 20
239.43
 11
208.09
 21
239.43
  0
LINE
  8
L-1-1
 10
207.69
 20
239.43
 11
207.69
 21
240.03
  0
LINE
  8
L-1-1
 10
207.69
 20
240.03
 11
208.09
 21
240.03
  0
LINE
  8
L-1-1
 10
209.66
 20
239.03
 11
209.66
 21
240.41
  0
LINE
  8
L-1-1
 10
208.55
 20
239.90
 11
208.94
 21
239.90
  0
LINE
  8
L-1-1
 10
208.55
 20
239.57
 11
208.86
 21
239.57
  0
LINE
  8
L-1-1
 10
209.57
 20
240.17
 11
209.58
 21
240.16
  0
LINE
  8
L-1-1
 10
209.54
 20
240.19
 11
209.57
 21
240.17
  0
LINE
  8
L-1-1
 10
209.52
 20
240.20
 11
209.54
 21
240.19
  0
LINE
  8
L-1-1
 10
209.49
 20
240.21
 11
209.52
 21
240.20
  0
LINE
  8
L-1-1
 10
209.47
 20
240.21
 11
209.49
 21
240.21
  0
LINE
  8
L-1-1
 10
209.47
 20
240.21
 11
209.47
 21
240.21
  0
LINE
  8
L-1-1
 10
209.46
 20
240.21
 11
209.47
 21
240.21
  0
LINE
  8
L-1-1
 10
209.45
 20
240.20
 11
209.46
 21
240.21
  0
LINE
  8
L-1-1
 10
209.44
 20
240.20
 11
209.45
 21
240.20
  0
LINE
  8
L-1-1
 10
209.43
 20
240.19
 11
209.44
 21
240.20
  0
LINE
  8
L-1-1
 10
209.43
 20
240.19
 11
209.43
 21
240.19
  0
LINE
  8
L-1-1
 10
209.43
 20
240.18
 11
209.43
 21
240.19
  0
LINE
  8
L-1-1
 10
209.43
 20
240.16
 11
209.43
 21
240.18
  0
LINE
  8
L-1-1
 10
209.43
 20
240.14
 11
209.43
 21
240.16
  0
LINE
  8
L-1-1
 10
209.44
 20
240.14
 11
209.43
 21
240.14
  0
LINE
  8
L-1-1
 10
209.44
 20
240.13
 11
209.44
 21
240.14
  0
LINE
  8
L-1-1
 10
209.45
 20
240.11
 11
209.44
 21
240.13
  0
LINE
  8
L-1-1
 10
209.46
 20
240.09
 11
209.45
 21
240.11
  0
LINE
  8
L-1-1
 10
209.47
 20
240.08
 11
209.46
 21
240.09
  0
LINE
  8
L-1-1
 10
209.48
 20
240.07
 11
209.47
 21
240.08
  0
LINE
  8
L-1-1
 10
208.98
 20
239.36
 11
209.50
 21
240.01
  0
LINE
  8
L-1-1
 10
209.01
 20
239.21
 11
209.60
 21
238.91
  0
LINE
  8
L-1-1
 10
209.20
 20
239.34
 11
209.70
 21
239.12
  0
LINE
  8
L-1-1
 10
209.20
 20
239.34
 11
209.58
 21
239.95
  0
LINE
  8
L-1-1
 10
209.09
 20
239.51
 11
209.09
 21
239.51
  0
LINE
  8
L-1-1
 10
209.06
 20
239.53
 11
209.09
 21
239.51
  0
LINE
  8
L-1-1
 10
209.03
 20
239.54
 11
209.06
 21
239.53
  0
LINE
  8
L-1-1
 10
208.97
 20
239.55
 11
209.03
 21
239.54
  0
LINE
  8
L-1-1
 10
208.92
 20
239.56
 11
208.97
 21
239.55
  0
LINE
  8
L-1-1
 10
208.86
 20
239.57
 11
208.92
 21
239.56
  0
LINE
  8
L-1-1
 10
208.82
 20
239.57
 11
208.86
 21
239.57
  0
LINE
  8
L-1-1
 10
209.27
 20
239.74
 11
209.28
 21
239.73
  0
LINE
  8
L-1-1
 10
209.25
 20
239.75
 11
209.27
 21
239.74
  0
LINE
  8
L-1-1
 10
209.22
 20
239.78
 11
209.25
 21
239.75
  0
LINE
  8
L-1-1
 10
209.18
 20
239.81
 11
209.22
 21
239.78
  0
LINE
  8
L-1-1
 10
209.15
 20
239.83
 11
209.18
 21
239.81
  0
LINE
  8
L-1-1
 10
209.13
 20
239.84
 11
209.15
 21
239.83
  0
LINE
  8
L-1-1
 10
209.10
 20
239.85
 11
209.13
 21
239.84
  0
LINE
  8
L-1-1
 10
209.06
 20
239.87
 11
209.10
 21
239.85
  0
LINE
  8
L-1-1
 10
209.02
 20
239.88
 11
209.06
 21
239.87
  0
LINE
  8
L-1-1
 10
208.97
 20
239.89
 11
209.02
 21
239.88
  0
LINE
  8
L-1-1
 10
208.95
 20
239.90
 11
208.97
 21
239.89
  0
LINE
  8
L-1-1
 10
209.44
 20
239.57
 11
209.47
 21
239.54
  0
LINE
  8
L-1-1
 10
209.39
 20
239.62
 11
209.44
 21
239.57
  0
LINE
  8
L-1-1
 10
209.38
 20
239.63
 11
209.39
 21
239.62
  0
LINE
  8
L-1-1
 10
192.04
 20
111.21
 11
191.44
 21
112.14
  0
LINE
  8
L-1-1
 10
191.44
 20
112.14
 11
192.15
 21
112.48
  0
LINE
  8
L-1-1
 10
192.04
 20
111.21
 11
192.27
 21
111.40
  0
LINE
  8
L-1-1
 10
191.97
 20
111.16
 11
191.38
 21
112.09
  0
LINE
  8
L-1-1
 10
191.83
 20
94.75
 11
191.74
 21
95.30
  0
LINE
  8
L-1-1
 10
191.14
 20
95.53
 11
192.02
 21
95.68
  0
LINE
  8
L-1-1
 10
191.20
 20
94.52
 11
192.36
 21
94.72
  0
LINE
  8
L-1-1
 10
190.86
 20
94.52
 11
190.85
 21
94.58
  0
LINE
  8
L-1-1
 10
187.24
 20
93.96
 11
189.16
 21
94.29
  0
LINE
  8
L-1-1
 10
190.49
 20
94.52
 11
191.83
 21
94.75
  0
LINE
  8
L-1-1
 10
187.09
 20
94.71
 11
189.48
 21
95.12
  0
LINE
  8
L-1-1
 10
189.81
 20
95.18
 11
190.53
 21
95.30
  0
LINE
  8
L-1-1
 10
189.63
 20
95.30
 11
192.69
 21
95.30
  0
LINE
  8
L-1-1
 10
159.35
 20
90.33
 11
158.76
 21
91.25
  0
LINE
  8
L-1-1
 10
158.72
 20
91.31
 11
160.41
 21
92.39
  0
LINE
  8
L-1-1
 10
160.44
 20
92.33
 11
160.41
 21
92.39
  0
LINE
  8
L-1-1
 10
192.76
 20
92.90
 11
192.36
 21
95.23
  0
LINE
  8
L-1-1
 10
159.99
 20
89.30
 11
186.89
 21
93.91
  0
LINE
  8
L-1-1
 10
159.99
 20
89.30
 11
159.86
 21
90.05
  0
LINE
  8
L-1-1
 10
159.86
 20
90.05
 11
186.91
 21
94.68
  0
LINE
  8
L-1-1
 10
159.28
 20
89.09
 11
160.99
 21
89.39
  0
LINE
  8
L-1-1
 10
159.14
 20
90.02
 11
160.83
 21
90.31
  0
LINE
  8
L-1-1
 10
160.85
 20
90.22
 11
160.83
 21
90.31
  0
LINE
  8
L-1-1
 10
160.99
 20
89.39
 11
160.97
 21
89.47
  0
LINE
  8
L-1-1
 10
161.07
 20
91.35
 11
161.04
 21
91.40
  0
LINE
  8
L-1-1
 10
159.45
 20
90.07
 11
159.44
 21
90.16
  0
LINE
  8
L-1-1
 10
159.53
 20
90.36
 11
161.07
 21
91.35
  0
LINE
  8
L-1-1
 10
156.07
 20
89.48
 11
158.72
 21
91.31
  0
LINE
  8
L-1-1
 10
156.25
 20
89.55
 11
158.06
 21
89.97
  0
LINE
  8
L-1-1
 10
156.50
 20
88.05
 11
158.42
 21
88.83
  0
LINE
  8
L-1-1
 10
156.50
 20
88.05
 11
155.96
 21
88.77
  0
LINE
  8
L-1-1
 10
158.35
 20
88.80
 11
158.37
 21
88.81
  0
LINE
  8
L-1-1
 10
156.50
 20
88.05
 11
160.99
 21
89.39
  0
LINE
  8
L-1-1
 10
156.76
 20
89.95
 11
156.78
 21
92.06
  0
LINE
  8
L-1-1
 10
161.69
 20
91.63
 11
161.69
 21
93.95
  0
LINE
  8
L-1-1
 10
161.42
 20
94.81
 11
161.96
 21
94.81
  0
LINE
  8
L-1-1
 10
161.42
 20
94.75
 11
161.96
 21
94.75
  0
LINE
  8
L-1-1
 10
161.32
 20
92.89
 11
161.32
 21
93.47
  0
LINE
  8
L-1-1
 10
161.42
 20
91.47
 11
161.96
 21
91.47
  0
LINE
  8
L-1-1
 10
161.32
 20
93.47
 11
162.06
 21
93.47
  0
LINE
  8
L-1-1
 10
162.06
 20
93.36
 11
162.06
 21
93.47
  0
LINE
  8
L-1-1
 10
161.42
 20
91.53
 11
161.96
 21
91.53
  0
LINE
  8
L-1-1
 10
161.42
 20
93.47
 11
161.42
 21
94.81
  0
LINE
  8
L-1-1
 10
161.42
 20
91.47
 11
161.42
 21
91.65
  0
LINE
  8
L-1-1
 10
161.96
 20
93.47
 11
161.96
 21
94.81
  0
LINE
  8
L-1-1
 10
161.96
 20
91.47
 11
161.96
 21
91.99
  0
LINE
  8
L-1-1
 10
200.02
 20
101.73
 11
200.02
 21
102.23
  0
LINE
  8
L-1-1
 10
200.49
 20
101.73
 11
200.49
 21
102.23
  0
LINE
  8
L-1-1
 10
199.85
 20
102.23
 11
199.85
 21
103.07
  0
LINE
  8
L-1-1
 10
199.75
 20
102.33
 11
199.85
 21
102.33
  0
LINE
  8
L-1-1
 10
199.75
 20
102.33
 11
199.75
 21
103.07
  0
LINE
  8
L-1-1
 10
199.04
 20
102.83
 11
199.04
 21
103.07
  0
LINE
  8
L-1-1
 10
199.04
 20
102.83
 11
199.12
 21
102.83
  0
LINE
  8
L-1-1
 10
199.12
 20
102.83
 11
199.12
 21
103.07
  0
LINE
  8
L-1-1
 10
199.12
 20
102.83
 11
199.75
 21
102.33
  0
LINE
  8
L-1-1
 10
201.07
 20
101.50
 11
201.07
 21
102.23
  0
LINE
  8
L-1-1
 10
201.07
 20
100.47
 11
201.07
 21
100.53
  0
LINE
  8
L-1-1
 10
201.00
 20
100.53
 11
201.00
 21
101.50
  0
LINE
  8
L-1-1
 10
213.70
 20
101.50
 11
214.07
 21
101.50
  0
LINE
  8
L-1-1
 10
213.70
 20
100.47
 11
214.07
 21
100.47
  0
LINE
  8
L-1-1
 10
213.70
 20
100.53
 11
214.07
 21
100.53
  0
LINE
  8
L-1-1
 10
213.70
 20
100.47
 11
213.70
 21
100.53
  0
LINE
  8
L-1-1
 10
214.07
 20
101.50
 11
214.07
 21
102.23
  0
LINE
  8
L-1-1
 10
214.07
 20
100.47
 11
214.07
 21
100.53
  0
LINE
  8
L-1-1
 10
213.77
 20
100.53
 11
213.77
 21
101.50
  0
LINE
  8
L-1-1
 10
214.00
 20
100.53
 11
214.00
 21
101.50
  0
LINE
  8
L-1-1
 10
213.70
 20
101.50
 11
213.70
 21
102.23
  0
LINE
  8
L-1-1
 10
200.89
 20
101.50
 11
201.07
 21
101.50
  0
LINE
  8
L-1-1
 10
200.89
 20
100.53
 11
201.07
 21
100.53
  0
LINE
  8
L-1-1
 10
200.89
 20
100.47
 11
201.07
 21
100.47
  0
LINE
  8
L-1-1
 10
199.85
 20
102.23
 11
200.69
 21
102.23
  0
LINE
  8
L-1-1
 10
200.89
 20
102.23
 11
201.29
 21
102.23
  0
LINE
  8
L-1-1
 10
201.79
 20
101.52
 11
201.29
 21
102.23
  0
LINE
  8
L-1-1
 10
211.63
 20
101.73
 11
211.63
 21
103.07
  0
LINE
  8
L-1-1
 10
212.25
 20
101.48
 11
212.99
 21
102.23
  0
LINE
  8
L-1-1
 10
214.69
 20
102.50
 11
214.69
 21
102.77
  0
LINE
  8
L-1-1
 10
212.99
 20
102.23
 11
214.43
 21
102.23
  0
LINE
  8
L-1-1
 10
214.43
 20
102.23
 11
214.69
 21
102.50
  0
LINE
  8
L-1-1
 10
214.69
 20
102.77
 11
214.43
 21
103.07
  0
LINE
  8
L-1-1
 10
207.36
 20
102.27
 11
211.63
 21
102.27
  0
LINE
  8
L-1-1
 10
200.89
 20
102.27
 11
203.59
 21
102.27
  0
LINE
  8
L-1-1
 10
203.79
 20
102.27
 11
206.69
 21
102.27
  0
LINE
  8
L-1-1
 10
202.45
 20
101.73
 11
202.45
 21
102.27
  0
LINE
  8
L-1-1
 10
202.52
 20
100.47
 11
202.52
 21
102.27
  0
LINE
  8
L-1-1
 10
205.89
 20
100.47
 11
205.89
 21
102.27
  0
LINE
  8
L-1-1
 10
202.52
 20
100.47
 11
203.59
 21
100.47
  0
LINE
  8
L-1-1
 10
203.79
 20
100.47
 11
205.89
 21
100.47
  0
LINE
  8
L-1-1
 10
209.93
 20
101.23
 11
210.69
 21
101.23
  0
LINE
  8
L-1-1
 10
209.93
 20
101.23
 11
209.93
 21
102.27
  0
LINE
  8
L-1-1
 10
210.69
 20
101.23
 11
210.69
 21
102.27
  0
LINE
  8
L-1-1
 10
205.89
 20
102.05
 11
206.69
 21
102.05
  0
LINE
  8
L-1-1
 10
205.89
 20
101.42
 11
206.69
 21
101.42
  0
LINE
  8
L-1-1
 10
210.69
 20
101.53
 11
210.99
 21
101.53
  0
LINE
  8
L-1-1
 10
210.99
 20
101.53
 11
210.99
 21
101.93
  0
LINE
  8
L-1-1
 10
210.69
 20
101.93
 11
210.99
 21
101.93
  0
LINE
  8
L-1-1
 10
207.36
 20
101.42
 11
209.93
 21
101.42
  0
LINE
  8
L-1-1
 10
207.36
 20
102.05
 11
209.93
 21
102.05
  0
LINE
  8
L-1-1
 10
211.13
 20
101.42
 11
211.81
 21
101.42
  0
LINE
  8
L-1-1
 10
211.13
 20
101.42
 11
211.13
 21
102.05
  0
LINE
  8
L-1-1
 10
211.13
 20
102.05
 11
211.62
 21
102.05
  0
LINE
  8
L-1-1
 10
210.99
 20
101.90
 11
211.13
 21
101.90
  0
LINE
  8
L-1-1
 10
210.99
 20
101.57
 11
211.13
 21
101.57
  0
LINE
  8
L-1-1
 10
207.44
 20
103.07
 11
215.26
 21
103.07
  0
LINE
  8
L-1-1
 10
215.46
 20
103.07
 11
217.20
 21
103.07
  0
LINE
  8
L-1-1
 10
215.46
 20
103.67
 11
221.33
 21
103.67
  0
LINE
  8
L-1-1
 10
215.46
 20
103.47
 11
221.29
 21
103.47
  0
LINE
  8
L-1-1
 10
190.46
 20
110.20
 11
192.04
 21
111.21
  0
LINE
  8
L-1-1
 10
188.41
 20
110.20
 11
191.44
 21
112.14
  0
LINE
  8
L-1-1
 10
158.76
 20
91.25
 11
186.89
 21
109.23
  0
LINE
  8
L-1-1
 10
187.12
 20
109.37
 11
188.06
 21
109.97
  0
LINE
  8
L-1-1
 10
159.35
 20
90.33
 11
186.89
 21
107.92
  0
LINE
  8
L-1-1
 10
187.12
 20
108.07
 11
189.87
 21
109.82
  0
LINE
  8
L-1-1
 10
192.03
 20
95.84
 11
190.09
 21
99.99
  0
LINE
  8
L-1-1
 10
191.59
 20
98.18
 11
190.09
 21
101.40
  0
LINE
  8
L-1-1
 10
189.87
 20
100.48
 11
188.92
 21
102.52
  0
LINE
  8
L-1-1
 10
189.87
 20
101.89
 11
189.57
 21
102.52
  0
LINE
  8
L-1-1
 10
192.62
 20
96.03
 11
191.35
 21
102.45
  0
LINE
  8
L-1-1
 10
191.59
 20
98.18
 11
190.73
 21
102.52
  0
LINE
  8
L-1-1
 10
189.66
 20
111.00
 11
188.68
 21
115.96
  0
LINE
  8
L-1-1
 10
189.12
 20
110.65
 11
188.10
 21
115.85
  0
LINE
  8
L-1-1
 10
189.58
 20
102.68
 11
189.87
 21
104.34
  0
LINE
  8
L-1-1
 10
187.94
 20
108.59
 11
189.79
 21
107.26
  0
LINE
  8
L-1-1
 10
186.15
 20
109.87
 11
186.89
 21
109.34
  0
LINE
  8
L-1-1
 10
186.34
 20
109.45
 11
186.77
 21
109.15
  0
LINE
  8
L-1-1
 10
189.39
 20
102.91
 11
187.12
 21
107.79
  0
LINE
  8
L-1-1
 10
186.55
 20
109.01
 11
183.91
 21
114.69
  0
LINE
  8
L-1-1
 10
188.84
 20
102.68
 11
187.11
 21
106.40
  0
LINE
  8
L-1-1
 10
186.89
 20
106.87
 11
186.51
 21
107.68
  0
LINE
  8
L-1-1
 10
186.05
 20
108.69
 11
183.37
 21
114.44
  0
LINE
  8
L-1-1
 10
190.32
 20
107.67
 11
190.09
 21
108.81
  0
LINE
  8
L-1-1
 10
191.31
 20
102.68
 11
190.82
 21
105.13
  0
LINE
  8
L-1-1
 10
187.13
 20
102.52
 11
189.87
 21
102.52
  0
LINE
  8
L-1-1
 10
190.09
 20
102.52
 11
192.66
 21
102.52
  0
LINE
  8
L-1-1
 10
187.13
 20
102.68
 11
189.87
 21
102.68
  0
LINE
  8
L-1-1
 10
190.09
 20
102.68
 11
192.66
 21
102.68
  0
LINE
  8
L-1-1
 10
190.09
 20
102.68
 11
190.09
 21
109.95
  0
LINE
  8
L-1-1
 10
190.09
 20
95.59
 11
190.09
 21
102.52
  0
LINE
  8
L-1-1
 10
189.87
 20
102.68
 11
189.87
 21
109.95
  0
LINE
  8
L-1-1
 10
189.87
 20
95.59
 11
189.87
 21
102.52
  0
LINE
  8
L-1-1
 10
197.58
 20
102.73
 11
197.58
 21
110.07
  0
LINE
  8
L-1-1
 10
197.50
 20
102.73
 11
197.58
 21
102.73
  0
LINE
  8
L-1-1
 10
197.50
 20
102.73
 11
197.50
 21
110.07
  0
LINE
  8
L-1-1
 10
197.50
 20
110.07
 11
197.58
 21
110.07
  0
LINE
  8
L-1-1
 10
196.25
 20
102.73
 11
196.25
 21
110.07
  0
LINE
  8
L-1-1
 10
196.17
 20
102.73
 11
196.17
 21
110.07
  0
LINE
  8
L-1-1
 10
197.58
 20
103.07
 11
198.68
 21
103.07
  0
LINE
  8
L-1-1
 10
197.58
 20
109.73
 11
198.69
 21
109.73
  0
LINE
  8
L-1-1
 10
196.25
 20
109.85
 11
197.50
 21
109.85
  0
LINE
  8
L-1-1
 10
196.25
 20
109.23
 11
197.50
 21
109.23
  0
LINE
  8
L-1-1
 10
196.25
 20
108.24
 11
197.50
 21
108.24
  0
LINE
  8
L-1-1
 10
196.25
 20
107.04
 11
197.50
 21
107.04
  0
LINE
  8
L-1-1
 10
196.25
 20
105.76
 11
197.50
 21
105.76
  0
LINE
  8
L-1-1
 10
196.25
 20
104.57
 11
197.50
 21
104.57
  0
LINE
  8
L-1-1
 10
196.25
 20
103.59
 11
197.50
 21
103.59
  0
LINE
  8
L-1-1
 10
196.25
 20
102.93
 11
197.50
 21
102.93
  0
LINE
  8
L-1-1
 10
195.69
 20
102.73
 11
196.25
 21
102.73
  0
LINE
  8
L-1-1
 10
195.69
 20
110.07
 11
196.25
 21
110.07
  0
LINE
  8
L-1-1
 10
195.36
 20
110.40
 11
195.69
 21
110.40
  0
LINE
  8
L-1-1
 10
195.69
 20
102.40
 11
195.69
 21
110.40
  0
LINE
  8
L-1-1
 10
195.36
 20
102.40
 11
195.69
 21
102.40
  0
LINE
  8
L-1-1
 10
155.51
 20
89.60
 11
150.99
 21
238.46
  0
LINE
  8
L-1-1
 10
156.35
 20
92.90
 11
154.63
 21
148.92
  0
LINE
  8
L-1-1
 10
154.54
 20
152.08
 11
151.91
 21
237.90
  0
LINE
  8
L-1-1
 10
157.13
 20
92.42
 11
155.37
 21
149.45
  0
LINE
  8
L-1-1
 10
155.60
 20
92.37
 11
153.84
 21
149.40
  0
LINE
  8
L-1-1
 10
315.10
 20
103.73
 11
315.10
 21
109.07
  0
LINE
  8
L-1-1
 10
190.29
 20
105.13
 11
192.67
 21
105.13
  0
LINE
  8
L-1-1
 10
190.29
 20
107.67
 11
192.67
 21
107.67
  0
LINE
  8
L-1-1
 10
190.29
 20
105.13
 11
190.29
 21
107.67
  0
LINE
  8
L-1-1
 10
187.73
 20
108.46
 11
189.71
 21
107.04
  0
LINE
  8
L-1-1
 10
189.83
 20
107.07
 11
189.35
 21
109.49
  0
LINE
  8
L-1-1
 10
190.70
 20
102.68
 11
190.19
 21
105.27
  0
LINE
  8
L-1-1
 10
189.39
 20
102.91
 11
189.87
 21
105.69
  0
LINE
  8
L-1-1
 10
189.79
 20
105.88
 11
189.87
 21
105.88
  0
LINE
  8
L-1-1
 10
189.79
 20
106.92
 11
189.87
 21
106.92
  0
LINE
  8
L-1-1
 10
190.09
 20
107.53
 11
190.29
 21
107.53
  0
LINE
  8
L-1-1
 10
190.09
 20
105.27
 11
190.29
 21
105.27
  0
LINE
  8
L-1-1
 10
190.19
 20
105.27
 11
190.19
 21
107.53
  0
LINE
  8
L-1-1
 10
43.05
 20
105.74
 11
45.04
 21
105.61
  0
LINE
  8
L-1-1
 10
42.38
 20
105.07
 11
43.30
 21
105.01
  0
LINE
  8
L-1-1
 10
42.47
 20
106.50
 11
43.40
 21
106.44
  0
LINE
  8
L-1-1
 10
42.38
 20
105.07
 11
42.47
 21
106.50
  0
LINE
  8
L-1-1
 10
43.05
 20
105.11
 11
44.09
 21
105.29
  0
LINE
  8
L-1-1
 10
43.13
 20
106.37
 11
44.14
 21
106.06
  0
LINE
  8
L-1-1
 10
43.97
 20
104.95
 11
44.04
 21
106.05
  0
LINE
  8
L-1-1
 10
131.51
 20
96.23
 11
171.23
 21
93.59
  0
LINE
  8
L-1-1
 10
91.77
 20
104.48
 11
131.63
 21
101.83
  0
LINE
  8
L-1-1
 10
91.40
 20
98.89
 11
131.26
 21
96.25
  0
LINE
  8
L-1-1
 10
44.75
 20
105.02
 11
91.15
 21
98.92
  0
LINE
  8
L-1-1
 10
44.92
 20
106.08
 11
91.52
 21
104.49
  0
LINE
  8
L-1-1
 10
131.88
 20
101.81
 11
171.60
 21
99.17
  0
LINE
  8
L-1-1
 10
172.16
 20
99.11
 11
191.71
 21
96.22
  0
LINE
  8
L-1-1
 10
171.81
 20
93.60
 11
191.58
 21
95.46
  0
LINE
  8
L-1-1
 10
187.12
 20
81.65
 11
189.65
 21
81.11
  0
LINE
  8
L-1-1
 10
156.77
 20
88.13
 11
186.89
 21
81.70
  0
LINE
  8
L-1-1
 10
187.12
 20
85.12
 11
189.27
 21
84.90
  0
LINE
  8
L-1-1
 10
156.92
 20
88.17
 11
186.89
 21
85.14
  0
LINE
  8
L-1-1
 10
158.55
 20
240.07
 11
159.35
 21
240.07
  0
LINE
  8
L-1-1
 10
159.35
 20
239.40
 11
159.35
 21
240.07
  0
LINE
  8
L-1-1
 10
158.55
 20
239.40
 11
159.35
 21
239.40
  0
LINE
  8
L-1-1
 10
158.55
 20
239.40
 11
158.55
 21
240.07
  0
LINE
  8
L-1-1
 10
152.38
 20
239.73
 11
158.55
 21
239.73
  0
LINE
  8
L-1-1
 10
159.35
 20
239.73
 11
205.66
 21
239.73
  0
LINE
  8
L-1-1
 10
153.26
 20
237.37
 11
153.81
 21
237.60
  0
LINE
  8
L-1-1
 10
154.09
 20
237.03
 11
153.86
 21
237.58
  0
LINE
  8
L-1-1
 10
153.52
 20
236.75
 11
154.07
 21
236.99
  0
LINE
  8
L-1-1
 10
153.48
 20
236.77
 11
153.24
 21
237.32
  0
LINE
  8
L-1-1
 10
153.17
 20
237.40
 11
153.85
 21
237.69
  0
LINE
  8
L-1-1
 10
154.18
 20
236.99
 11
153.89
 21
237.67
  0
LINE
  8
L-1-1
 10
153.48
 20
236.67
 11
154.16
 21
236.95
  0
LINE
  8
L-1-1
 10
153.44
 20
236.68
 11
153.16
 21
237.36
  0
LINE
  8
L-1-1
 10
153.96
 20
237.51
 11
154.05
 21
237.55
  0
LINE
  8
L-1-1
 10
153.99
 20
237.45
 11
154.08
 21
237.48
  0
LINE
  8
L-1-1
 10
153.13
 20
237.16
 11
153.22
 21
237.20
  0
LINE
  8
L-1-1
 10
153.16
 20
237.10
 11
153.25
 21
237.14
  0
LINE
  8
L-1-1
 10
152.96
 20
236.90
 11
153.13
 21
237.04
  0
LINE
  8
L-1-1
 10
152.88
 20
237.15
 11
153.07
 21
237.17
  0
LINE
  8
L-1-1
 10
154.16
 20
237.56
 11
158.55
 21
239.40
  0
LINE
  8
L-1-1
 10
28.51
 20
110.51
 11
28.67
 21
110.51
  0
LINE
  8
L-1-1
 10
28.51
 20
112.47
 11
28.67
 21
112.47
  0
LINE
  8
L-1-1
 10
28.51
 20
110.51
 11
28.51
 21
112.47
  0
LINE
  8
L-1-1
 10
28.51
 20
111.91
 11
28.67
 21
111.91
  0
LINE
  8
L-1-1
 10
28.51
 20
112.24
 11
28.67
 21
112.24
  0
LINE
  8
L-1-1
 10
19.17
 20
112.47
 11
19.33
 21
112.47
  0
LINE
  8
L-1-1
 10
19.17
 20
111.91
 11
19.33
 21
111.91
  0
LINE
  8
L-1-1
 10
19.17
 20
112.24
 11
19.33
 21
112.24
  0
LINE
  8
L-1-1
 10
19.17
 20
110.51
 11
19.17
 21
112.47
  0
LINE
  8
L-1-1
 10
19.17
 20
110.51
 11
19.17
 21
112.47
  0
LINE
  8
L-1-1
 10
19.17
 20
110.51
 11
19.33
 21
110.51
  0
LINE
  8
L-1-1
 10
19.17
 20
110.51
 11
19.17
 21
112.47
  0
LINE
  8
L-1-1
 10
20.38
 20
94.91
 11
28.63
 21
94.91
  0
LINE
  8
L-1-1
 10
20.38
 20
94.80
 11
20.38
 21
94.91
  0
LINE
  8
L-1-1
 10
28.63
 20
94.80
 11
28.63
 21
94.91
  0
LINE
  8
L-1-1
 10
27.46
 20
94.80
 11
27.46
 21
94.91
  0
LINE
  8
L-1-1
 10
27.46
 20
94.80
 11
28.63
 21
94.80
  0
LINE
  8
L-1-1
 10
20.38
 20
94.80
 11
20.38
 21
94.91
  0
LINE
  8
L-1-1
 10
20.38
 20
94.80
 11
20.38
 21
94.91
  0
LINE
  8
L-1-1
 10
19.33
 20
94.80
 11
20.38
 21
94.80
  0
LINE
  8
L-1-1
 10
19.61
 20
94.80
 11
20.38
 21
94.80
  0
LINE
  8
L-1-1
 10
19.33
 20
94.80
 11
20.38
 21
94.80
  0
LINE
  8
L-1-1
 10
28.67
 20
110.49
 11
28.67
 21
112.47
  0
LINE
  8
L-1-1
 10
28.51
 20
96.31
 11
28.67
 21
96.31
  0
LINE
  8
L-1-1
 10
28.51
 20
95.91
 11
28.67
 21
95.91
  0
LINE
  8
L-1-1
 10
28.50
 20
95.74
 11
28.68
 21
95.74
  0
LINE
  8
L-1-1
 10
28.50
 20
96.07
 11
28.68
 21
96.07
  0
LINE
  8
L-1-1
 10
27.58
 20
94.91
 11
27.58
 21
96.11
  0
LINE
  8
L-1-1
 10
26.91
 20
94.91
 11
26.91
 21
96.11
  0
LINE
  8
L-1-1
 10
27.50
 20
96.11
 11
27.58
 21
96.11
  0
LINE
  8
L-1-1
 10
27.50
 20
94.91
 11
27.50
 21
96.11
  0
LINE
  8
L-1-1
 10
26.91
 20
96.11
 11
26.99
 21
96.11
  0
LINE
  8
L-1-1
 10
26.99
 20
94.91
 11
26.99
 21
96.11
  0
LINE
  8
L-1-1
 10
26.82
 20
95.31
 11
27.64
 21
95.31
  0
LINE
  8
L-1-1
 10
27.49
 20
95.14
 11
27.59
 21
95.14
  0
LINE
  8
L-1-1
 10
27.49
 20
95.47
 11
27.59
 21
95.47
  0
LINE
  8
L-1-1
 10
26.91
 20
95.14
 11
27.02
 21
95.14
  0
LINE
  8
L-1-1
 10
26.91
 20
95.47
 11
27.02
 21
95.47
  0
LINE
  8
L-1-1
 10
20.38
 20
94.80
 11
20.38
 21
94.91
  0
LINE
  8
L-1-1
 10
19.17
 20
96.31
 11
19.33
 21
96.31
  0
LINE
  8
L-1-1
 10
19.33
 20
94.91
 11
19.33
 21
96.31
  0
LINE
  8
L-1-1
 10
19.17
 20
95.91
 11
19.33
 21
95.91
  0
LINE
  8
L-1-1
 10
19.17
 20
95.74
 11
19.34
 21
95.74
  0
LINE
  8
L-1-1
 10
19.17
 20
96.07
 11
19.34
 21
96.07
  0
LINE
  8
L-1-1
 10
20.27
 20
94.91
 11
20.27
 21
96.11
  0
LINE
  8
L-1-1
 10
20.93
 20
94.91
 11
20.93
 21
96.11
  0
LINE
  8
L-1-1
 10
20.27
 20
96.11
 11
20.35
 21
96.11
  0
LINE
  8
L-1-1
 10
20.35
 20
94.91
 11
20.35
 21
96.11
  0
LINE
  8
L-1-1
 10
20.85
 20
96.11
 11
20.93
 21
96.11
  0
LINE
  8
L-1-1
 10
20.85
 20
94.91
 11
20.85
 21
96.11
  0
LINE
  8
L-1-1
 10
20.20
 20
95.31
 11
21.02
 21
95.31
  0
LINE
  8
L-1-1
 10
20.25
 20
95.14
 11
20.36
 21
95.14
  0
LINE
  8
L-1-1
 10
20.25
 20
95.47
 11
20.36
 21
95.47
  0
LINE
  8
L-1-1
 10
20.83
 20
95.14
 11
20.93
 21
95.14
  0
LINE
  8
L-1-1
 10
20.83
 20
95.47
 11
20.93
 21
95.47
  0
LINE
  8
L-1-1
 10
19.37
 20
94.95
 11
19.37
 21
112.47
  0
LINE
  8
L-1-1
 10
19.33
 20
94.91
 11
33.17
 21
94.91
  0
LINE
  8
L-1-1
 10
29.37
 20
111.42
 11
29.37
 21
111.63
  0
LINE
  8
L-1-1
 10
23.64
 20
109.66
 11
26.54
 21
109.66
  0
LINE
  8
L-1-1
 10
23.64
 20
103.16
 11
26.54
 21
103.16
  0
LINE
  8
L-1-1
 10
21.31
 20
109.66
 11
24.21
 21
109.66
  0
LINE
  8
L-1-1
 10
21.04
 20
103.42
 11
21.04
 21
109.39
  0
LINE
  8
L-1-1
 10
21.31
 20
103.16
 11
24.21
 21
103.16
  0
LINE
  8
L-1-1
 10
28.50
 20
101.50
 11
28.50
 21
101.67
  0
LINE
  8
L-1-1
 10
28.50
 20
96.95
 11
28.50
 21
97.12
  0
LINE
  8
L-1-1
 10
21.83
 20
101.67
 11
28.50
 21
101.67
  0
LINE
  8
L-1-1
 10
21.83
 20
96.95
 11
28.50
 21
96.95
  0
LINE
  8
L-1-1
 10
21.84
 20
101.50
 11
28.50
 21
101.50
  0
LINE
  8
L-1-1
 10
21.82
 20
97.12
 11
28.50
 21
97.12
  0
LINE
  8
L-1-1
 10
21.83
 20
101.51
 11
21.83
 21
101.67
  0
LINE
  8
L-1-1
 10
21.83
 20
96.95
 11
21.83
 21
97.13
  0
LINE
  8
L-1-1
 10
21.97
 20
97.11
 11
21.97
 21
101.51
  0
LINE
  8
L-1-1
 10
25.97
 20
97.11
 11
25.97
 21
101.51
  0
LINE
  8
L-1-1
 10
26.10
 20
97.13
 11
26.10
 21
101.51
  0
LINE
  8
L-1-1
 10
26.81
 20
102.77
 11
26.97
 21
102.77
  0
LINE
  8
L-1-1
 10
26.81
 20
102.77
 11
26.81
 21
109.41
  0
LINE
  8
L-1-1
 10
28.37
 20
104.77
 11
28.37
 21
107.53
  0
LINE
  8
L-1-1
 10
28.23
 20
108.54
 11
28.23
 21
109.87
  0
LINE
  8
L-1-1
 10
27.56
 20
109.87
 11
28.23
 21
109.87
  0
LINE
  8
L-1-1
 10
27.56
 20
108.54
 11
27.56
 21
109.87
  0
LINE
  8
L-1-1
 10
26.97
 20
102.77
 11
26.97
 21
109.14
  0
LINE
  8
L-1-1
 10
26.81
 20
109.14
 11
26.97
 21
109.14
  0
LINE
  8
L-1-1
 10
28.23
 20
102.01
 11
28.23
 21
103.34
  0
LINE
  8
L-1-1
 10
27.56
 20
103.34
 11
28.23
 21
103.34
  0
LINE
  8
L-1-1
 10
27.56
 20
102.01
 11
28.23
 21
102.01
  0
LINE
  8
L-1-1
 10
27.56
 20
102.01
 11
27.56
 21
103.34
  0
LINE
  8
L-1-1
 10
27.65
 20
109.17
 11
28.15
 21
109.17
  0
LINE
  8
L-1-1
 10
28.15
 20
102.71
 11
28.15
 21
109.17
  0
LINE
  8
L-1-1
 10
27.65
 20
102.71
 11
28.15
 21
102.71
  0
LINE
  8
L-1-1
 10
27.65
 20
102.71
 11
27.65
 21
109.17
  0
LINE
  8
L-1-1
 10
25.12
 20
102.41
 11
26.91
 21
102.95
  0
LINE
  8
L-1-1
 10
25.12
 20
102.41
 11
23.91
 21
106.40
  0
LINE
  8
L-1-1
 10
25.53
 20
102.17
 11
26.83
 21
102.57
  0
LINE
  8
L-1-1
 10
25.61
 20
102.92
 11
26.63
 21
103.23
  0
LINE
  8
L-1-1
 10
25.62
 20
102.88
 11
26.64
 21
103.19
  0
LINE
  8
L-1-1
 10
25.52
 20
102.21
 11
26.82
 21
102.60
  0
LINE
  8
L-1-1
 10
25.27
 20
103.10
 11
24.55
 21
105.47
  0
LINE
  8
L-1-1
 10
24.70
 20
102.61
 11
23.89
 21
105.27
  0
LINE
  8
L-1-1
 10
25.24
 20
103.09
 11
24.24
 21
106.35
  0
LINE
  8
L-1-1
 10
23.66
 20
106.18
 11
24.24
 21
106.35
  0
LINE
  8
L-1-1
 10
24.74
 20
102.63
 11
23.66
 21
106.18
  0
LINE
  8
L-1-1
 10
24.51
 20
105.46
 11
24.55
 21
105.47
  0
LINE
  8
L-1-1
 10
26.98
 20
102.06
 11
26.63
 21
103.23
  0
LINE
  8
L-1-1
 10
26.32
 20
101.85
 11
26.16
 21
102.36
  0
LINE
  8
L-1-1
 10
26.37
 20
101.87
 11
26.22
 21
102.37
  0
LINE
  8
L-1-1
 10
26.43
 20
101.89
 11
26.28
 21
102.39
  0
LINE
  8
L-1-1
 10
26.93
 20
102.04
 11
26.77
 21
102.54
  0
LINE
  8
L-1-1
 10
26.87
 20
102.02
 11
26.72
 21
102.52
  0
LINE
  8
L-1-1
 10
26.32
 20
101.85
 11
26.43
 21
101.89
  0
LINE
  8
L-1-1
 10
26.85
 20
102.02
 11
26.98
 21
102.06
  0
LINE
  8
L-1-1
 10
26.13
 20
102.08
 11
27.02
 21
102.34
  0
LINE
  8
L-1-1
 10
19.33
 20
94.80
 11
20.38
 21
94.80
  0
LINE
  8
L-1-1
 10
19.17
 20
94.61
 11
19.17
 21
96.31
  0
LINE
  8
L-1-1
 10
19.33
 20
94.61
 11
19.33
 21
112.47
  0
LINE
  8
L-1-1
 10
18.93
 20
94.61
 11
19.09
 21
94.61
  0
LINE
  8
L-1-1
 10
18.93
 20
94.74
 11
19.08
 21
94.74
  0
LINE
  8
L-1-1
 10
19.33
 20
94.80
 11
20.38
 21
94.80
  0
LINE
  8
L-1-1
 10
28.27
 20
94.74
 11
28.42
 21
94.74
  0
LINE
  8
L-1-1
 10
28.67
 20
94.61
 11
28.67
 21
96.31
  0
LINE
  8
L-1-1
 10
28.27
 20
94.61
 11
28.43
 21
94.61
  0
LINE
  8
L-1-1
 10
28.51
 20
94.61
 11
28.51
 21
96.31
  0
LINE
  8
L-1-1
 10
19.33
 20
94.95
 11
33.13
 21
94.95
  0
LINE
  8
L-1-1
 10
19.40
 20
94.80
 11
20.38
 21
94.80
  0
LINE
  8
L-1-1
 10
19.36
 20
112.07
 11
28.52
 21
112.07
  0
LINE
  8
L-1-1
 10
32.97
 20
95.31
 11
33.17
 21
95.31
  0
LINE
  8
L-1-1
 10
27.56
 20
108.54
 11
28.23
 21
108.54
  0
LINE
  8
L-1-1
 10
30.27
 20
103.61
 11
30.27
 21
108.27
  0
LINE
  8
L-1-1
 10
27.04
 20
108.27
 11
27.63
 21
108.27
  0
LINE
  8
L-1-1
 10
28.18
 20
108.27
 11
30.27
 21
108.27
  0
LINE
  8
L-1-1
 10
27.00
 20
103.61
 11
27.63
 21
103.61
  0
LINE
  8
L-1-1
 10
28.22
 20
103.61
 11
30.27
 21
103.61
  0
LINE
  8
L-1-1
 10
30.01
 20
79.47
 11
31.84
 21
88.14
  0
LINE
  8
L-1-1
 10
17.84
 20
79.47
 11
30.01
 21
79.47
  0
LINE
  8
L-1-1
 10
17.84
 20
79.51
 11
29.98
 21
79.51
  0
LINE
  8
L-1-1
 10
29.98
 20
79.51
 11
31.80
 21
88.15
  0
LINE
  8
L-1-1
 10
18.11
 20
79.73
 11
29.79
 21
79.73
  0
LINE
  8
L-1-1
 10
27.46
 20
94.69
 11
27.46
 21
94.80
  0
LINE
  8
L-1-1
 10
20.38
 20
94.69
 11
20.38
 21
94.80
  0
LINE
  8
L-1-1
 10
19.22
 20
94.80
 11
20.38
 21
94.80
  0
LINE
  8
L-1-1
 10
17.84
 20
79.47
 11
17.84
 21
94.77
  0
LINE
  8
L-1-1
 10
17.84
 20
94.77
 11
18.97
 21
94.77
  0
LINE
  8
L-1-1
 10
17.88
 20
79.47
 11
17.88
 21
94.73
  0
LINE
  8
L-1-1
 10
17.88
 20
94.73
 11
18.97
 21
94.73
  0
LINE
  8
L-1-1
 10
19.22
 20
94.73
 11
19.22
 21
94.80
  0
LINE
  8
L-1-1
 10
18.11
 20
79.73
 11
18.11
 21
94.73
  0
LINE
  8
L-1-1
 10
27.46
 20
94.80
 11
28.63
 21
94.80
  0
LINE
  8
L-1-1
 10
31.84
 20
88.14
 11
31.84
 21
94.77
  0
LINE
  8
L-1-1
 10
28.63
 20
94.69
 11
28.63
 21
94.80
  0
LINE
  8
L-1-1
 10
20.14
 20
94.69
 11
28.38
 21
94.69
  0
LINE
  8
L-1-1
 10
27.28
 20
93.69
 11
27.28
 21
94.69
  0
LINE
  8
L-1-1
 10
27.32
 20
93.69
 11
27.32
 21
94.69
  0
LINE
  8
L-1-1
 10
27.28
 20
93.69
 11
27.32
 21
93.69
  0
LINE
  8
L-1-1
 10
28.28
 20
93.69
 11
28.32
 21
93.69
  0
LINE
  8
L-1-1
 10
28.28
 20
93.69
 11
28.28
 21
94.70
  0
LINE
  8
L-1-1
 10
28.32
 20
94.00
 11
28.42
 21
94.00
  0
LINE
  8
L-1-1
 10
28.42
 20
94.00
 11
28.42
 21
94.40
  0
LINE
  8
L-1-1
 10
28.32
 20
94.40
 11
28.42
 21
94.40
  0
LINE
  8
L-1-1
 10
28.21
 20
94.20
 11
28.48
 21
94.20
  0
LINE
  8
L-1-1
 10
28.32
 20
94.12
 11
28.43
 21
94.12
  0
LINE
  8
L-1-1
 10
28.32
 20
94.28
 11
28.43
 21
94.28
  0
LINE
  8
L-1-1
 10
20.38
 20
94.69
 11
20.38
 21
94.80
  0
LINE
  8
L-1-1
 10
19.22
 20
94.80
 11
20.38
 21
94.80
  0
LINE
  8
L-1-1
 10
19.22
 20
94.69
 11
19.22
 21
94.80
  0
LINE
  8
L-1-1
 10
19.04
 20
93.69
 11
19.04
 21
94.70
  0
LINE
  8
L-1-1
 10
20.07
 20
93.69
 11
20.07
 21
94.69
  0
LINE
  8
L-1-1
 10
20.03
 20
93.69
 11
20.03
 21
94.69
  0
LINE
  8
L-1-1
 10
20.03
 20
93.69
 11
20.07
 21
93.69
  0
LINE
  8
L-1-1
 10
19.08
 20
93.69
 11
19.08
 21
94.70
  0
LINE
  8
L-1-1
 10
20.08
 20
94.00
 11
20.18
 21
94.00
  0
LINE
  8
L-1-1
 10
20.18
 20
94.00
 11
20.18
 21
94.40
  0
LINE
  8
L-1-1
 10
20.08
 20
94.40
 11
20.18
 21
94.40
  0
LINE
  8
L-1-1
 10
19.96
 20
94.20
 11
20.24
 21
94.20
  0
LINE
  8
L-1-1
 10
20.08
 20
94.12
 11
20.18
 21
94.12
  0
LINE
  8
L-1-1
 10
20.08
 20
94.28
 11
20.18
 21
94.28
  0
LINE
  8
L-1-1
 10
28.32
 20
93.69
 11
28.32
 21
94.70
  0
LINE
  8
L-1-1
 10
31.40
 20
92.49
 11
31.40
 21
92.89
  0
LINE
  8
L-1-1
 10
31.36
 20
92.49
 11
31.40
 21
92.49
  0
LINE
  8
L-1-1
 10
31.40
 20
92.89
 11
31.80
 21
92.89
  0
LINE
  8
L-1-1
 10
31.36
 20
92.93
 11
31.80
 21
92.93
  0
LINE
  8
L-1-1
 10
31.31
 20
92.71
 11
31.44
 21
92.71
  0
LINE
  8
L-1-1
 10
31.36
 20
92.67
 11
31.40
 21
92.67
  0
LINE
  8
L-1-1
 10
31.36
 20
92.76
 11
31.40
 21
92.76
  0
LINE
  8
L-1-1
 10
31.36
 20
90.53
 11
31.80
 21
90.53
  0
LINE
  8
L-1-1
 10
31.40
 20
88.17
 11
31.40
 21
88.57
  0
LINE
  8
L-1-1
 10
31.36
 20
88.13
 11
31.36
 21
88.57
  0
LINE
  8
L-1-1
 10
31.36
 20
88.57
 11
31.40
 21
88.57
  0
LINE
  8
L-1-1
 10
31.40
 20
88.17
 11
31.80
 21
88.17
  0
LINE
  8
L-1-1
 10
31.36
 20
88.13
 11
31.80
 21
88.13
  0
LINE
  8
L-1-1
 10
31.31
 20
88.35
 11
31.44
 21
88.35
  0
LINE
  8
L-1-1
 10
29.63
 20
88.53
 11
29.63
 21
92.53
  0
LINE
  8
L-1-1
 10
31.36
 20
88.53
 11
31.36
 21
92.53
  0
LINE
  8
L-1-1
 10
31.32
 20
88.31
 11
31.40
 21
88.31
  0
LINE
  8
L-1-1
 10
31.33
 20
88.40
 11
31.40
 21
88.40
  0
LINE
  8
L-1-1
 10
31.32
 20
88.22
 11
31.36
 21
88.22
  0
LINE
  8
L-1-1
 10
29.63
 20
88.53
 11
31.32
 21
88.53
  0
LINE
  8
L-1-1
 10
29.79
 20
79.73
 11
31.58
 21
88.16
  0
LINE
  8
L-1-1
 10
29.76
 20
88.53
 11
29.76
 21
92.53
  0
LINE
  8
L-1-1
 10
31.40
 20
92.49
 11
31.40
 21
92.89
  0
LINE
  8
L-1-1
 10
31.36
 20
92.49
 11
31.36
 21
92.93
  0
LINE
  8
L-1-1
 10
31.36
 20
92.49
 11
31.40
 21
92.49
  0
LINE
  8
L-1-1
 10
31.31
 20
92.71
 11
31.44
 21
92.71
  0
LINE
  8
L-1-1
 10
31.32
 20
92.76
 11
31.40
 21
92.76
  0
LINE
  8
L-1-1
 10
31.33
 20
92.67
 11
31.40
 21
92.67
  0
LINE
  8
L-1-1
 10
31.32
 20
92.85
 11
31.36
 21
92.85
  0
LINE
  8
L-1-1
 10
31.32
 20
88.22
 11
31.32
 21
92.85
  0
LINE
  8
L-1-1
 10
29.63
 20
92.53
 11
31.32
 21
92.53
  0
LINE
  8
L-1-1
 10
19.08
 20
87.97
 11
19.08
 21
90.30
  0
LINE
  8
L-1-1
 10
19.08
 20
87.97
 11
20.54
 21
87.97
  0
LINE
  8
L-1-1
 10
20.54
 20
87.97
 11
20.54
 21
90.30
  0
LINE
  8
L-1-1
 10
19.08
 20
90.30
 11
20.54
 21
90.30
  0
LINE
  8
L-1-1
 10
25.23
 20
80.33
 11
25.23
 21
81.00
  0
LINE
  8
L-1-1
 10
25.12
 20
81.00
 11
25.23
 21
81.00
  0
LINE
  8
L-1-1
 10
25.12
 20
80.33
 11
25.23
 21
80.33
  0
LINE
  8
L-1-1
 10
25.12
 20
80.33
 11
25.12
 21
81.00
  0
LINE
  8
L-1-1
 10
24.96
 20
80.67
 11
25.32
 21
80.67
  0
LINE
  8
L-1-1
 10
25.12
 20
80.58
 11
25.22
 21
80.58
  0
LINE
  8
L-1-1
 10
25.12
 20
80.75
 11
25.22
 21
80.75
  0
LINE
  8
L-1-1
 10
20.41
 20
80.00
 11
20.41
 21
83.47
  0
LINE
  8
L-1-1
 10
20.41
 20
80.00
 11
23.94
 21
80.00
  0
LINE
  8
L-1-1
 10
22.34
 20
80.00
 11
22.34
 21
83.47
  0
LINE
  8
L-1-1
 10
22.84
 20
80.00
 11
22.84
 21
83.47
  0
LINE
  8
L-1-1
 10
19.04
 20
93.69
 11
28.32
 21
93.69
  0
LINE
  8
L-1-1
 10
23.94
 20
80.00
 11
23.94
 21
82.80
  0
LINE
  8
L-1-1
 10
20.41
 20
83.47
 11
23.28
 21
83.47
  0
LINE
  8
L-1-1
 10
24.61
 20
84.17
 11
27.48
 21
84.17
  0
LINE
  8
L-1-1
 10
27.48
 20
84.17
 11
27.48
 21
88.11
  0
LINE
  8
L-1-1
 10
23.94
 20
88.11
 11
27.48
 21
88.11
  0
LINE
  8
L-1-1
 10
23.94
 20
84.84
 11
23.94
 21
88.11
  0
LINE
  8
L-1-1
 10
25.04
 20
84.22
 11
25.04
 21
88.11
  0
LINE
  8
L-1-1
 10
25.54
 20
84.22
 11
25.54
 21
88.11
  0
LINE
  8
L-1-1
 10
29.29
 20
84.39
 11
29.29
 21
88.06
  0
LINE
  8
L-1-1
 10
25.29
 20
84.39
 11
25.29
 21
87.95
  0
LINE
  8
L-1-1
 10
24.99
 20
87.77
 11
29.63
 21
87.77
  0
LINE
  8
L-1-1
 10
28.50
 20
94.80
 11
28.50
 21
95.07
  0
LINE
  8
L-1-1
 10
27.61
 20
94.80
 11
27.61
 21
95.07
  0
LINE
  8
L-1-1
 10
28.32
 20
94.80
 11
28.32
 21
95.07
  0
LINE
  8
L-1-1
 10
28.32
 20
95.07
 11
28.50
 21
95.07
  0
LINE
  8
L-1-1
 10
27.78
 20
94.80
 11
27.78
 21
95.07
  0
LINE
  8
L-1-1
 10
27.61
 20
95.07
 11
27.78
 21
95.07
  0
LINE
  8
L-1-1
 10
28.33
 20
94.93
 11
28.50
 21
94.93
  0
LINE
  8
L-1-1
 10
27.61
 20
94.93
 11
27.78
 21
94.93
  0
LINE
  8
L-1-1
 10
28.08
 20
94.67
 11
28.25
 21
94.67
  0
LINE
  8
L-1-1
 10
27.37
 20
94.67
 11
27.53
 21
94.67
  0
LINE
  8
L-1-1
 10
20.38
 20
94.69
 11
20.38
 21
94.80
  0
LINE
  8
L-1-1
 10
19.22
 20
94.80
 11
20.38
 21
94.80
  0
LINE
  8
L-1-1
 10
19.22
 20
94.69
 11
19.22
 21
94.80
  0
LINE
  8
L-1-1
 10
20.08
 20
94.40
 11
20.18
 21
94.40
  0
LINE
  8
L-1-1
 10
19.35
 20
94.80
 11
19.35
 21
95.07
  0
LINE
  8
L-1-1
 10
20.24
 20
94.80
 11
20.24
 21
95.07
  0
LINE
  8
L-1-1
 10
19.52
 20
94.80
 11
19.52
 21
95.07
  0
LINE
  8
L-1-1
 10
19.35
 20
95.07
 11
19.52
 21
95.07
  0
LINE
  8
L-1-1
 10
20.06
 20
94.80
 11
20.06
 21
95.07
  0
LINE
  8
L-1-1
 10
20.06
 20
95.07
 11
20.24
 21
95.07
  0
LINE
  8
L-1-1
 10
19.35
 20
94.93
 11
19.51
 21
94.93
  0
LINE
  8
L-1-1
 10
20.07
 20
94.93
 11
20.23
 21
94.93
  0
LINE
  8
L-1-1
 10
19.10
 20
94.67
 11
19.27
 21
94.67
  0
LINE
  8
L-1-1
 10
19.82
 20
94.67
 11
19.99
 21
94.67
  0
LINE
  8
L-1-1
 10
20.18
 20
87.97
 11
20.18
 21
88.60
  0
LINE
  8
L-1-1
 10
19.91
 20
88.30
 11
20.54
 21
88.30
  0
LINE
  8
L-1-1
 10
18.72
 20
89.63
 11
19.08
 21
89.63
  0
LINE
  8
L-1-1
 10
18.98
 20
89.57
 11
19.08
 21
89.57
  0
LINE
  8
L-1-1
 10
18.98
 20
89.70
 11
19.08
 21
89.70
  0
LINE
  8
L-1-1
 10
18.92
 20
89.47
 11
18.98
 21
89.47
  0
LINE
  8
L-1-1
 10
18.98
 20
89.47
 11
18.98
 21
91.20
  0
LINE
  8
L-1-1
 10
18.92
 20
91.20
 11
18.98
 21
91.20
  0
LINE
  8
L-1-1
 10
18.92
 20
89.47
 11
18.92
 21
91.20
  0
LINE
  8
L-1-1
 10
18.92
 20
91.03
 11
18.98
 21
91.03
  0
LINE
  8
L-1-1
 10
18.92
 20
90.98
 11
18.98
 21
90.98
  0
LINE
  8
L-1-1
 10
18.92
 20
91.09
 11
18.98
 21
91.09
  0
LINE
  8
L-1-1
 10
31.58
 20
88.16
 11
31.58
 21
95.33
  0
LINE
  8
L-1-1
 10
28.38
 20
94.73
 11
31.58
 21
94.73
  0
LINE
  8
L-1-1
 10
31.80
 20
94.77
 11
31.84
 21
94.77
  0
LINE
  8
L-1-1
 10
28.38
 20
94.77
 11
31.57
 21
94.77
  0
LINE
  8
L-1-1
 10
31.80
 20
88.14
 11
31.80
 21
95.33
  0
LINE
  8
L-1-1
 10
26.20
 20
84.57
 11
26.23
 21
84.57
  0
LINE
  8
L-1-1
 10
28.36
 20
84.57
 11
28.39
 21
84.57
  0
LINE
  8
L-1-1
 10
28.32
 20
84.61
 11
28.32
 21
87.73
  0
LINE
  8
L-1-1
 10
28.36
 20
87.77
 11
28.39
 21
87.77
  0
LINE
  8
L-1-1
 10
26.27
 20
84.61
 11
26.27
 21
87.73
  0
LINE
  8
L-1-1
 10
26.20
 20
87.77
 11
26.23
 21
87.77
  0
LINE
  8
L-1-1
 10
26.27
 20
87.07
 11
28.32
 21
87.07
  0
LINE
  8
L-1-1
 10
26.27
 20
85.27
 11
28.32
 21
85.27
  0
LINE
  8
L-1-1
 10
28.39
 20
84.50
 11
28.39
 21
87.77
  0
LINE
  8
L-1-1
 10
28.39
 20
84.50
 11
28.49
 21
84.50
  0
LINE
  8
L-1-1
 10
28.55
 20
84.70
 11
29.13
 21
84.70
  0
LINE
  8
L-1-1
 10
26.20
 20
84.57
 11
26.23
 21
84.57
  0
LINE
  8
L-1-1
 10
26.27
 20
84.61
 11
26.27
 21
87.73
  0
LINE
  8
L-1-1
 10
26.20
 20
87.77
 11
26.23
 21
87.77
  0
LINE
  8
L-1-1
 10
26.05
 20
84.50
 11
26.20
 21
84.50
  0
LINE
  8
L-1-1
 10
22.51
 20
85.30
 11
22.51
 21
87.04
  0
LINE
  8
L-1-1
 10
22.83
 20
84.90
 11
23.38
 21
84.90
  0
LINE
  8
L-1-1
 10
22.83
 20
84.90
 11
22.52
 21
85.31
  0
LINE
  8
L-1-1
 10
23.28
 20
84.91
 11
23.28
 21
87.44
  0
LINE
  8
L-1-1
 10
23.18
 20
84.91
 11
23.18
 21
87.44
  0
LINE
  8
L-1-1
 10
23.38
 20
84.90
 11
23.38
 21
87.44
  0
LINE
  8
L-1-1
 10
22.52
 20
87.03
 11
22.83
 21
87.44
  0
LINE
  8
L-1-1
 10
22.85
 20
84.91
 11
22.85
 21
87.44
  0
LINE
  8
L-1-1
 10
22.85
 20
87.44
 11
23.38
 21
87.44
  0
LINE
  8
L-1-1
 10
23.38
 20
85.34
 11
23.54
 21
85.34
  0
LINE
  8
L-1-1
 10
23.38
 20
87.00
 11
23.54
 21
87.00
  0
LINE
  8
L-1-1
 10
23.55
 20
85.17
 11
23.55
 21
87.17
  0
LINE
  8
L-1-1
 10
25.65
 20
84.90
 11
26.06
 21
84.90
  0
LINE
  8
L-1-1
 10
25.29
 20
85.10
 11
25.32
 21
85.10
  0
LINE
  8
L-1-1
 10
25.29
 20
85.10
 11
25.29
 21
87.24
  0
LINE
  8
L-1-1
 10
25.29
 20
87.24
 11
25.32
 21
87.24
  0
LINE
  8
L-1-1
 10
25.32
 20
85.10
 11
25.32
 21
87.24
  0
LINE
  8
L-1-1
 10
23.55
 20
85.17
 11
25.49
 21
85.17
  0
LINE
  8
L-1-1
 10
25.16
 20
85.10
 11
25.19
 21
85.10
  0
LINE
  8
L-1-1
 10
25.16
 20
85.10
 11
25.16
 21
87.24
  0
LINE
  8
L-1-1
 10
25.16
 20
87.24
 11
25.19
 21
87.24
  0
LINE
  8
L-1-1
 10
25.19
 20
85.10
 11
25.19
 21
87.24
  0
LINE
  8
L-1-1
 10
25.03
 20
85.10
 11
25.07
 21
85.10
  0
LINE
  8
L-1-1
 10
25.03
 20
87.24
 11
25.07
 21
87.24
  0
LINE
  8
L-1-1
 10
25.07
 20
85.10
 11
25.07
 21
87.24
  0
LINE
  8
L-1-1
 10
24.91
 20
85.10
 11
24.94
 21
85.10
  0
LINE
  8
L-1-1
 10
24.91
 20
85.10
 11
24.91
 21
87.24
  0
LINE
  8
L-1-1
 10
24.91
 20
87.24
 11
24.94
 21
87.24
  0
LINE
  8
L-1-1
 10
24.94
 20
85.10
 11
24.94
 21
87.24
  0
LINE
  8
L-1-1
 10
24.78
 20
85.10
 11
24.81
 21
85.10
  0
LINE
  8
L-1-1
 10
24.78
 20
85.10
 11
24.78
 21
87.24
  0
LINE
  8
L-1-1
 10
24.78
 20
87.24
 11
24.81
 21
87.24
  0
LINE
  8
L-1-1
 10
24.81
 20
85.10
 11
24.81
 21
87.24
  0
LINE
  8
L-1-1
 10
24.65
 20
85.10
 11
24.69
 21
85.10
  0
LINE
  8
L-1-1
 10
24.65
 20
85.10
 11
24.65
 21
87.24
  0
LINE
  8
L-1-1
 10
24.65
 20
87.24
 11
24.69
 21
87.24
  0
LINE
  8
L-1-1
 10
24.69
 20
85.10
 11
24.69
 21
87.24
  0
LINE
  8
L-1-1
 10
24.53
 20
85.10
 11
24.56
 21
85.10
  0
LINE
  8
L-1-1
 10
24.53
 20
85.10
 11
24.53
 21
87.24
  0
LINE
  8
L-1-1
 10
24.53
 20
87.24
 11
24.56
 21
87.24
  0
LINE
  8
L-1-1
 10
24.56
 20
85.10
 11
24.56
 21
87.24
  0
LINE
  8
L-1-1
 10
24.40
 20
85.10
 11
24.43
 21
85.10
  0
LINE
  8
L-1-1
 10
24.40
 20
85.10
 11
24.40
 21
87.24
  0
LINE
  8
L-1-1
 10
24.40
 20
87.24
 11
24.43
 21
87.24
  0
LINE
  8
L-1-1
 10
24.43
 20
85.10
 11
24.43
 21
87.24
  0
LINE
  8
L-1-1
 10
24.27
 20
85.10
 11
24.31
 21
85.10
  0
LINE
  8
L-1-1
 10
24.27
 20
85.10
 11
24.27
 21
87.24
  0
LINE
  8
L-1-1
 10
24.27
 20
87.24
 11
24.31
 21
87.24
  0
LINE
  8
L-1-1
 10
24.31
 20
85.10
 11
24.31
 21
87.24
  0
LINE
  8
L-1-1
 10
24.15
 20
85.10
 11
24.18
 21
85.10
  0
LINE
  8
L-1-1
 10
24.15
 20
85.10
 11
24.15
 21
87.24
  0
LINE
  8
L-1-1
 10
24.15
 20
87.24
 11
24.18
 21
87.24
  0
LINE
  8
L-1-1
 10
24.18
 20
85.10
 11
24.18
 21
87.24
  0
LINE
  8
L-1-1
 10
24.02
 20
85.10
 11
24.05
 21
85.10
  0
LINE
  8
L-1-1
 10
24.02
 20
85.10
 11
24.02
 21
87.24
  0
LINE
  8
L-1-1
 10
24.02
 20
87.24
 11
24.05
 21
87.24
  0
LINE
  8
L-1-1
 10
24.05
 20
85.10
 11
24.05
 21
87.24
  0
LINE
  8
L-1-1
 10
23.65
 20
85.17
 11
23.65
 21
87.17
  0
LINE
  8
L-1-1
 10
23.71
 20
85.17
 11
23.71
 21
87.17
  0
LINE
  8
L-1-1
 10
23.89
 20
85.10
 11
23.93
 21
85.10
  0
LINE
  8
L-1-1
 10
23.89
 20
85.10
 11
23.89
 21
87.24
  0
LINE
  8
L-1-1
 10
23.89
 20
87.24
 11
23.93
 21
87.24
  0
LINE
  8
L-1-1
 10
23.93
 20
85.10
 11
23.93
 21
87.24
  0
LINE
  8
L-1-1
 10
23.72
 20
85.27
 11
25.49
 21
85.27
  0
LINE
  8
L-1-1
 10
23.72
 20
87.07
 11
25.49
 21
87.07
  0
LINE
  8
L-1-1
 10
23.72
 20
86.10
 11
25.49
 21
86.10
  0
LINE
  8
L-1-1
 10
23.72
 20
86.24
 11
25.49
 21
86.24
  0
LINE
  8
L-1-1
 10
23.55
 20
87.17
 11
25.50
 21
87.17
  0
LINE
  8
L-1-1
 10
28.36
 20
84.57
 11
28.39
 21
84.57
  0
LINE
  8
L-1-1
 10
28.36
 20
87.77
 11
28.39
 21
87.77
  0
LINE
  8
L-1-1
 10
28.36
 20
84.57
 11
28.39
 21
84.57
  0
LINE
  8
L-1-1
 10
28.36
 20
87.77
 11
28.39
 21
87.77
  0
LINE
  8
L-1-1
 10
28.39
 20
84.50
 11
28.53
 21
84.50
  0
LINE
  8
L-1-1
 10
28.53
 20
84.50
 11
28.53
 21
87.80
  0
LINE
  8
L-1-1
 10
25.49
 20
84.94
 11
25.65
 21
84.94
  0
LINE
  8
L-1-1
 10
28.88
 20
84.22
 11
28.88
 21
85.00
  0
LINE
  8
L-1-1
 10
29.15
 20
84.64
 11
29.15
 21
84.70
  0
LINE
  8
L-1-1
 10
28.61
 20
84.64
 11
29.15
 21
84.64
  0
LINE
  8
L-1-1
 10
28.61
 20
84.64
 11
28.61
 21
84.70
  0
LINE
  8
L-1-1
 10
29.05
 20
84.60
 11
29.05
 21
84.63
  0
LINE
  8
L-1-1
 10
28.71
 20
84.60
 11
29.05
 21
84.60
  0
LINE
  8
L-1-1
 10
28.71
 20
84.60
 11
28.71
 21
84.64
  0
LINE
  8
L-1-1
 10
28.98
 20
84.50
 11
28.98
 21
84.60
  0
LINE
  8
L-1-1
 10
28.78
 20
84.50
 11
28.98
 21
84.50
  0
LINE
  8
L-1-1
 10
28.78
 20
84.50
 11
28.78
 21
84.60
  0
LINE
  8
L-1-1
 10
26.20
 20
87.77
 11
26.23
 21
87.77
  0
LINE
  8
L-1-1
 10
28.36
 20
87.77
 11
28.39
 21
87.77
  0
LINE
  8
L-1-1
 10
26.27
 20
87.07
 11
28.32
 21
87.07
  0
LINE
  8
L-1-1
 10
28.55
 20
87.64
 11
29.13
 21
87.64
  0
LINE
  8
L-1-1
 10
26.20
 20
87.77
 11
26.23
 21
87.77
  0
LINE
  8
L-1-1
 10
25.29
 20
87.24
 11
25.32
 21
87.24
  0
LINE
  8
L-1-1
 10
25.16
 20
87.24
 11
25.19
 21
87.24
  0
LINE
  8
L-1-1
 10
25.03
 20
87.24
 11
25.07
 21
87.24
  0
LINE
  8
L-1-1
 10
28.36
 20
87.77
 11
28.39
 21
87.77
  0
LINE
  8
L-1-1
 10
28.36
 20
87.77
 11
28.39
 21
87.77
  0
LINE
  8
L-1-1
 10
25.65
 20
87.44
 11
26.06
 21
87.44
  0
LINE
  8
L-1-1
 10
25.65
 20
84.90
 11
25.65
 21
87.44
  0
LINE
  8
L-1-1
 10
26.05
 20
84.50
 11
26.05
 21
87.84
  0
LINE
  8
L-1-1
 10
26.05
 20
87.84
 11
26.20
 21
87.84
  0
LINE
  8
L-1-1
 10
26.20
 20
84.50
 11
26.20
 21
87.84
  0
LINE
  8
L-1-1
 10
28.39
 20
84.50
 11
28.39
 21
87.84
  0
LINE
  8
L-1-1
 10
28.39
 20
87.84
 11
28.53
 21
87.84
  0
LINE
  8
L-1-1
 10
28.39
 20
87.84
 11
28.53
 21
87.84
  0
LINE
  8
L-1-1
 10
28.53
 20
84.54
 11
28.53
 21
87.84
  0
LINE
  8
L-1-1
 10
29.23
 20
84.80
 11
29.23
 21
87.55
  0
LINE
  8
L-1-1
 10
25.49
 20
87.40
 11
25.65
 21
87.40
  0
LINE
  8
L-1-1
 10
25.49
 20
84.94
 11
25.49
 21
87.40
  0
LINE
  8
L-1-1
 10
25.59
 20
84.94
 11
25.59
 21
87.39
  0
LINE
  8
L-1-1
 10
30.18
 20
84.80
 11
30.18
 21
87.54
  0
LINE
  8
L-1-1
 10
29.24
 20
84.80
 11
30.28
 21
84.80
  0
LINE
  8
L-1-1
 10
30.28
 20
84.80
 11
30.28
 21
87.54
  0
LINE
  8
L-1-1
 10
29.24
 20
87.54
 11
30.28
 21
87.54
  0
LINE
  8
L-1-1
 10
27.29
 20
84.13
 11
27.29
 21
88.68
  0
LINE
  8
L-1-1
 10
25.03
 20
87.97
 11
29.56
 21
87.97
  0
LINE
  8
L-1-1
 10
29.56
 20
84.37
 11
29.56
 21
84.79
  0
LINE
  8
L-1-1
 10
29.56
 20
87.56
 11
29.56
 21
87.97
  0
LINE
  8
L-1-1
 10
29.26
 20
84.57
 11
29.56
 21
84.57
  0
LINE
  8
L-1-1
 10
25.03
 20
84.57
 11
25.49
 21
84.57
  0
LINE
  8
L-1-1
 10
29.13
 20
87.77
 11
29.56
 21
87.77
  0
LINE
  8
L-1-1
 10
25.03
 20
87.77
 11
25.46
 21
87.77
  0
LINE
  8
L-1-1
 10
29.29
 20
84.37
 11
29.29
 21
84.79
  0
LINE
  8
L-1-1
 10
29.29
 20
87.56
 11
29.29
 21
87.97
  0
LINE
  8
L-1-1
 10
25.29
 20
87.59
 11
25.29
 21
87.97
  0
LINE
  8
L-1-1
 10
25.30
 20
84.37
 11
25.30
 21
84.78
  0
LINE
  8
L-1-1
 10
25.03
 20
85.10
 11
25.03
 21
87.24
  0
LINE
  8
L-1-1
 10
25.03
 20
84.37
 11
29.56
 21
84.37
  0
LINE
  8
L-1-1
 10
25.03
 20
84.37
 11
25.03
 21
85.06
  0
LINE
  8
L-1-1
 10
25.03
 20
87.29
 11
25.03
 21
87.97
  0
LINE
  8
L-1-1
 10
26.31
 20
84.80
 11
28.33
 21
84.80
  0
LINE
  8
L-1-1
 10
25.03
 20
84.80
 11
26.04
 21
84.80
  0
LINE
  8
L-1-1
 10
26.31
 20
87.54
 11
28.32
 21
87.54
  0
LINE
  8
L-1-1
 10
25.03
 20
87.54
 11
26.04
 21
87.54
  0
LINE
  8
L-1-1
 10
24.94
 20
84.57
 11
29.63
 21
84.57
  0
LINE
  8
L-1-1
 10
20.03
 20
81.33
 11
20.03
 21
82.33
  0
LINE
  8
L-1-1
 10
19.50
 20
81.83
 11
20.36
 21
81.83
  0
LINE
  8
L-1-1
 10
26.98
 20
86.17
 11
27.59
 21
86.17
  0
LINE
  8
L-1-1
 10
21.63
 20
80.40
 11
21.63
 21
83.25
  0
LINE
  8
L-1-1
 10
20.88
 20
80.54
 11
20.90
 21
80.54
  0
LINE
  8
L-1-1
 10
19.15
 20
80.54
 11
19.17
 21
80.54
  0
LINE
  8
L-1-1
 10
19.21
 20
80.58
 11
19.21
 21
83.07
  0
LINE
  8
L-1-1
 10
19.15
 20
83.10
 11
19.17
 21
83.10
  0
LINE
  8
L-1-1
 10
20.85
 20
80.58
 11
20.85
 21
83.07
  0
LINE
  8
L-1-1
 10
20.88
 20
83.10
 11
20.90
 21
83.10
  0
LINE
  8
L-1-1
 10
19.21
 20
82.54
 11
20.85
 21
82.54
  0
LINE
  8
L-1-1
 10
19.21
 20
81.10
 11
20.85
 21
81.10
  0
LINE
  8
L-1-1
 10
19.15
 20
80.49
 11
19.15
 21
83.10
  0
LINE
  8
L-1-1
 10
19.07
 20
80.49
 11
19.15
 21
80.49
  0
LINE
  8
L-1-1
 10
18.56
 20
80.65
 11
19.03
 21
80.65
  0
LINE
  8
L-1-1
 10
20.88
 20
80.54
 11
20.90
 21
80.54
  0
LINE
  8
L-1-1
 10
20.85
 20
80.58
 11
20.85
 21
83.07
  0
LINE
  8
L-1-1
 10
20.88
 20
83.10
 11
20.90
 21
83.10
  0
LINE
  8
L-1-1
 10
20.90
 20
80.49
 11
21.02
 21
80.49
  0
LINE
  8
L-1-1
 10
23.85
 20
81.13
 11
23.85
 21
82.52
  0
LINE
  8
L-1-1
 10
23.16
 20
80.81
 11
23.60
 21
80.81
  0
LINE
  8
L-1-1
 10
23.60
 20
80.81
 11
23.85
 21
81.14
  0
LINE
  8
L-1-1
 10
23.24
 20
80.81
 11
23.24
 21
82.84
  0
LINE
  8
L-1-1
 10
23.32
 20
80.81
 11
23.32
 21
82.84
  0
LINE
  8
L-1-1
 10
23.16
 20
80.81
 11
23.16
 21
82.84
  0
LINE
  8
L-1-1
 10
23.85
 20
82.51
 11
23.60
 21
82.84
  0
LINE
  8
L-1-1
 10
23.59
 20
80.81
 11
23.59
 21
82.84
  0
LINE
  8
L-1-1
 10
23.16
 20
82.84
 11
23.59
 21
82.84
  0
LINE
  8
L-1-1
 10
23.03
 20
81.16
 11
23.16
 21
81.16
  0
LINE
  8
L-1-1
 10
23.03
 20
82.49
 11
23.16
 21
82.49
  0
LINE
  8
L-1-1
 10
23.03
 20
81.02
 11
23.03
 21
82.62
  0
LINE
  8
L-1-1
 10
21.02
 20
80.81
 11
21.34
 21
80.81
  0
LINE
  8
L-1-1
 10
21.61
 20
80.97
 11
21.63
 21
80.97
  0
LINE
  8
L-1-1
 10
21.63
 20
80.97
 11
21.63
 21
82.68
  0
LINE
  8
L-1-1
 10
21.61
 20
82.68
 11
21.63
 21
82.68
  0
LINE
  8
L-1-1
 10
21.61
 20
80.97
 11
21.61
 21
82.68
  0
LINE
  8
L-1-1
 10
21.47
 20
81.02
 11
23.03
 21
81.02
  0
LINE
  8
L-1-1
 10
21.71
 20
80.97
 11
21.73
 21
80.97
  0
LINE
  8
L-1-1
 10
21.73
 20
80.97
 11
21.73
 21
82.68
  0
LINE
  8
L-1-1
 10
21.71
 20
82.68
 11
21.73
 21
82.68
  0
LINE
  8
L-1-1
 10
21.71
 20
80.97
 11
21.71
 21
82.68
  0
LINE
  8
L-1-1
 10
21.81
 20
80.97
 11
21.84
 21
80.97
  0
LINE
  8
L-1-1
 10
21.81
 20
82.68
 11
21.84
 21
82.68
  0
LINE
  8
L-1-1
 10
21.81
 20
80.97
 11
21.81
 21
82.68
  0
LINE
  8
L-1-1
 10
21.91
 20
80.97
 11
21.94
 21
80.97
  0
LINE
  8
L-1-1
 10
21.94
 20
80.97
 11
21.94
 21
82.68
  0
LINE
  8
L-1-1
 10
21.91
 20
82.68
 11
21.94
 21
82.68
  0
LINE
  8
L-1-1
 10
21.91
 20
80.97
 11
21.91
 21
82.68
  0
LINE
  8
L-1-1
 10
22.01
 20
80.97
 11
22.04
 21
80.97
  0
LINE
  8
L-1-1
 10
22.04
 20
80.97
 11
22.04
 21
82.68
  0
LINE
  8
L-1-1
 10
22.01
 20
82.68
 11
22.04
 21
82.68
  0
LINE
  8
L-1-1
 10
22.01
 20
80.97
 11
22.01
 21
82.68
  0
LINE
  8
L-1-1
 10
22.11
 20
80.97
 11
22.14
 21
80.97
  0
LINE
  8
L-1-1
 10
22.14
 20
80.97
 11
22.14
 21
82.68
  0
LINE
  8
L-1-1
 10
22.11
 20
82.68
 11
22.14
 21
82.68
  0
LINE
  8
L-1-1
 10
22.11
 20
80.97
 11
22.11
 21
82.68
  0
LINE
  8
L-1-1
 10
22.21
 20
80.97
 11
22.24
 21
80.97
  0
LINE
  8
L-1-1
 10
22.24
 20
80.97
 11
22.24
 21
82.68
  0
LINE
  8
L-1-1
 10
22.21
 20
82.68
 11
22.24
 21
82.68
  0
LINE
  8
L-1-1
 10
22.21
 20
80.97
 11
22.21
 21
82.68
  0
LINE
  8
L-1-1
 10
22.32
 20
80.97
 11
22.34
 21
80.97
  0
LINE
  8
L-1-1
 10
22.34
 20
80.97
 11
22.34
 21
82.68
  0
LINE
  8
L-1-1
 10
22.32
 20
82.68
 11
22.34
 21
82.68
  0
LINE
  8
L-1-1
 10
22.32
 20
80.97
 11
22.32
 21
82.68
  0
LINE
  8
L-1-1
 10
22.42
 20
80.97
 11
22.44
 21
80.97
  0
LINE
  8
L-1-1
 10
22.44
 20
80.97
 11
22.44
 21
82.68
  0
LINE
  8
L-1-1
 10
22.42
 20
82.68
 11
22.44
 21
82.68
  0
LINE
  8
L-1-1
 10
22.42
 20
80.97
 11
22.42
 21
82.68
  0
LINE
  8
L-1-1
 10
22.52
 20
80.97
 11
22.55
 21
80.97
  0
LINE
  8
L-1-1
 10
22.55
 20
80.97
 11
22.55
 21
82.68
  0
LINE
  8
L-1-1
 10
22.52
 20
82.68
 11
22.55
 21
82.68
  0
LINE
  8
L-1-1
 10
22.52
 20
80.97
 11
22.52
 21
82.68
  0
LINE
  8
L-1-1
 10
22.62
 20
80.97
 11
22.65
 21
80.97
  0
LINE
  8
L-1-1
 10
22.65
 20
80.97
 11
22.65
 21
82.68
  0
LINE
  8
L-1-1
 10
22.62
 20
82.68
 11
22.65
 21
82.68
  0
LINE
  8
L-1-1
 10
22.62
 20
80.97
 11
22.62
 21
82.68
  0
LINE
  8
L-1-1
 10
22.95
 20
81.02
 11
22.95
 21
82.62
  0
LINE
  8
L-1-1
 10
22.89
 20
81.02
 11
22.89
 21
82.62
  0
LINE
  8
L-1-1
 10
22.72
 20
80.97
 11
22.75
 21
80.97
  0
LINE
  8
L-1-1
 10
22.75
 20
80.97
 11
22.75
 21
82.68
  0
LINE
  8
L-1-1
 10
22.72
 20
82.68
 11
22.75
 21
82.68
  0
LINE
  8
L-1-1
 10
22.72
 20
80.97
 11
22.72
 21
82.68
  0
LINE
  8
L-1-1
 10
21.47
 20
81.10
 11
22.89
 21
81.10
  0
LINE
  8
L-1-1
 10
21.47
 20
82.54
 11
22.89
 21
82.54
  0
LINE
  8
L-1-1
 10
21.47
 20
81.77
 11
22.89
 21
81.77
  0
LINE
  8
L-1-1
 10
21.47
 20
81.88
 11
22.89
 21
81.88
  0
LINE
  8
L-1-1
 10
21.47
 20
82.62
 11
23.03
 21
82.62
  0
LINE
  8
L-1-1
 10
19.15
 20
80.54
 11
19.17
 21
80.54
  0
LINE
  8
L-1-1
 10
19.15
 20
83.10
 11
19.17
 21
83.10
  0
LINE
  8
L-1-1
 10
19.15
 20
80.54
 11
19.17
 21
80.54
  0
LINE
  8
L-1-1
 10
19.15
 20
83.10
 11
19.17
 21
83.10
  0
LINE
  8
L-1-1
 10
19.04
 20
80.49
 11
19.15
 21
80.49
  0
LINE
  8
L-1-1
 10
19.04
 20
80.49
 11
19.04
 21
83.13
  0
LINE
  8
L-1-1
 10
21.34
 20
80.84
 11
21.47
 21
80.84
  0
LINE
  8
L-1-1
 10
18.76
 20
80.26
 11
18.76
 21
80.88
  0
LINE
  8
L-1-1
 10
18.55
 20
80.60
 11
18.55
 21
80.65
  0
LINE
  8
L-1-1
 10
18.55
 20
80.60
 11
18.97
 21
80.60
  0
LINE
  8
L-1-1
 10
18.97
 20
80.60
 11
18.97
 21
80.65
  0
LINE
  8
L-1-1
 10
18.63
 20
80.57
 11
18.63
 21
80.60
  0
LINE
  8
L-1-1
 10
18.63
 20
80.57
 11
18.89
 21
80.57
  0
LINE
  8
L-1-1
 10
18.89
 20
80.57
 11
18.89
 21
80.60
  0
LINE
  8
L-1-1
 10
18.68
 20
80.49
 11
18.68
 21
80.57
  0
LINE
  8
L-1-1
 10
18.68
 20
80.49
 11
18.84
 21
80.49
  0
LINE
  8
L-1-1
 10
18.84
 20
80.49
 11
18.84
 21
80.57
  0
LINE
  8
L-1-1
 10
20.88
 20
83.10
 11
20.90
 21
83.10
  0
LINE
  8
L-1-1
 10
19.15
 20
83.10
 11
19.17
 21
83.10
  0
LINE
  8
L-1-1
 10
19.21
 20
82.54
 11
20.85
 21
82.54
  0
LINE
  8
L-1-1
 10
18.56
 20
83.00
 11
19.03
 21
83.00
  0
LINE
  8
L-1-1
 10
20.88
 20
83.10
 11
20.90
 21
83.10
  0
LINE
  8
L-1-1
 10
21.61
 20
82.68
 11
21.63
 21
82.68
  0
LINE
  8
L-1-1
 10
21.71
 20
82.68
 11
21.73
 21
82.68
  0
LINE
  8
L-1-1
 10
21.81
 20
82.68
 11
21.84
 21
82.68
  0
LINE
  8
L-1-1
 10
19.15
 20
83.10
 11
19.17
 21
83.10
  0
LINE
  8
L-1-1
 10
19.15
 20
83.10
 11
19.17
 21
83.10
  0
LINE
  8
L-1-1
 10
21.02
 20
82.84
 11
21.34
 21
82.84
  0
LINE
  8
L-1-1
 10
21.34
 20
80.81
 11
21.34
 21
82.84
  0
LINE
  8
L-1-1
 10
21.02
 20
80.49
 11
21.02
 21
83.16
  0
LINE
  8
L-1-1
 10
20.90
 20
83.16
 11
21.02
 21
83.16
  0
LINE
  8
L-1-1
 10
20.90
 20
80.49
 11
20.90
 21
83.16
  0
LINE
  8
L-1-1
 10
19.15
 20
80.49
 11
19.15
 21
83.16
  0
LINE
  8
L-1-1
 10
19.04
 20
83.16
 11
19.15
 21
83.16
  0
LINE
  8
L-1-1
 10
19.04
 20
83.16
 11
19.15
 21
83.16
  0
LINE
  8
L-1-1
 10
19.04
 20
80.52
 11
19.04
 21
83.16
  0
LINE
  8
L-1-1
 10
18.48
 20
80.73
 11
18.48
 21
82.93
  0
LINE
  8
L-1-1
 10
21.34
 20
82.81
 11
21.47
 21
82.81
  0
LINE
  8
L-1-1
 10
21.47
 20
80.84
 11
21.47
 21
82.81
  0
LINE
  8
L-1-1
 10
21.39
 20
80.84
 11
21.39
 21
82.80
  0
LINE
  8
L-1-1
 10
17.72
 20
80.73
 11
17.72
 21
82.92
  0
LINE
  8
L-1-1
 10
17.64
 20
80.73
 11
18.47
 21
80.73
  0
LINE
  8
L-1-1
 10
17.64
 20
80.73
 11
17.64
 21
82.92
  0
LINE
  8
L-1-1
 10
17.64
 20
82.92
 11
18.47
 21
82.92
  0
LINE
  8
L-1-1
 10
18.21
 20
80.54
 11
18.46
 21
80.54
  0
LINE
  8
L-1-1
 10
21.48
 20
80.54
 11
21.84
 21
80.54
  0
LINE
  8
L-1-1
 10
18.21
 20
83.10
 11
18.56
 21
83.10
  0
LINE
  8
L-1-1
 10
21.50
 20
83.10
 11
21.84
 21
83.10
  0
LINE
  8
L-1-1
 10
18.43
 20
80.38
 11
18.43
 21
80.72
  0
LINE
  8
L-1-1
 10
18.43
 20
82.94
 11
18.43
 21
83.26
  0
LINE
  8
L-1-1
 10
21.63
 20
82.96
 11
21.63
 21
83.26
  0
LINE
  8
L-1-1
 10
21.62
 20
80.38
 11
21.62
 21
80.71
  0
LINE
  8
L-1-1
 10
21.84
 20
80.97
 11
21.84
 21
82.68
  0
LINE
  8
L-1-1
 10
21.84
 20
80.38
 11
21.84
 21
80.94
  0
LINE
  8
L-1-1
 10
21.84
 20
82.72
 11
21.84
 21
83.26
  0
LINE
  8
L-1-1
 10
19.20
 20
80.73
 11
20.82
 21
80.73
  0
LINE
  8
L-1-1
 10
21.04
 20
80.73
 11
21.84
 21
80.73
  0
LINE
  8
L-1-1
 10
19.21
 20
82.92
 11
20.82
 21
82.92
  0
LINE
  8
L-1-1
 10
21.04
 20
82.92
 11
21.84
 21
82.92
  0
LINE
  8
L-1-1
 10
19.79
 20
81.83
 11
20.28
 21
81.83
  0
LINE
  8
L-1-1
 10
20.03
 20
81.52
 11
20.03
 21
82.06
  0
LINE
  8
L-1-1
 10
9.82
 20
82.21
 11
23.66
 21
106.18
  0
LINE
  8
L-1-1
 10
9.82
 20
82.21
 11
11.94
 21
84.34
  0
LINE
  8
L-1-1
 10
9.82
 20
82.21
 11
10.60
 21
85.11
  0
LINE
  8
L-1-1
 10
23.92
 20
75.50
 11
23.92
 21
117.38
  0
LINE
  8
L-1-1
 10
19.17
 20
115.73
 11
23.92
 21
115.73
  0
LINE
  8
L-1-1
 10
19.17
 20
112.21
 11
19.17
 21
115.73
  0
LINE
  8
L-1-1
 10
23.92
 20
112.21
 11
23.92
 21
115.73
  0
LINE
  8
L-1-1
 10
28.77
 20
111.63
 11
32.50
 21
111.63
  0
LINE
  8
L-1-1
 10
28.64
 20
111.41
 11
32.50
 21
111.41
  0
LINE
  8
L-1-1
 10
33.17
 20
95.31
 11
33.17
 21
110.97
  0
LINE
  8
L-1-1
 10
32.94
 20
94.91
 11
32.94
 21
110.97
  0
LINE
  8
L-1-1
 10
28.77
 20
111.37
 11
32.69
 21
111.37
  0
LINE
  8
L-1-1
 10
32.90
 20
94.95
 11
32.90
 21
111.15
  0
LINE
  8
L-1-1
 10
23.92
 20
115.73
 11
33.17
 21
115.73
  0
LINE
  8
L-1-1
 10
33.17
 20
110.98
 11
33.17
 21
115.73
  0
LINE
  8
L-1-1
 10
23.92
 20
72.70
 11
30.01
 21
72.70
  0
LINE
  8
L-1-1
 10
23.92
 20
72.70
 11
23.92
 21
79.47
  0
LINE
  8
L-1-1
 10
30.01
 20
72.70
 11
30.01
 21
79.47
  0
LINE
  8
L-1-1
 10
17.64
 20
72.70
 11
23.92
 21
72.70
  0
LINE
  8
L-1-1
 10
17.64
 20
72.70
 11
17.64
 21
80.73
  0
LINE
  8
L-1-1
 10
30.01
 20
72.70
 11
33.17
 21
72.70
  0
LINE
  8
L-1-1
 10
33.17
 20
72.70
 11
33.17
 21
94.91
  0
LINE
  8
L-1-1
 10
28.05
 20
112.07
 11
29.92
 21
112.07
  0
LINE
  8
L-1-1
 10
18.74
 20
112.07
 11
19.89
 21
112.07
  0
LINE
  8
L-1-1
 10
15.95
 20
94.79
 11
33.86
 21
94.79
  0
LINE
  8
L-1-1
 10
38.23
 20
106.40
 11
38.23
 21
112.07
  0
LINE
  8
L-1-1
 10
29.79
 20
112.07
 11
38.23
 21
112.07
  0
LINE
  8
L-1-1
 10
29.79
 20
106.40
 11
38.23
 21
106.40
  0
LINE
  8
L-1-1
 10
38.23
 20
94.79
 11
38.23
 21
106.40
  0
LINE
  8
L-1-1
 10
29.79
 20
94.79
 11
38.23
 21
94.79
  0
LINE
  8
L-1-1
 10
31.11
 20
79.46
 11
33.86
 21
79.46
  0
LINE
  8
L-1-1
 10
38.23
 20
79.46
 11
38.23
 21
94.79
  0
LINE
  8
L-1-1
 10
33.15
 20
79.46
 11
38.23
 21
79.46
  0
LINE
  8
L-1-1
 10
197.50
 20
69.10
 11
197.50
 21
105.59
  0
LINE
  8
L-1-1
 10
192.36
 20
69.10
 11
197.50
 21
69.10
  0
LINE
  8
L-1-1
 10
192.36
 20
69.10
 11
192.36
 21
106.48
  0
LINE
  8
L-1-1
 10
156.36
 20
69.10
 11
192.36
 21
69.10
  0
LINE
  8
L-1-1
 10
156.36
 20
69.10
 11
156.36
 21
106.48
  0
LINE
  8
L-1-1
 10
275.90
 20
114.43
 11
315.10
 21
114.43
  0
LINE
  8
L-1-1
 10
275.90
 20
106.31
 11
275.90
 21
114.43
  0
LINE
  8
L-1-1
 10
131.71
 20
89.07
 11
131.71
 21
106.40
  0
LINE
  8
L-1-1
 10
131.71
 20
89.07
 11
155.08
 21
89.07
  0
LINE
  8
L-1-1
 10
131.71
 20
106.40
 11
155.08
 21
106.40
  0
LINE
  8
L-1-1
 10
232.22
 20
106.40
 11
232.22
 21
239.73
  0
LINE
  8
L-1-1
 10
202.46
 20
106.40
 11
232.22
 21
106.40
  0
LINE
  8
L-1-1
 10
202.46
 20
239.73
 11
232.22
 21
239.73
  0
LINE
  8
L-1-1
 10
252.85
 20
113.01
 11
252.85
 21
239.73
  0
LINE
  8
L-1-1
 10
252.85
 20
206.40
 11
266.18
 21
206.40
  0
LINE
  8
L-1-1
 10
266.18
 20
113.01
 11
266.18
 21
239.73
  0
LINE
  8
L-1-1
 10
252.85
 20
239.73
 11
266.18
 21
239.73
  0
LINE
  8
L-1-1
 10
252.85
 20
226.40
 11
256.18
 21
226.40
  0
LINE
  8
L-1-1
 10
256.18
 20
226.40
 11
256.18
 21
239.73
  0
LINE
  8
L-1-1
 10
252.85
 20
206.40
 11
258.41
 21
239.73
  0
LINE
  8
L-1-1
 10
268.04
 20
242.25
 11
268.04
 21
257.77
  0
LINE
  8
L-1-1
 10
305.17
 20
154.10
 11
345.17
 21
154.10
  0
LINE
  8
L-1-1
 10
280.17
 20
139.10
 11
365.17
 21
139.10
  0
LINE
  8
L-1-1
 10
285.17
 20
179.10
 11
365.17
 21
179.10
  0
LINE
  8
L-1-1
 10
365.17
 20
139.10
 11
365.17
 21
258.91
  0
LINE
  8
L-1-1
 10
360.17
 20
139.10
 11
360.17
 21
259.10
  0
LINE
  8
L-1-1
 10
355.17
 20
139.10
 11
355.17
 21
259.10
  0
LINE
  8
L-1-1
 10
350.17
 20
139.10
 11
350.17
 21
259.10
  0
LINE
  8
L-1-1
 10
345.17
 20
139.10
 11
345.17
 21
259.10
  0
LINE
  8
L-1-1
 10
340.17
 20
154.10
 11
340.17
 21
259.10
  0
LINE
  8
L-1-1
 10
335.17
 20
154.10
 11
335.17
 21
259.10
  0
LINE
  8
L-1-1
 10
330.17
 20
154.10
 11
330.17
 21
259.10
  0
LINE
  8
L-1-1
 10
325.17
 20
139.10
 11
325.17
 21
259.10
  0
LINE
  8
L-1-1
 10
320.17
 20
154.10
 11
320.17
 21
259.10
  0
LINE
  8
L-1-1
 10
315.17
 20
154.10
 11
315.17
 21
259.10
  0
LINE
  8
L-1-1
 10
310.17
 20
154.10
 11
310.17
 21
259.10
  0
LINE
  8
L-1-1
 10
305.17
 20
139.10
 11
305.17
 21
259.10
  0
LINE
  8
L-1-1
 10
300.17
 20
139.10
 11
300.17
 21
259.10
  0
LINE
  8
L-1-1
 10
295.17
 20
139.10
 11
295.17
 21
259.10
  0
LINE
  8
L-1-1
 10
290.17
 20
139.10
 11
290.17
 21
259.10
  0
LINE
  8
L-1-1
 10
285.17
 20
139.10
 11
285.17
 21
259.10
  0
LINE
  8
L-1-1
 10
280.17
 20
139.10
 11
280.17
 21
259.10
  0
LINE
  8
L-1-1
 10
280.17
 20
259.10
 11
365.17
 21
259.10
  0
LINE
  8
L-1-1
 10
290.17
 20
204.10
 11
300.17
 21
204.10
  0
LINE
  8
L-1-1
 10
290.17
 20
229.10
 11
300.17
 21
229.10
  0
LINE
  8
L-1-1
 10
1.44
 20
265.99
 11
21.44
 21
265.99
  0
LINE
  8
L-1-1
 10
21.44
 20
265.99
 11
21.44
 21
270.99
  0
LINE
  8
L-1-1
 10
315.10
 20
106.31
 11
315.10
 21
109.07
  0
LINE
  8
L-1-1
 10
313.92
 20
103.73
 11
315.10
 21
103.73
  0
LINE
  8
L-1-1
 10
315.10
 20
103.73
 11
315.10
 21
108.77
  0
LINE
  8
L-1-1
 10
313.92
 20
109.07
 11
315.10
 21
109.07
  0
LINE
  8
L-1-1
 10
315.10
 20
103.75
 11
315.10
 21
109.07
  0
LINE
  8
L-1-1
 10
315.25
 20
100.04
 11
315.38
 21
100.04
  0
LINE
  8
L-1-1
 10
315.25
 20
100.98
 11
315.38
 21
100.98
  0
LINE
  8
L-1-1
 10
318.46
 20
100.98
 11
318.58
 21
100.98
  0
LINE
  8
L-1-1
 10
315.25
 20
99.73
 11
315.25
 21
106.40
  0
LINE
  8
L-1-1
 10
315.02
 20
99.73
 11
315.25
 21
99.73
  0
LINE
  8
L-1-1
 10
315.02
 20
101.38
 11
315.25
 21
101.38
  0
LINE
  8
L-1-1
 10
315.02
 20
99.73
 11
315.02
 21
102.32
  0
LINE
  8
L-1-1
 10
315.02
 20
102.32
 11
315.25
 21
102.32
  0
LINE
  8
L-1-1
 10
314.35
 20
100.12
 11
314.38
 21
100.09
  0
LINE
  8
L-1-1
 10
314.35
 20
100.31
 11
314.38
 21
100.33
  0
LINE
  8
L-1-1
 10
314.35
 20
100.12
 11
314.38
 21
100.09
  0
LINE
  8
L-1-1
 10
314.35
 20
100.31
 11
314.38
 21
100.33
  0
LINE
  8
L-1-1
 10
314.77
 20
100.00
 11
314.94
 21
100.00
  0
LINE
  8
L-1-1
 10
314.77
 20
100.00
 11
314.77
 21
100.43
  0
LINE
  8
L-1-1
 10
314.77
 20
100.43
 11
314.94
 21
100.43
  0
LINE
  8
L-1-1
 10
314.77
 20
100.11
 11
314.94
 21
100.11
  0
LINE
  8
L-1-1
 10
314.74
 20
100.13
 11
314.77
 21
100.11
  0
LINE
  8
L-1-1
 10
314.77
 20
100.32
 11
314.94
 21
100.32
  0
LINE
  8
L-1-1
 10
314.74
 20
100.30
 11
314.77
 21
100.32
  0
LINE
  8
L-1-1
 10
314.94
 20
99.96
 11
314.98
 21
99.96
  0
LINE
  8
L-1-1
 10
314.94
 20
99.96
 11
314.94
 21
100.47
  0
LINE
  8
L-1-1
 10
314.96
 20
100.47
 11
314.98
 21
100.47
  0
LINE
  8
L-1-1
 10
314.94
 20
100.47
 11
314.96
 21
100.47
  0
LINE
  8
L-1-1
 10
314.98
 20
99.89
 11
315.01
 21
99.89
  0
LINE
  8
L-1-1
 10
314.98
 20
99.89
 11
314.98
 21
100.53
  0
LINE
  8
L-1-1
 10
314.98
 20
100.53
 11
315.01
 21
100.53
  0
LINE
  8
L-1-1
 10
314.54
 20
100.05
 11
314.54
 21
100.37
  0
LINE
  8
L-1-1
 10
314.57
 20
100.00
 11
314.57
 21
100.43
  0
LINE
  8
L-1-1
 10
314.57
 20
100.11
 11
314.74
 21
100.11
  0
LINE
  8
L-1-1
 10
314.54
 20
100.13
 11
314.57
 21
100.11
  0
LINE
  8
L-1-1
 10
314.57
 20
100.32
 11
314.74
 21
100.32
  0
LINE
  8
L-1-1
 10
314.54
 20
100.30
 11
314.57
 21
100.32
  0
LINE
  8
L-1-1
 10
314.57
 20
100.00
 11
314.74
 21
100.00
  0
LINE
  8
L-1-1
 10
314.74
 20
100.00
 11
314.74
 21
100.43
  0
LINE
  8
L-1-1
 10
314.57
 20
100.43
 11
314.74
 21
100.43
  0
LINE
  8
L-1-1
 10
314.35
 20
100.12
 11
314.35
 21
100.31
  0
LINE
  8
L-1-1
 10
314.38
 20
100.09
 11
314.54
 21
100.09
  0
LINE
  8
L-1-1
 10
314.35
 20
100.12
 11
314.54
 21
100.12
  0
LINE
  8
L-1-1
 10
314.35
 20
100.31
 11
314.54
 21
100.31
  0
LINE
  8
L-1-1
 10
314.38
 20
100.33
 11
314.54
 21
100.33
  0
LINE
  8
L-1-1
 10
315.38
 20
100.04
 11
315.38
 21
100.48
  0
LINE
  8
L-1-1
 10
318.46
 20
100.04
 11
318.46
 21
100.48
  0
LINE
  8
L-1-1
 10
315.38
 20
100.48
 11
318.46
 21
100.48
  0
LINE
  8
L-1-1
 10
315.38
 20
100.54
 11
318.46
 21
100.54
  0
LINE
  8
L-1-1
 10
314.35
 20
100.59
 11
314.38
 21
100.56
  0
LINE
  8
L-1-1
 10
314.35
 20
100.78
 11
314.38
 21
100.80
  0
LINE
  8
L-1-1
 10
314.35
 20
100.59
 11
314.38
 21
100.56
  0
LINE
  8
L-1-1
 10
314.35
 20
100.78
 11
314.38
 21
100.80
  0
LINE
  8
L-1-1
 10
314.77
 20
100.47
 11
314.94
 21
100.47
  0
LINE
  8
L-1-1
 10
314.77
 20
100.47
 11
314.77
 21
100.90
  0
LINE
  8
L-1-1
 10
314.77
 20
100.90
 11
314.94
 21
100.90
  0
LINE
  8
L-1-1
 10
314.77
 20
100.58
 11
314.94
 21
100.58
  0
LINE
  8
L-1-1
 10
314.74
 20
100.60
 11
314.77
 21
100.58
  0
LINE
  8
L-1-1
 10
314.77
 20
100.79
 11
314.94
 21
100.79
  0
LINE
  8
L-1-1
 10
314.74
 20
100.77
 11
314.77
 21
100.79
  0
LINE
  8
L-1-1
 10
314.94
 20
100.43
 11
314.98
 21
100.43
  0
LINE
  8
L-1-1
 10
314.94
 20
100.43
 11
314.94
 21
100.94
  0
LINE
  8
L-1-1
 10
314.96
 20
100.94
 11
314.98
 21
100.94
  0
LINE
  8
L-1-1
 10
314.94
 20
100.94
 11
314.96
 21
100.94
  0
LINE
  8
L-1-1
 10
314.98
 20
100.36
 11
315.01
 21
100.36
  0
LINE
  8
L-1-1
 10
314.98
 20
100.36
 11
314.98
 21
101.00
  0
LINE
  8
L-1-1
 10
314.98
 20
101.00
 11
315.01
 21
101.00
  0
LINE
  8
L-1-1
 10
314.54
 20
100.52
 11
314.54
 21
100.84
  0
LINE
  8
L-1-1
 10
314.57
 20
100.47
 11
314.57
 21
100.90
  0
LINE
  8
L-1-1
 10
314.57
 20
100.58
 11
314.74
 21
100.58
  0
LINE
  8
L-1-1
 10
314.54
 20
100.60
 11
314.57
 21
100.58
  0
LINE
  8
L-1-1
 10
314.57
 20
100.79
 11
314.74
 21
100.79
  0
LINE
  8
L-1-1
 10
314.54
 20
100.77
 11
314.57
 21
100.79
  0
LINE
  8
L-1-1
 10
314.57
 20
100.47
 11
314.74
 21
100.47
  0
LINE
  8
L-1-1
 10
314.74
 20
100.47
 11
314.74
 21
100.90
  0
LINE
  8
L-1-1
 10
314.57
 20
100.90
 11
314.74
 21
100.90
  0
LINE
  8
L-1-1
 10
314.35
 20
100.59
 11
314.35
 21
100.78
  0
LINE
  8
L-1-1
 10
314.38
 20
100.56
 11
314.54
 21
100.56
  0
LINE
  8
L-1-1
 10
314.35
 20
100.59
 11
314.54
 21
100.59
  0
LINE
  8
L-1-1
 10
314.35
 20
100.78
 11
314.54
 21
100.78
  0
LINE
  8
L-1-1
 10
314.38
 20
100.80
 11
314.54
 21
100.80
  0
LINE
  8
L-1-1
 10
314.35
 20
101.93
 11
314.38
 21
101.96
  0
LINE
  8
L-1-1
 10
314.35
 20
101.75
 11
314.38
 21
101.72
  0
LINE
  8
L-1-1
 10
315.35
 20
101.75
 11
315.38
 21
101.72
  0
LINE
  8
L-1-1
 10
315.35
 20
101.93
 11
315.38
 21
101.96
  0
LINE
  8
L-1-1
 10
314.35
 20
101.93
 11
314.38
 21
101.96
  0
LINE
  8
L-1-1
 10
314.35
 20
101.75
 11
314.38
 21
101.72
  0
LINE
  8
L-1-1
 10
315.35
 20
101.75
 11
315.35
 21
101.93
  0
LINE
  8
L-1-1
 10
314.77
 20
102.05
 11
314.94
 21
102.05
  0
LINE
  8
L-1-1
 10
314.77
 20
101.63
 11
314.77
 21
102.05
  0
LINE
  8
L-1-1
 10
314.77
 20
101.63
 11
314.94
 21
101.63
  0
LINE
  8
L-1-1
 10
314.77
 20
101.95
 11
314.94
 21
101.95
  0
LINE
  8
L-1-1
 10
314.74
 20
101.93
 11
314.77
 21
101.95
  0
LINE
  8
L-1-1
 10
314.77
 20
101.73
 11
314.94
 21
101.73
  0
LINE
  8
L-1-1
 10
314.74
 20
101.75
 11
314.77
 21
101.73
  0
LINE
  8
L-1-1
 10
314.94
 20
102.09
 11
314.98
 21
102.09
  0
LINE
  8
L-1-1
 10
314.94
 20
101.59
 11
314.94
 21
102.09
  0
LINE
  8
L-1-1
 10
314.96
 20
101.59
 11
314.98
 21
101.59
  0
LINE
  8
L-1-1
 10
314.94
 20
101.59
 11
314.96
 21
101.59
  0
LINE
  8
L-1-1
 10
314.98
 20
102.16
 11
315.01
 21
102.16
  0
LINE
  8
L-1-1
 10
314.98
 20
101.52
 11
314.98
 21
102.16
  0
LINE
  8
L-1-1
 10
314.98
 20
101.52
 11
315.01
 21
101.52
  0
LINE
  8
L-1-1
 10
314.54
 20
101.68
 11
314.54
 21
102.00
  0
LINE
  8
L-1-1
 10
314.57
 20
101.63
 11
314.57
 21
102.05
  0
LINE
  8
L-1-1
 10
314.57
 20
101.95
 11
314.74
 21
101.95
  0
LINE
  8
L-1-1
 10
314.54
 20
101.93
 11
314.57
 21
101.95
  0
LINE
  8
L-1-1
 10
314.57
 20
101.73
 11
314.74
 21
101.73
  0
LINE
  8
L-1-1
 10
314.54
 20
101.75
 11
314.57
 21
101.73
  0
LINE
  8
L-1-1
 10
314.57
 20
102.05
 11
314.74
 21
102.05
  0
LINE
  8
L-1-1
 10
314.74
 20
101.63
 11
314.74
 21
102.05
  0
LINE
  8
L-1-1
 10
314.57
 20
101.63
 11
314.74
 21
101.63
  0
LINE
  8
L-1-1
 10
314.35
 20
101.75
 11
314.35
 21
101.93
  0
LINE
  8
L-1-1
 10
315.25
 20
101.96
 11
323.68
 21
101.96
  0
LINE
  8
L-1-1
 10
315.25
 20
101.93
 11
315.35
 21
101.93
  0
LINE
  8
L-1-1
 10
315.25
 20
101.75
 11
315.35
 21
101.75
  0
LINE
  8
L-1-1
 10
315.25
 20
101.72
 11
323.67
 21
101.72
  0
LINE
  8
L-1-1
 10
314.38
 20
101.96
 11
314.54
 21
101.96
  0
LINE
  8
L-1-1
 10
314.35
 20
101.93
 11
314.54
 21
101.93
  0
LINE
  8
L-1-1
 10
314.35
 20
101.75
 11
314.54
 21
101.75
  0
LINE
  8
L-1-1
 10
314.38
 20
101.72
 11
314.54
 21
101.72
  0
LINE
  8
L-1-1
 10
314.35
 20
101.46
 11
314.38
 21
101.49
  0
LINE
  8
L-1-1
 10
314.35
 20
101.27
 11
314.38
 21
101.25
  0
LINE
  8
L-1-1
 10
315.35
 20
101.27
 11
315.38
 21
101.25
  0
LINE
  8
L-1-1
 10
315.35
 20
101.46
 11
315.38
 21
101.49
  0
LINE
  8
L-1-1
 10
314.35
 20
101.46
 11
314.38
 21
101.49
  0
LINE
  8
L-1-1
 10
314.35
 20
101.27
 11
314.38
 21
101.25
  0
LINE
  8
L-1-1
 10
315.35
 20
101.27
 11
315.35
 21
101.46
  0
LINE
  8
L-1-1
 10
314.77
 20
101.58
 11
314.94
 21
101.58
  0
LINE
  8
L-1-1
 10
314.77
 20
101.15
 11
314.77
 21
101.58
  0
LINE
  8
L-1-1
 10
314.77
 20
101.15
 11
314.94
 21
101.15
  0
LINE
  8
L-1-1
 10
314.77
 20
101.47
 11
314.94
 21
101.47
  0
LINE
  8
L-1-1
 10
314.74
 20
101.46
 11
314.77
 21
101.47
  0
LINE
  8
L-1-1
 10
314.77
 20
101.26
 11
314.94
 21
101.26
  0
LINE
  8
L-1-1
 10
314.74
 20
101.28
 11
314.77
 21
101.26
  0
LINE
  8
L-1-1
 10
314.94
 20
101.62
 11
314.98
 21
101.62
  0
LINE
  8
L-1-1
 10
314.94
 20
101.11
 11
314.94
 21
101.62
  0
LINE
  8
L-1-1
 10
314.96
 20
101.11
 11
314.98
 21
101.11
  0
LINE
  8
L-1-1
 10
314.94
 20
101.11
 11
314.96
 21
101.11
  0
LINE
  8
L-1-1
 10
314.98
 20
101.69
 11
315.01
 21
101.69
  0
LINE
  8
L-1-1
 10
314.98
 20
101.05
 11
314.98
 21
101.69
  0
LINE
  8
L-1-1
 10
314.98
 20
101.05
 11
315.01
 21
101.05
  0
LINE
  8
L-1-1
 10
314.54
 20
101.21
 11
314.54
 21
101.53
  0
LINE
  8
L-1-1
 10
314.57
 20
101.15
 11
314.57
 21
101.58
  0
LINE
  8
L-1-1
 10
314.57
 20
101.47
 11
314.74
 21
101.47
  0
LINE
  8
L-1-1
 10
314.54
 20
101.46
 11
314.57
 21
101.47
  0
LINE
  8
L-1-1
 10
314.57
 20
101.26
 11
314.74
 21
101.26
  0
LINE
  8
L-1-1
 10
314.54
 20
101.28
 11
314.57
 21
101.26
  0
LINE
  8
L-1-1
 10
314.57
 20
101.58
 11
314.74
 21
101.58
  0
LINE
  8
L-1-1
 10
314.74
 20
101.15
 11
314.74
 21
101.58
  0
LINE
  8
L-1-1
 10
314.57
 20
101.15
 11
314.74
 21
101.15
  0
LINE
  8
L-1-1
 10
314.35
 20
101.27
 11
314.35
 21
101.46
  0
LINE
  8
L-1-1
 10
315.25
 20
101.49
 11
323.68
 21
101.49
  0
LINE
  8
L-1-1
 10
315.25
 20
101.46
 11
315.35
 21
101.46
  0
LINE
  8
L-1-1
 10
315.25
 20
101.27
 11
315.35
 21
101.27
  0
LINE
  8
L-1-1
 10
315.25
 20
101.25
 11
323.67
 21
101.25
  0
LINE
  8
L-1-1
 10
314.38
 20
101.49
 11
314.54
 21
101.49
  0
LINE
  8
L-1-1
 10
314.35
 20
101.46
 11
314.54
 21
101.46
  0
LINE
  8
L-1-1
 10
314.35
 20
101.27
 11
314.54
 21
101.27
  0
LINE
  8
L-1-1
 10
314.38
 20
101.25
 11
314.54
 21
101.25
  0
LINE
  8
L-1-1
 10
323.62
 20
99.39
 11
323.62
 21
99.63
  0
LINE
  8
L-1-1
 10
323.62
 20
102.42
 11
323.62
 21
102.67
  0
LINE
  8
L-1-1
 10
323.62
 20
101.95
 11
323.62
 21
102.19
  0
LINE
  8
L-1-1
 10
318.46
 20
100.04
 11
318.58
 21
100.04
  0
LINE
  8
L-1-1
 10
323.62
 20
99.86
 11
323.62
 21
100.09
  0
LINE
  8
L-1-1
 10
318.58
 20
100.09
 11
323.68
 21
100.09
  0
LINE
  8
L-1-1
 10
318.58
 20
100.33
 11
323.67
 21
100.33
  0
LINE
  8
L-1-1
 10
315.38
 20
100.33
 11
318.46
 21
100.33
  0
LINE
  8
L-1-1
 10
315.38
 20
100.09
 11
318.46
 21
100.09
  0
LINE
  8
L-1-1
 10
318.58
 20
100.56
 11
323.68
 21
100.56
  0
LINE
  8
L-1-1
 10
318.58
 20
100.80
 11
323.67
 21
100.80
  0
LINE
  8
L-1-1
 10
318.46
 20
100.54
 11
318.46
 21
101.25
  0
LINE
  8
L-1-1
 10
318.58
 20
100.04
 11
318.58
 21
101.25
  0
LINE
  8
L-1-1
 10
318.58
 20
101.49
 11
318.58
 21
101.72
  0
LINE
  8
L-1-1
 10
318.58
 20
101.96
 11
318.58
 21
106.40
  0
LINE
  8
L-1-1
 10
318.46
 20
101.49
 11
318.46
 21
101.72
  0
LINE
  8
L-1-1
 10
318.46
 20
101.96
 11
318.46
 21
106.40
  0
LINE
  8
L-1-1
 10
315.38
 20
100.54
 11
315.38
 21
101.25
  0
LINE
  8
L-1-1
 10
315.38
 20
101.49
 11
315.38
 21
101.72
  0
LINE
  8
L-1-1
 10
315.38
 20
101.96
 11
315.38
 21
106.40
  0
LINE
  8
L-1-1
 10
315.10
 20
103.32
 11
315.25
 21
103.32
  0
LINE
  8
L-1-1
 10
315.10
 20
103.32
 11
315.10
 21
106.40
  0
LINE
  8
L-1-1
 10
315.10
 20
104.28
 11
315.25
 21
104.28
  0
LINE
  8
L-1-1
 10
316.04
 20
103.66
 11
316.04
 21
106.40
  0
LINE
  8
L-1-1
 10
315.38
 20
103.66
 11
316.04
 21
103.66
  0
LINE
  8
L-1-1
 10
315.25
 20
112.76
 11
315.38
 21
112.76
  0
LINE
  8
L-1-1
 10
315.25
 20
111.82
 11
315.38
 21
111.82
  0
LINE
  8
L-1-1
 10
318.46
 20
111.82
 11
318.58
 21
111.82
  0
LINE
  8
L-1-1
 10
315.25
 20
106.40
 11
315.25
 21
113.07
  0
LINE
  8
L-1-1
 10
315.02
 20
113.07
 11
315.25
 21
113.07
  0
LINE
  8
L-1-1
 10
315.02
 20
111.42
 11
315.25
 21
111.42
  0
LINE
  8
L-1-1
 10
315.02
 20
110.48
 11
315.02
 21
113.07
  0
LINE
  8
L-1-1
 10
315.02
 20
110.48
 11
315.25
 21
110.48
  0
LINE
  8
L-1-1
 10
314.35
 20
112.68
 11
314.38
 21
112.71
  0
LINE
  8
L-1-1
 10
314.35
 20
112.49
 11
314.38
 21
112.47
  0
LINE
  8
L-1-1
 10
314.35
 20
112.68
 11
314.38
 21
112.71
  0
LINE
  8
L-1-1
 10
314.35
 20
112.49
 11
314.38
 21
112.47
  0
LINE
  8
L-1-1
 10
314.77
 20
112.80
 11
314.94
 21
112.80
  0
LINE
  8
L-1-1
 10
314.77
 20
112.37
 11
314.77
 21
112.80
  0
LINE
  8
L-1-1
 10
314.77
 20
112.37
 11
314.94
 21
112.37
  0
LINE
  8
L-1-1
 10
314.77
 20
112.69
 11
314.94
 21
112.69
  0
LINE
  8
L-1-1
 10
314.74
 20
112.67
 11
314.77
 21
112.69
  0
LINE
  8
L-1-1
 10
314.77
 20
112.48
 11
314.94
 21
112.48
  0
LINE
  8
L-1-1
 10
314.74
 20
112.50
 11
314.77
 21
112.48
  0
LINE
  8
L-1-1
 10
314.94
 20
112.84
 11
314.98
 21
112.84
  0
LINE
  8
L-1-1
 10
314.94
 20
112.33
 11
314.94
 21
112.84
  0
LINE
  8
L-1-1
 10
314.96
 20
112.33
 11
314.98
 21
112.33
  0
LINE
  8
L-1-1
 10
314.94
 20
112.33
 11
314.96
 21
112.33
  0
LINE
  8
L-1-1
 10
314.98
 20
112.91
 11
315.01
 21
112.91
  0
LINE
  8
L-1-1
 10
314.98
 20
112.27
 11
314.98
 21
112.91
  0
LINE
  8
L-1-1
 10
314.98
 20
112.27
 11
315.01
 21
112.27
  0
LINE
  8
L-1-1
 10
314.54
 20
112.43
 11
314.54
 21
112.75
  0
LINE
  8
L-1-1
 10
314.57
 20
112.37
 11
314.57
 21
112.80
  0
LINE
  8
L-1-1
 10
314.57
 20
112.69
 11
314.74
 21
112.69
  0
LINE
  8
L-1-1
 10
314.54
 20
112.67
 11
314.57
 21
112.69
  0
LINE
  8
L-1-1
 10
314.57
 20
112.48
 11
314.74
 21
112.48
  0
LINE
  8
L-1-1
 10
314.54
 20
112.50
 11
314.57
 21
112.48
  0
LINE
  8
L-1-1
 10
314.57
 20
112.80
 11
314.74
 21
112.80
  0
LINE
  8
L-1-1
 10
314.74
 20
112.37
 11
314.74
 21
112.80
  0
LINE
  8
L-1-1
 10
314.57
 20
112.37
 11
314.74
 21
112.37
  0
LINE
  8
L-1-1
 10
314.35
 20
112.49
 11
314.35
 21
112.68
  0
LINE
  8
L-1-1
 10
314.38
 20
112.71
 11
314.54
 21
112.71
  0
LINE
  8
L-1-1
 10
314.35
 20
112.68
 11
314.54
 21
112.68
  0
LINE
  8
L-1-1
 10
314.35
 20
112.49
 11
314.54
 21
112.49
  0
LINE
  8
L-1-1
 10
314.38
 20
112.47
 11
314.54
 21
112.47
  0
LINE
  8
L-1-1
 10
315.38
 20
112.32
 11
315.38
 21
112.76
  0
LINE
  8
L-1-1
 10
318.46
 20
112.32
 11
318.46
 21
112.76
  0
LINE
  8
L-1-1
 10
315.38
 20
112.32
 11
318.46
 21
112.32
  0
LINE
  8
L-1-1
 10
315.38
 20
112.26
 11
318.46
 21
112.26
  0
LINE
  8
L-1-1
 10
314.35
 20
112.21
 11
314.38
 21
112.24
  0
LINE
  8
L-1-1
 10
314.35
 20
112.02
 11
314.38
 21
112.00
  0
LINE
  8
L-1-1
 10
314.35
 20
112.21
 11
314.38
 21
112.24
  0
LINE
  8
L-1-1
 10
314.35
 20
112.02
 11
314.38
 21
112.00
  0
LINE
  8
L-1-1
 10
314.77
 20
112.33
 11
314.94
 21
112.33
  0
LINE
  8
L-1-1
 10
314.77
 20
111.90
 11
314.77
 21
112.33
  0
LINE
  8
L-1-1
 10
314.77
 20
111.90
 11
314.94
 21
111.90
  0
LINE
  8
L-1-1
 10
314.77
 20
112.22
 11
314.94
 21
112.22
  0
LINE
  8
L-1-1
 10
314.74
 20
112.20
 11
314.77
 21
112.22
  0
LINE
  8
L-1-1
 10
314.77
 20
112.01
 11
314.94
 21
112.01
  0
LINE
  8
L-1-1
 10
314.74
 20
112.03
 11
314.77
 21
112.01
  0
LINE
  8
L-1-1
 10
314.94
 20
112.37
 11
314.98
 21
112.37
  0
LINE
  8
L-1-1
 10
314.94
 20
111.86
 11
314.94
 21
112.37
  0
LINE
  8
L-1-1
 10
314.96
 20
111.86
 11
314.98
 21
111.86
  0
LINE
  8
L-1-1
 10
314.94
 20
111.86
 11
314.96
 21
111.86
  0
LINE
  8
L-1-1
 10
314.98
 20
112.44
 11
315.01
 21
112.44
  0
LINE
  8
L-1-1
 10
314.98
 20
111.80
 11
314.98
 21
112.44
  0
LINE
  8
L-1-1
 10
314.98
 20
111.80
 11
315.01
 21
111.80
  0
LINE
  8
L-1-1
 10
314.54
 20
111.96
 11
314.54
 21
112.28
  0
LINE
  8
L-1-1
 10
314.57
 20
111.90
 11
314.57
 21
112.33
  0
LINE
  8
L-1-1
 10
314.57
 20
112.22
 11
314.74
 21
112.22
  0
LINE
  8
L-1-1
 10
314.54
 20
112.20
 11
314.57
 21
112.22
  0
LINE
  8
L-1-1
 10
314.57
 20
112.01
 11
314.74
 21
112.01
  0
LINE
  8
L-1-1
 10
314.54
 20
112.03
 11
314.57
 21
112.01
  0
LINE
  8
L-1-1
 10
314.57
 20
112.33
 11
314.74
 21
112.33
  0
LINE
  8
L-1-1
 10
314.74
 20
111.90
 11
314.74
 21
112.33
  0
LINE
  8
L-1-1
 10
314.57
 20
111.90
 11
314.74
 21
111.90
  0
LINE
  8
L-1-1
 10
314.35
 20
112.02
 11
314.35
 21
112.21
  0
LINE
  8
L-1-1
 10
314.38
 20
112.24
 11
314.54
 21
112.24
  0
LINE
  8
L-1-1
 10
314.35
 20
112.21
 11
314.54
 21
112.21
  0
LINE
  8
L-1-1
 10
314.35
 20
112.02
 11
314.54
 21
112.02
  0
LINE
  8
L-1-1
 10
314.38
 20
112.00
 11
314.54
 21
112.00
  0
LINE
  8
L-1-1
 10
314.35
 20
110.87
 11
314.38
 21
110.84
  0
LINE
  8
L-1-1
 10
314.35
 20
111.05
 11
314.38
 21
111.08
  0
LINE
  8
L-1-1
 10
315.35
 20
111.05
 11
315.38
 21
111.08
  0
LINE
  8
L-1-1
 10
315.35
 20
110.87
 11
315.38
 21
110.84
  0
LINE
  8
L-1-1
 10
314.35
 20
110.87
 11
314.38
 21
110.84
  0
LINE
  8
L-1-1
 10
314.35
 20
111.05
 11
314.38
 21
111.08
  0
LINE
  8
L-1-1
 10
315.35
 20
110.87
 11
315.35
 21
111.05
  0
LINE
  8
L-1-1
 10
314.77
 20
110.75
 11
314.94
 21
110.75
  0
LINE
  8
L-1-1
 10
314.77
 20
110.75
 11
314.77
 21
111.17
  0
LINE
  8
L-1-1
 10
314.77
 20
111.17
 11
314.94
 21
111.17
  0
LINE
  8
L-1-1
 10
314.77
 20
110.85
 11
314.94
 21
110.85
  0
LINE
  8
L-1-1
 10
314.74
 20
110.87
 11
314.77
 21
110.85
  0
LINE
  8
L-1-1
 10
314.77
 20
111.07
 11
314.94
 21
111.07
  0
LINE
  8
L-1-1
 10
314.74
 20
111.05
 11
314.77
 21
111.07
  0
LINE
  8
L-1-1
 10
314.94
 20
110.71
 11
314.98
 21
110.71
  0
LINE
  8
L-1-1
 10
314.94
 20
110.71
 11
314.94
 21
111.21
  0
LINE
  8
L-1-1
 10
314.96
 20
111.21
 11
314.98
 21
111.21
  0
LINE
  8
L-1-1
 10
314.94
 20
111.21
 11
314.96
 21
111.21
  0
LINE
  8
L-1-1
 10
314.98
 20
110.64
 11
315.01
 21
110.64
  0
LINE
  8
L-1-1
 10
314.98
 20
110.64
 11
314.98
 21
111.28
  0
LINE
  8
L-1-1
 10
314.98
 20
111.28
 11
315.01
 21
111.28
  0
LINE
  8
L-1-1
 10
314.54
 20
110.80
 11
314.54
 21
111.12
  0
LINE
  8
L-1-1
 10
314.57
 20
110.75
 11
314.57
 21
111.17
  0
LINE
  8
L-1-1
 10
314.57
 20
110.85
 11
314.74
 21
110.85
  0
LINE
  8
L-1-1
 10
314.54
 20
110.87
 11
314.57
 21
110.85
  0
LINE
  8
L-1-1
 10
314.57
 20
111.07
 11
314.74
 21
111.07
  0
LINE
  8
L-1-1
 10
314.54
 20
111.05
 11
314.57
 21
111.07
  0
LINE
  8
L-1-1
 10
314.57
 20
110.75
 11
314.74
 21
110.75
  0
LINE
  8
L-1-1
 10
314.74
 20
110.75
 11
314.74
 21
111.17
  0
LINE
  8
L-1-1
 10
314.57
 20
111.17
 11
314.74
 21
111.17
  0
LINE
  8
L-1-1
 10
314.35
 20
110.87
 11
314.35
 21
111.05
  0
LINE
  8
L-1-1
 10
315.25
 20
110.84
 11
323.68
 21
110.84
  0
LINE
  8
L-1-1
 10
315.25
 20
110.87
 11
315.35
 21
110.87
  0
LINE
  8
L-1-1
 10
315.25
 20
111.05
 11
315.35
 21
111.05
  0
LINE
  8
L-1-1
 10
315.25
 20
111.08
 11
323.67
 21
111.08
  0
LINE
  8
L-1-1
 10
314.38
 20
110.84
 11
314.54
 21
110.84
  0
LINE
  8
L-1-1
 10
314.35
 20
110.87
 11
314.54
 21
110.87
  0
LINE
  8
L-1-1
 10
314.35
 20
111.05
 11
314.54
 21
111.05
  0
LINE
  8
L-1-1
 10
314.38
 20
111.08
 11
314.54
 21
111.08
  0
LINE
  8
L-1-1
 10
314.35
 20
111.34
 11
314.38
 21
111.31
  0
LINE
  8
L-1-1
 10
314.35
 20
111.53
 11
314.38
 21
111.55
  0
LINE
  8
L-1-1
 10
315.35
 20
111.53
 11
315.38
 21
111.55
  0
LINE
  8
L-1-1
 10
315.35
 20
111.34
 11
315.38
 21
111.31
  0
LINE
  8
L-1-1
 10
314.35
 20
111.34
 11
314.38
 21
111.31
  0
LINE
  8
L-1-1
 10
314.35
 20
111.53
 11
314.38
 21
111.55
  0
LINE
  8
L-1-1
 10
315.35
 20
111.34
 11
315.35
 21
111.53
  0
LINE
  8
L-1-1
 10
314.77
 20
111.22
 11
314.94
 21
111.22
  0
LINE
  8
L-1-1
 10
314.77
 20
111.22
 11
314.77
 21
111.65
  0
LINE
  8
L-1-1
 10
314.77
 20
111.65
 11
314.94
 21
111.65
  0
LINE
  8
L-1-1
 10
314.77
 20
111.33
 11
314.94
 21
111.33
  0
LINE
  8
L-1-1
 10
314.74
 20
111.34
 11
314.77
 21
111.33
  0
LINE
  8
L-1-1
 10
314.77
 20
111.54
 11
314.94
 21
111.54
  0
LINE
  8
L-1-1
 10
314.74
 20
111.52
 11
314.77
 21
111.54
  0
LINE
  8
L-1-1
 10
314.94
 20
111.18
 11
314.98
 21
111.18
  0
LINE
  8
L-1-1
 10
314.94
 20
111.18
 11
314.94
 21
111.69
  0
LINE
  8
L-1-1
 10
314.96
 20
111.69
 11
314.98
 21
111.69
  0
LINE
  8
L-1-1
 10
314.94
 20
111.69
 11
314.96
 21
111.69
  0
LINE
  8
L-1-1
 10
314.98
 20
111.11
 11
315.01
 21
111.11
  0
LINE
  8
L-1-1
 10
314.98
 20
111.11
 11
314.98
 21
111.75
  0
LINE
  8
L-1-1
 10
314.98
 20
111.75
 11
315.01
 21
111.75
  0
LINE
  8
L-1-1
 10
314.54
 20
111.27
 11
314.54
 21
111.59
  0
LINE
  8
L-1-1
 10
314.57
 20
111.22
 11
314.57
 21
111.65
  0
LINE
  8
L-1-1
 10
314.57
 20
111.33
 11
314.74
 21
111.33
  0
LINE
  8
L-1-1
 10
314.54
 20
111.34
 11
314.57
 21
111.33
  0
LINE
  8
L-1-1
 10
314.57
 20
111.54
 11
314.74
 21
111.54
  0
LINE
  8
L-1-1
 10
314.54
 20
111.52
 11
314.57
 21
111.54
  0
LINE
  8
L-1-1
 10
314.57
 20
111.22
 11
314.74
 21
111.22
  0
LINE
  8
L-1-1
 10
314.74
 20
111.22
 11
314.74
 21
111.65
  0
LINE
  8
L-1-1
 10
314.57
 20
111.65
 11
314.74
 21
111.65
  0
LINE
  8
L-1-1
 10
314.35
 20
111.34
 11
314.35
 21
111.53
  0
LINE
  8
L-1-1
 10
315.25
 20
111.31
 11
323.68
 21
111.31
  0
LINE
  8
L-1-1
 10
315.25
 20
111.34
 11
315.35
 21
111.34
  0
LINE
  8
L-1-1
 10
315.25
 20
111.53
 11
315.35
 21
111.53
  0
LINE
  8
L-1-1
 10
315.25
 20
111.55
 11
323.67
 21
111.55
  0
LINE
  8
L-1-1
 10
314.38
 20
111.31
 11
314.54
 21
111.31
  0
LINE
  8
L-1-1
 10
314.35
 20
111.34
 11
314.54
 21
111.34
  0
LINE
  8
L-1-1
 10
314.35
 20
111.53
 11
314.54
 21
111.53
  0
LINE
  8
L-1-1
 10
314.38
 20
111.55
 11
314.54
 21
111.55
  0
LINE
  8
L-1-1
 10
323.62
 20
113.17
 11
323.62
 21
113.41
  0
LINE
  8
L-1-1
 10
323.62
 20
110.13
 11
323.62
 21
110.37
  0
LINE
  8
L-1-1
 10
323.62
 20
110.61
 11
323.62
 21
110.85
  0
LINE
  8
L-1-1
 10
318.46
 20
112.76
 11
318.58
 21
112.76
  0
LINE
  8
L-1-1
 10
323.62
 20
112.71
 11
323.62
 21
112.94
  0
LINE
  8
L-1-1
 10
318.58
 20
112.71
 11
323.68
 21
112.71
  0
LINE
  8
L-1-1
 10
318.58
 20
112.47
 11
323.67
 21
112.47
  0
LINE
  8
L-1-1
 10
315.38
 20
112.47
 11
318.46
 21
112.47
  0
LINE
  8
L-1-1
 10
315.38
 20
112.71
 11
318.46
 21
112.71
  0
LINE
  8
L-1-1
 10
318.58
 20
112.24
 11
323.68
 21
112.24
  0
LINE
  8
L-1-1
 10
318.58
 20
112.00
 11
323.67
 21
112.00
  0
LINE
  8
L-1-1
 10
318.46
 20
111.55
 11
318.46
 21
112.26
  0
LINE
  8
L-1-1
 10
318.58
 20
111.55
 11
318.58
 21
112.76
  0
LINE
  8
L-1-1
 10
318.58
 20
111.08
 11
318.58
 21
111.31
  0
LINE
  8
L-1-1
 10
318.58
 20
106.40
 11
318.58
 21
110.84
  0
LINE
  8
L-1-1
 10
318.46
 20
111.08
 11
318.46
 21
111.31
  0
LINE
  8
L-1-1
 10
318.46
 20
106.40
 11
318.46
 21
110.84
  0
LINE
  8
L-1-1
 10
315.38
 20
111.55
 11
315.38
 21
112.26
  0
LINE
  8
L-1-1
 10
315.38
 20
111.08
 11
315.38
 21
111.31
  0
LINE
  8
L-1-1
 10
315.38
 20
106.40
 11
315.38
 21
110.84
  0
LINE
  8
L-1-1
 10
315.10
 20
109.47
 11
315.25
 21
109.47
  0
LINE
  8
L-1-1
 10
315.10
 20
106.40
 11
315.10
 21
109.47
  0
LINE
  8
L-1-1
 10
315.10
 20
108.52
 11
315.25
 21
108.52
  0
LINE
  8
L-1-1
 10
316.04
 20
106.40
 11
316.04
 21
109.14
  0
LINE
  8
L-1-1
 10
315.38
 20
109.14
 11
316.04
 21
109.14
  0
LINE
  8
L-1-1
 10
5.84
 20
106.40
 11
325.85
 21
106.40
  0
LINE
  8
L-1-1
 10
197.50
 20
69.10
 11
315.10
 21
69.10
  0
LINE
  8
L-1-1
 10
315.10
 20
69.10
 11
315.10
 21
106.68
  0
LINE
  8
L-1-1
 10
315.10
 20
69.10
 11
318.58
 21
69.10
  0
LINE
  8
L-1-1
 10
318.58
 20
69.10
 11
318.58
 21
106.68
  0
LINE
  8
L-1-1
 10
325.65
 20
88.25
 11
327.07
 21
86.84
  0
LINE
  8
L-1-1
 10
327.07
 20
86.84
 11
330.53
 21
90.30
  0
LINE
  8
L-1-1
 10
329.12
 20
91.72
 11
330.53
 21
90.30
  0
LINE
  8
L-1-1
 10
325.65
 20
88.25
 11
329.12
 21
91.72
  0
LINE
  8
L-1-1
 10
329.28
 20
91.10
 11
329.73
 21
91.55
  0
LINE
  8
L-1-1
 10
329.73
 20
91.55
 11
329.57
 21
92.17
  0
LINE
  8
L-1-1
 10
328.95
 20
92.33
 11
329.57
 21
92.17
  0
LINE
  8
L-1-1
 10
328.51
 20
91.88
 11
328.95
 21
92.33
  0
LINE
  8
L-1-1
 10
328.67
 20
91.27
 11
328.51
 21
91.88
  0
LINE
  8
L-1-1
 10
328.67
 20
91.27
 11
329.28
 21
91.10
  0
LINE
  8
L-1-1
 10
330.70
 20
89.69
 11
331.15
 21
90.14
  0
LINE
  8
L-1-1
 10
331.15
 20
90.14
 11
330.98
 21
90.75
  0
LINE
  8
L-1-1
 10
330.37
 20
90.92
 11
330.98
 21
90.75
  0
LINE
  8
L-1-1
 10
329.92
 20
90.47
 11
330.37
 21
90.92
  0
LINE
  8
L-1-1
 10
330.08
 20
89.85
 11
329.92
 21
90.47
  0
LINE
  8
L-1-1
 10
330.08
 20
89.85
 11
330.70
 21
89.69
  0
LINE
  8
L-1-1
 10
325.82
 20
87.64
 11
326.27
 21
88.09
  0
LINE
  8
L-1-1
 10
325.21
 20
87.80
 11
325.82
 21
87.64
  0
LINE
  8
L-1-1
 10
325.21
 20
87.80
 11
325.04
 21
88.42
  0
LINE
  8
L-1-1
 10
325.04
 20
88.42
 11
325.49
 21
88.87
  0
LINE
  8
L-1-1
 10
325.49
 20
88.87
 11
326.10
 21
88.70
  0
LINE
  8
L-1-1
 10
326.27
 20
88.09
 11
326.10
 21
88.70
  0
LINE
  8
L-1-1
 10
327.23
 20
86.23
 11
327.68
 21
86.67
  0
LINE
  8
L-1-1
 10
326.62
 20
86.39
 11
327.23
 21
86.23
  0
LINE
  8
L-1-1
 10
326.62
 20
86.39
 11
326.46
 21
87.00
  0
LINE
  8
L-1-1
 10
326.46
 20
87.00
 11
326.90
 21
87.45
  0
LINE
  8
L-1-1
 10
326.90
 20
87.45
 11
327.52
 21
87.29
  0
LINE
  8
L-1-1
 10
327.68
 20
86.67
 11
327.52
 21
87.29
  0
LINE
  8
L-1-1
 10
337.85
 20
63.96
 11
350.58
 21
63.96
  0
LINE
  8
L-1-1
 10
335.02
 20
66.79
 11
337.85
 21
63.96
  0
LINE
  8
L-1-1
 10
335.02
 20
66.79
 11
335.02
 21
79.52
  0
LINE
  8
L-1-1
 10
350.58
 20
63.96
 11
353.41
 21
66.79
  0
LINE
  8
L-1-1
 10
353.41
 20
66.79
 11
353.41
 21
79.52
  0
LINE
  8
L-1-1
 10
350.58
 20
82.35
 11
353.41
 21
79.52
  0
LINE
  8
L-1-1
 10
337.85
 20
82.35
 11
350.58
 21
82.35
  0
LINE
  8
L-1-1
 10
335.02
 20
79.52
 11
337.85
 21
82.35
  0
LINE
  8
L-1-1
 10
350.58
 20
82.35
 11
353.41
 21
79.52
  0
LINE
  8
L-1-1
 10
325.12
 20
89.42
 11
327.95
 21
92.25
  0
LINE
  8
L-1-1
 10
335.02
 20
79.52
 11
337.85
 21
82.35
  0
LINE
  8
L-1-1
 10
350.58
 20
63.96
 11
353.41
 21
66.79
  0
LINE
  8
L-1-1
 10
350.58
 20
63.96
 11
353.41
 21
66.79
  0
LINE
  8
L-1-1
 10
324.20
 20
88.22
 11
327.03
 21
85.39
  0
LINE
  8
L-1-1
 10
327.03
 20
85.39
 11
331.98
 21
90.34
  0
LINE
  8
L-1-1
 10
329.15
 20
93.17
 11
331.98
 21
90.34
  0
LINE
  8
L-1-1
 10
324.20
 20
88.22
 11
329.15
 21
93.17
  0
LINE
  8
L-1-1
 10
325.12
 20
89.42
 11
328.05
 21
86.49
  0
LINE
  8
L-1-1
 10
328.11
 20
86.44
 11
334.99
 21
79.55
  0
LINE
  8
L-1-1
 10
330.93
 20
89.27
 11
337.82
 21
82.38
  0
LINE
  8
L-1-1
 10
327.95
 20
92.25
 11
328.14
 21
92.06
  0
LINE
  8
L-1-1
 10
328.22
 20
91.98
 11
330.88
 21
89.32
  0
LINE
  8
L-1-1
 10
357.90
 20
56.01
 11
359.31
 21
54.59
  0
LINE
  8
L-1-1
 10
357.90
 20
56.01
 11
361.36
 21
59.47
  0
LINE
  8
L-1-1
 10
361.36
 20
59.47
 11
362.78
 21
58.06
  0
LINE
  8
L-1-1
 10
359.31
 20
54.59
 11
362.78
 21
58.06
  0
LINE
  8
L-1-1
 10
362.16
 20
58.22
 11
362.61
 21
58.67
  0
LINE
  8
L-1-1
 10
362.61
 20
58.67
 11
363.23
 21
58.51
  0
LINE
  8
L-1-1
 10
363.39
 20
57.90
 11
363.23
 21
58.51
  0
LINE
  8
L-1-1
 10
362.94
 20
57.45
 11
363.39
 21
57.90
  0
LINE
  8
L-1-1
 10
362.33
 20
57.61
 11
362.94
 21
57.45
  0
LINE
  8
L-1-1
 10
362.33
 20
57.61
 11
362.16
 21
58.22
  0
LINE
  8
L-1-1
 10
360.75
 20
59.64
 11
361.20
 21
60.09
  0
LINE
  8
L-1-1
 10
361.20
 20
60.09
 11
361.81
 21
59.92
  0
LINE
  8
L-1-1
 10
361.98
 20
59.31
 11
361.81
 21
59.92
  0
LINE
  8
L-1-1
 10
361.53
 20
58.86
 11
361.98
 21
59.31
  0
LINE
  8
L-1-1
 10
360.91
 20
59.02
 11
361.53
 21
58.86
  0
LINE
  8
L-1-1
 10
360.91
 20
59.02
 11
360.75
 21
59.64
  0
LINE
  8
L-1-1
 10
358.70
 20
54.76
 11
359.15
 21
55.21
  0
LINE
  8
L-1-1
 10
358.86
 20
54.15
 11
358.70
 21
54.76
  0
LINE
  8
L-1-1
 10
358.86
 20
54.15
 11
359.48
 21
53.98
  0
LINE
  8
L-1-1
 10
359.48
 20
53.98
 11
359.93
 21
54.43
  0
LINE
  8
L-1-1
 10
359.93
 20
54.43
 11
359.76
 21
55.04
  0
LINE
  8
L-1-1
 10
359.15
 20
55.21
 11
359.76
 21
55.04
  0
LINE
  8
L-1-1
 10
357.28
 20
56.17
 11
357.73
 21
56.62
  0
LINE
  8
L-1-1
 10
357.45
 20
55.56
 11
357.28
 21
56.17
  0
LINE
  8
L-1-1
 10
357.45
 20
55.56
 11
358.06
 21
55.40
  0
LINE
  8
L-1-1
 10
358.06
 20
55.40
 11
358.51
 21
55.84
  0
LINE
  8
L-1-1
 10
358.51
 20
55.84
 11
358.35
 21
56.46
  0
LINE
  8
L-1-1
 10
357.73
 20
56.62
 11
358.35
 21
56.46
  0
LINE
  8
L-1-1
 10
360.48
 20
54.06
 11
363.31
 21
56.89
  0
LINE
  8
L-1-1
 10
356.45
 20
55.97
 11
359.28
 21
53.15
  0
LINE
  8
L-1-1
 10
356.45
 20
55.97
 11
361.40
 21
60.92
  0
LINE
  8
L-1-1
 10
361.40
 20
60.92
 11
364.23
 21
58.10
  0
LINE
  8
L-1-1
 10
359.28
 20
53.15
 11
364.23
 21
58.10
  0
LINE
  8
L-1-1
 10
357.55
 20
56.99
 11
360.48
 21
54.06
  0
LINE
  8
L-1-1
 10
350.61
 20
63.93
 11
357.50
 21
57.05
  0
LINE
  8
L-1-1
 10
353.44
 20
66.76
 11
360.33
 21
59.88
  0
LINE
  8
L-1-1
 10
363.12
 20
57.08
 11
363.31
 21
56.89
  0
LINE
  8
L-1-1
 10
360.38
 20
59.82
 11
363.04
 21
57.16
  0
LINE
  8
L-1-1
 10
357.90
 20
90.30
 11
359.31
 21
91.72
  0
LINE
  8
L-1-1
 10
357.90
 20
90.30
 11
361.36
 21
86.84
  0
LINE
  8
L-1-1
 10
361.36
 20
86.84
 11
362.78
 21
88.25
  0
LINE
  8
L-1-1
 10
359.31
 20
91.72
 11
362.78
 21
88.25
  0
LINE
  8
L-1-1
 10
362.16
 20
88.09
 11
362.61
 21
87.64
  0
LINE
  8
L-1-1
 10
362.61
 20
87.64
 11
363.23
 21
87.80
  0
LINE
  8
L-1-1
 10
363.23
 20
87.80
 11
363.39
 21
88.42
  0
LINE
  8
L-1-1
 10
362.94
 20
88.87
 11
363.39
 21
88.42
  0
LINE
  8
L-1-1
 10
362.33
 20
88.70
 11
362.94
 21
88.87
  0
LINE
  8
L-1-1
 10
362.16
 20
88.09
 11
362.33
 21
88.70
  0
LINE
  8
L-1-1
 10
360.75
 20
86.67
 11
361.20
 21
86.23
  0
LINE
  8
L-1-1
 10
361.20
 20
86.23
 11
361.81
 21
86.39
  0
LINE
  8
L-1-1
 10
361.81
 20
86.39
 11
361.98
 21
87.00
  0
LINE
  8
L-1-1
 10
361.53
 20
87.45
 11
361.98
 21
87.00
  0
LINE
  8
L-1-1
 10
360.91
 20
87.29
 11
361.53
 21
87.45
  0
LINE
  8
L-1-1
 10
360.75
 20
86.67
 11
360.91
 21
87.29
  0
LINE
  8
L-1-1
 10
358.70
 20
91.55
 11
359.15
 21
91.10
  0
LINE
  8
L-1-1
 10
358.70
 20
91.55
 11
358.86
 21
92.17
  0
LINE
  8
L-1-1
 10
358.86
 20
92.17
 11
359.48
 21
92.33
  0
LINE
  8
L-1-1
 10
359.48
 20
92.33
 11
359.93
 21
91.88
  0
LINE
  8
L-1-1
 10
359.76
 20
91.27
 11
359.93
 21
91.88
  0
LINE
  8
L-1-1
 10
359.15
 20
91.10
 11
359.76
 21
91.27
  0
LINE
  8
L-1-1
 10
357.28
 20
90.14
 11
357.73
 21
89.69
  0
LINE
  8
L-1-1
 10
357.28
 20
90.14
 11
357.45
 21
90.75
  0
LINE
  8
L-1-1
 10
357.45
 20
90.75
 11
358.06
 21
90.92
  0
LINE
  8
L-1-1
 10
358.06
 20
90.92
 11
358.51
 21
90.47
  0
LINE
  8
L-1-1
 10
358.35
 20
89.85
 11
358.51
 21
90.47
  0
LINE
  8
L-1-1
 10
357.73
 20
89.69
 11
358.35
 21
89.85
  0
LINE
  8
L-1-1
 10
360.48
 20
92.25
 11
363.31
 21
89.42
  0
LINE
  8
L-1-1
 10
356.45
 20
90.34
 11
359.28
 21
93.17
  0
LINE
  8
L-1-1
 10
356.45
 20
90.34
 11
361.40
 21
85.39
  0
LINE
  8
L-1-1
 10
361.40
 20
85.39
 11
364.23
 21
88.22
  0
LINE
  8
L-1-1
 10
359.28
 20
93.17
 11
364.23
 21
88.22
  0
LINE
  8
L-1-1
 10
357.55
 20
89.32
 11
360.48
 21
92.25
  0
LINE
  8
L-1-1
 10
350.61
 20
82.38
 11
357.50
 21
89.27
  0
LINE
  8
L-1-1
 10
353.44
 20
79.55
 11
360.33
 21
86.44
  0
LINE
  8
L-1-1
 10
363.12
 20
89.23
 11
363.31
 21
89.42
  0
LINE
  8
L-1-1
 10
360.38
 20
86.49
 11
363.04
 21
89.15
  0
LINE
  8
L-1-1
 10
325.65
 20
58.06
 11
327.07
 21
59.47
  0
LINE
  8
L-1-1
 10
327.07
 20
59.47
 11
330.53
 21
56.01
  0
LINE
  8
L-1-1
 10
329.12
 20
54.59
 11
330.53
 21
56.01
  0
LINE
  8
L-1-1
 10
325.65
 20
58.06
 11
329.12
 21
54.59
  0
LINE
  8
L-1-1
 10
329.28
 20
55.21
 11
329.73
 21
54.76
  0
LINE
  8
L-1-1
 10
329.57
 20
54.15
 11
329.73
 21
54.76
  0
LINE
  8
L-1-1
 10
328.95
 20
53.98
 11
329.57
 21
54.15
  0
LINE
  8
L-1-1
 10
328.51
 20
54.43
 11
328.95
 21
53.98
  0
LINE
  8
L-1-1
 10
328.51
 20
54.43
 11
328.67
 21
55.04
  0
LINE
  8
L-1-1
 10
328.67
 20
55.04
 11
329.28
 21
55.21
  0
LINE
  8
L-1-1
 10
330.70
 20
56.62
 11
331.15
 21
56.17
  0
LINE
  8
L-1-1
 10
330.98
 20
55.56
 11
331.15
 21
56.17
  0
LINE
  8
L-1-1
 10
330.37
 20
55.40
 11
330.98
 21
55.56
  0
LINE
  8
L-1-1
 10
329.92
 20
55.84
 11
330.37
 21
55.40
  0
LINE
  8
L-1-1
 10
329.92
 20
55.84
 11
330.08
 21
56.46
  0
LINE
  8
L-1-1
 10
330.08
 20
56.46
 11
330.70
 21
56.62
  0
LINE
  8
L-1-1
 10
325.82
 20
58.67
 11
326.27
 21
58.22
  0
LINE
  8
L-1-1
 10
325.21
 20
58.51
 11
325.82
 21
58.67
  0
LINE
  8
L-1-1
 10
325.04
 20
57.90
 11
325.21
 21
58.51
  0
LINE
  8
L-1-1
 10
325.04
 20
57.90
 11
325.49
 21
57.45
  0
LINE
  8
L-1-1
 10
325.49
 20
57.45
 11
326.10
 21
57.61
  0
LINE
  8
L-1-1
 10
326.10
 20
57.61
 11
326.27
 21
58.22
  0
LINE
  8
L-1-1
 10
327.23
 20
60.09
 11
327.68
 21
59.64
  0
LINE
  8
L-1-1
 10
326.62
 20
59.92
 11
327.23
 21
60.09
  0
LINE
  8
L-1-1
 10
326.46
 20
59.31
 11
326.62
 21
59.92
  0
LINE
  8
L-1-1
 10
326.46
 20
59.31
 11
326.90
 21
58.86
  0
LINE
  8
L-1-1
 10
326.90
 20
58.86
 11
327.52
 21
59.02
  0
LINE
  8
L-1-1
 10
327.52
 20
59.02
 11
327.68
 21
59.64
  0
LINE
  8
L-1-1
 10
325.12
 20
56.89
 11
327.95
 21
54.06
  0
LINE
  8
L-1-1
 10
324.20
 20
58.10
 11
327.03
 21
60.92
  0
LINE
  8
L-1-1
 10
327.03
 20
60.92
 11
331.98
 21
55.97
  0
LINE
  8
L-1-1
 10
329.15
 20
53.15
 11
331.98
 21
55.97
  0
LINE
  8
L-1-1
 10
324.20
 20
58.10
 11
329.15
 21
53.15
  0
LINE
  8
L-1-1
 10
325.12
 20
56.89
 11
328.05
 21
59.82
  0
LINE
  8
L-1-1
 10
328.11
 20
59.88
 11
334.99
 21
66.76
  0
LINE
  8
L-1-1
 10
330.93
 20
57.05
 11
337.82
 21
63.93
  0
LINE
  8
L-1-1
 10
327.95
 20
54.06
 11
328.14
 21
54.25
  0
LINE
  8
L-1-1
 10
328.22
 20
54.33
 11
330.88
 21
56.99
  0
LINE
  8
L-1-1
 10
361.66
 20
103.19
 11
361.66
 21
103.95
  0
LINE
  8
L-1-1
 10
334.09
 20
105.94
 11
334.17
 21
105.86
  0
LINE
  8
L-1-1
 10
334.09
 20
106.50
 11
334.17
 21
106.58
  0
LINE
  8
L-1-1
 10
337.09
 20
106.50
 11
337.17
 21
106.58
  0
LINE
  8
L-1-1
 10
337.09
 20
105.94
 11
337.17
 21
105.86
  0
LINE
  8
L-1-1
 10
334.09
 20
105.94
 11
334.17
 21
105.86
  0
LINE
  8
L-1-1
 10
334.09
 20
106.50
 11
334.17
 21
106.58
  0
LINE
  8
L-1-1
 10
337.09
 20
105.94
 11
337.09
 21
106.50
  0
LINE
  8
L-1-1
 10
346.79
 20
102.39
 11
346.79
 21
105.84
  0
LINE
  8
L-1-1
 10
336.79
 20
106.67
 11
336.97
 21
106.67
  0
LINE
  8
L-1-1
 10
346.61
 20
106.67
 11
346.79
 21
106.67
  0
LINE
  8
L-1-1
 10
337.17
 20
108.91
 11
337.17
 21
110.47
  0
LINE
  8
L-1-1
 10
337.17
 20
106.87
 11
337.17
 21
108.43
  0
LINE
  8
L-1-1
 10
337.29
 20
108.55
 11
346.29
 21
108.55
  0
LINE
  8
L-1-1
 10
346.41
 20
106.87
 11
346.41
 21
108.43
  0
LINE
  8
L-1-1
 10
337.29
 20
108.79
 11
346.29
 21
108.79
  0
LINE
  8
L-1-1
 10
346.41
 20
108.91
 11
346.41
 21
110.47
  0
LINE
  8
L-1-1
 10
335.35
 20
105.58
 11
335.85
 21
105.58
  0
LINE
  8
L-1-1
 10
335.35
 20
105.58
 11
335.35
 21
106.86
  0
LINE
  8
L-1-1
 10
335.35
 20
106.86
 11
335.85
 21
106.86
  0
LINE
  8
L-1-1
 10
335.35
 20
105.90
 11
335.85
 21
105.90
  0
LINE
  8
L-1-1
 10
335.25
 20
105.96
 11
335.35
 21
105.90
  0
LINE
  8
L-1-1
 10
335.35
 20
106.54
 11
335.85
 21
106.54
  0
LINE
  8
L-1-1
 10
335.25
 20
106.48
 11
335.35
 21
106.54
  0
LINE
  8
L-1-1
 10
335.85
 20
105.46
 11
335.97
 21
105.46
  0
LINE
  8
L-1-1
 10
335.85
 20
105.46
 11
335.85
 21
106.98
  0
LINE
  8
L-1-1
 10
335.92
 20
106.98
 11
335.97
 21
106.98
  0
LINE
  8
L-1-1
 10
335.85
 20
106.98
 11
335.92
 21
106.98
  0
LINE
  8
L-1-1
 10
335.97
 20
105.26
 11
336.09
 21
105.26
  0
LINE
  8
L-1-1
 10
335.97
 20
105.26
 11
335.97
 21
107.18
  0
LINE
  8
L-1-1
 10
335.97
 20
107.18
 11
336.09
 21
107.18
  0
LINE
  8
L-1-1
 10
334.65
 20
105.73
 11
334.65
 21
106.70
  0
LINE
  8
L-1-1
 10
334.75
 20
105.58
 11
334.75
 21
106.86
  0
LINE
  8
L-1-1
 10
334.75
 20
105.90
 11
335.25
 21
105.90
  0
LINE
  8
L-1-1
 10
334.65
 20
105.96
 11
334.75
 21
105.90
  0
LINE
  8
L-1-1
 10
334.75
 20
106.54
 11
335.25
 21
106.54
  0
LINE
  8
L-1-1
 10
334.65
 20
106.48
 11
334.75
 21
106.54
  0
LINE
  8
L-1-1
 10
334.75
 20
105.58
 11
335.25
 21
105.58
  0
LINE
  8
L-1-1
 10
335.25
 20
105.58
 11
335.25
 21
106.86
  0
LINE
  8
L-1-1
 10
334.75
 20
106.86
 11
335.25
 21
106.86
  0
LINE
  8
L-1-1
 10
334.09
 20
105.94
 11
334.09
 21
106.50
  0
LINE
  8
L-1-1
 10
361.66
 20
113.39
 11
361.66
 21
114.15
  0
LINE
  8
L-1-1
 10
334.09
 20
111.40
 11
334.17
 21
111.48
  0
LINE
  8
L-1-1
 10
334.09
 20
110.84
 11
334.17
 21
110.76
  0
LINE
  8
L-1-1
 10
337.09
 20
110.84
 11
337.17
 21
110.76
  0
LINE
  8
L-1-1
 10
337.09
 20
111.40
 11
337.17
 21
111.48
  0
LINE
  8
L-1-1
 10
334.09
 20
111.40
 11
334.17
 21
111.48
  0
LINE
  8
L-1-1
 10
334.09
 20
110.84
 11
334.17
 21
110.76
  0
LINE
  8
L-1-1
 10
337.09
 20
110.84
 11
337.09
 21
111.40
  0
LINE
  8
L-1-1
 10
336.79
 20
110.67
 11
336.97
 21
110.67
  0
LINE
  8
L-1-1
 10
346.61
 20
110.67
 11
346.79
 21
110.67
  0
LINE
  8
L-1-1
 10
335.35
 20
111.76
 11
335.85
 21
111.76
  0
LINE
  8
L-1-1
 10
335.35
 20
110.48
 11
335.35
 21
111.76
  0
LINE
  8
L-1-1
 10
335.35
 20
110.48
 11
335.85
 21
110.48
  0
LINE
  8
L-1-1
 10
335.35
 20
111.44
 11
335.85
 21
111.44
  0
LINE
  8
L-1-1
 10
335.25
 20
111.38
 11
335.35
 21
111.44
  0
LINE
  8
L-1-1
 10
335.35
 20
110.80
 11
335.85
 21
110.80
  0
LINE
  8
L-1-1
 10
335.25
 20
110.86
 11
335.35
 21
110.80
  0
LINE
  8
L-1-1
 10
335.85
 20
111.88
 11
335.97
 21
111.88
  0
LINE
  8
L-1-1
 10
335.85
 20
110.36
 11
335.85
 21
111.88
  0
LINE
  8
L-1-1
 10
335.92
 20
110.36
 11
335.97
 21
110.36
  0
LINE
  8
L-1-1
 10
335.85
 20
110.36
 11
335.92
 21
110.36
  0
LINE
  8
L-1-1
 10
335.97
 20
112.08
 11
336.09
 21
112.08
  0
LINE
  8
L-1-1
 10
335.97
 20
110.16
 11
335.97
 21
112.08
  0
LINE
  8
L-1-1
 10
335.97
 20
110.16
 11
336.09
 21
110.16
  0
LINE
  8
L-1-1
 10
334.65
 20
110.64
 11
334.65
 21
111.61
  0
LINE
  8
L-1-1
 10
334.75
 20
110.48
 11
334.75
 21
111.76
  0
LINE
  8
L-1-1
 10
334.75
 20
111.44
 11
335.25
 21
111.44
  0
LINE
  8
L-1-1
 10
334.65
 20
111.38
 11
334.75
 21
111.44
  0
LINE
  8
L-1-1
 10
334.75
 20
110.80
 11
335.25
 21
110.80
  0
LINE
  8
L-1-1
 10
334.65
 20
110.86
 11
334.75
 21
110.80
  0
LINE
  8
L-1-1
 10
334.75
 20
111.76
 11
335.25
 21
111.76
  0
LINE
  8
L-1-1
 10
335.25
 20
110.48
 11
335.25
 21
111.76
  0
LINE
  8
L-1-1
 10
334.75
 20
110.48
 11
335.25
 21
110.48
  0
LINE
  8
L-1-1
 10
334.09
 20
110.84
 11
334.09
 21
111.40
  0
LINE
  8
L-1-1
 10
336.79
 20
105.17
 11
336.79
 21
112.17
  0
LINE
  8
L-1-1
 10
336.79
 20
105.86
 11
362.09
 21
105.86
  0
LINE
  8
L-1-1
 10
336.79
 20
105.94
 11
337.09
 21
105.94
  0
LINE
  8
L-1-1
 10
336.79
 20
106.50
 11
337.09
 21
106.50
  0
LINE
  8
L-1-1
 10
336.79
 20
106.58
 11
362.05
 21
106.58
  0
LINE
  8
L-1-1
 10
336.80
 20
110.76
 11
362.05
 21
110.76
  0
LINE
  8
L-1-1
 10
336.79
 20
111.48
 11
362.09
 21
111.48
  0
LINE
  8
L-1-1
 10
336.80
 20
111.40
 11
337.09
 21
111.40
  0
LINE
  8
L-1-1
 10
336.80
 20
110.84
 11
337.09
 21
110.84
  0
LINE
  8
L-1-1
 10
322.18
 20
61.53
 11
323.60
 21
62.95
  0
LINE
  8
L-1-1
 10
322.18
 20
61.53
 11
326.35
 21
57.36
  0
LINE
  8
L-1-1
 10
323.60
 20
62.95
 11
327.77
 21
58.77
  0
LINE
  8
L-1-1
 10
323.60
 20
62.95
 11
354.43
 21
93.78
  0
LINE
  8
L-1-1
 10
354.43
 20
93.78
 11
358.60
 21
89.60
  0
LINE
  8
L-1-1
 10
354.43
 20
93.78
 11
355.84
 21
95.19
  0
LINE
  8
L-1-1
 10
355.84
 20
95.19
 11
360.01
 21
91.02
  0
LINE
  8
L-1-1
 10
361.70
 20
94.10
 11
365.16
 21
90.64
  0
LINE
  8
L-1-1
 10
362.76
 20
88.24
 11
365.16
 21
90.64
  0
LINE
  8
L-1-1
 10
359.30
 20
91.70
 11
361.70
 21
94.10
  0
LINE
  8
L-1-1
 10
321.52
 20
85.82
 11
356.87
 21
50.46
  0
LINE
  8
L-1-1
 10
356.87
 20
50.46
 11
360.60
 21
54.18
  0
LINE
  8
L-1-1
 10
321.52
 20
85.82
 11
325.24
 21
89.54
  0
LINE
  8
L-1-1
 10
326.23
 20
91.14
 11
363.14
 21
54.24
  0
LINE
  8
L-1-1
 10
325.58
 20
54.52
 11
363.19
 21
92.13
  0
LINE
  8
L-1-1
 10
363.79
 20
113.84
 11
363.79
 21
123.44
  0
LINE
  8
L-1-1
 10
334.09
 20
123.44
 11
363.79
 21
123.44
  0
LINE
  8
L-1-1
 10
334.09
 20
123.44
 11
346.79
 21
123.44
  0
LINE
  8
L-1-1
 10
336.09
 20
105.17
 11
336.79
 21
105.17
  0
LINE
  8
L-1-1
 10
336.09
 20
105.17
 11
336.09
 21
112.17
  0
LINE
  8
L-1-1
 10
336.09
 20
112.17
 11
336.79
 21
112.17
  0
LINE
  8
L-1-1
 10
334.17
 20
105.86
 11
334.65
 21
105.86
  0
LINE
  8
L-1-1
 10
334.09
 20
105.94
 11
334.65
 21
105.94
  0
LINE
  8
L-1-1
 10
334.09
 20
106.50
 11
334.65
 21
106.50
  0
LINE
  8
L-1-1
 10
334.17
 20
106.58
 11
334.65
 21
106.58
  0
LINE
  8
L-1-1
 10
334.17
 20
111.48
 11
334.65
 21
111.48
  0
LINE
  8
L-1-1
 10
334.09
 20
111.40
 11
334.65
 21
111.40
  0
LINE
  8
L-1-1
 10
334.09
 20
110.84
 11
334.65
 21
110.84
  0
LINE
  8
L-1-1
 10
334.17
 20
110.76
 11
334.65
 21
110.76
  0
LINE
  8
L-1-1
 10
336.09
 20
105.86
 11
336.78
 21
105.86
  0
LINE
  8
L-1-1
 10
336.09
 20
105.94
 11
336.78
 21
105.94
  0
LINE
  8
L-1-1
 10
336.09
 20
106.50
 11
336.78
 21
106.50
  0
LINE
  8
L-1-1
 10
336.09
 20
106.58
 11
336.78
 21
106.58
  0
LINE
  8
L-1-1
 10
336.09
 20
110.76
 11
336.78
 21
110.76
  0
LINE
  8
L-1-1
 10
336.09
 20
110.84
 11
336.79
 21
110.84
  0
LINE
  8
L-1-1
 10
336.09
 20
111.40
 11
336.78
 21
111.40
  0
LINE
  8
L-1-1
 10
336.09
 20
111.48
 11
336.78
 21
111.48
  0
LINE
  8
L-1-1
 10
344.22
 20
65.49
 11
344.22
 21
81.19
  0
LINE
  8
L-1-1
 10
336.83
 20
73.16
 11
352.15
 21
73.16
  0
LINE
  8
L-1-1
 10
323.59
 20
90.95
 11
326.42
 21
93.78
  0
LINE
  8
L-1-1
 10
323.59
 20
90.95
 11
325.12
 21
89.42
  0
LINE
  8
L-1-1
 10
326.42
 20
93.78
 11
327.95
 21
92.25
  0
LINE
  8
L-1-1
 10
334.09
 20
116.98
 11
334.09
 21
117.83
  0
LINE
  8
L-1-1
 10
334.09
 20
110.76
 11
334.09
 21
123.44
  0
LINE
  8
L-1-1
 10
334.09
 20
114.85
 11
337.09
 21
114.85
  0
LINE
  8
L-1-1
 10
337.09
 20
111.26
 11
337.09
 21
114.85
  0
LINE
  8
L-1-1
 10
346.79
 20
105.02
 11
346.79
 21
111.50
  0
LINE
  8
L-1-1
 10
346.79
 20
106.67
 11
346.79
 21
114.54
  0
LINE
  8
L-1-1
 10
346.79
 20
115.40
 11
346.79
 21
123.44
  0
LINE
  8
L-1-1
 10
334.09
 20
128.06
 11
363.79
 21
128.06
  0
LINE
  8
L-1-1
 10
334.09
 20
123.05
 11
334.09
 21
128.06
  0
LINE
  8
L-1-1
 10
363.79
 20
123.05
 11
363.79
 21
128.06
  0
CIRCLE
  8
L-1-1
 10
192.36
 20
95.83
 40
0.17
  0
CIRCLE
  8
L-1-1
 10
192.36
 20
95.83
 40
0.33
  0
CIRCLE
  8
L-1-1
 10
151.88
 20
238.88
 40
0.17
  0
ARC
  8
L-1-1
 10
151.88
 20
238.88
 40
0.98
 50
152.51
 51
59.09
  0
CIRCLE
  8
L-1-1
 10
151.88
 20
238.88
 40
0.17
  0
ARC
  8
L-1-1
 10
151.88
 20
238.88
 40
0.33
 50
195.80
 51
15.80
  0
CIRCLE
  8
L-1-1
 10
151.66
 20
239.06
 40
0.04
  0
CIRCLE
  8
L-1-1
 10
151.97
 20
239.15
 40
0.04
  0
ARC
  8
L-1-1
 10
151.88
 20
238.88
 40
0.40
 50
209.19
 51
2.41
  0
ARC
  8
L-1-1
 10
151.88
 20
238.88
 40
0.90
 50
145.58
 51
66.02
  0
CIRCLE
  8
L-1-1
 10
183.52
 20
114.81
 40
0.13
  0
ARC
  8
L-1-1
 10
183.52
 20
114.81
 40
0.27
 50
195.80
 51
9.64
  0
CIRCLE
  8
L-1-1
 10
188.34
 20
116.17
 40
0.13
  0
ARC
  8
L-1-1
 10
188.34
 20
116.17
 40
0.27
 50
195.80
 51
9.64
  0
ARC
  8
L-1-1
 10
181.01
 20
121.42
 40
0.50
 50
195.80
 51
285.80
  0
ARC
  8
L-1-1
 10
181.01
 20
121.42
 40
0.27
 50
195.80
 51
285.80
  0
ARC
  8
L-1-1
 10
172.37
 20
151.99
 40
0.50
 50
105.80
 51
195.80
  0
ARC
  8
L-1-1
 10
172.37
 20
151.99
 40
0.27
 50
105.80
 51
195.80
  0
ARC
  8
L-1-1
 10
171.61
 20
154.65
 40
0.50
 50
195.80
 51
285.80
  0
ARC
  8
L-1-1
 10
171.61
 20
154.65
 40
0.27
 50
195.80
 51
285.80
  0
ARC
  8
L-1-1
 10
161.42
 20
190.67
 40
0.50
 50
105.80
 51
195.80
  0
ARC
  8
L-1-1
 10
161.42
 20
190.67
 40
0.27
 50
105.80
 51
195.80
  0
ARC
  8
L-1-1
 10
152.73
 20
230.76
 40
0.50
 50
102.11
 51
192.10
  0
ARC
  8
L-1-1
 10
152.73
 20
230.76
 40
0.27
 50
102.10
 51
192.10
  0
ARC
  8
L-1-1
 10
160.78
 20
193.20
 40
0.50
 50
192.10
 51
282.10
  0
ARC
  8
L-1-1
 10
160.78
 20
193.20
 40
0.27
 50
192.10
 51
282.10
  0
CIRCLE
  8
L-1-1
 10
192.36
 20
95.83
 40
0.30
  0
CIRCLE
  8
L-1-1
 10
195.83
 20
94.87
 40
0.13
  0
CIRCLE
  8
L-1-1
 10
192.36
 20
112.07
 40
0.17
  0
ARC
  8
L-1-1
 10
192.36
 20
112.07
 40
0.37
 50
75.18
 51
219.03
  0
CIRCLE
  8
L-1-1
 10
192.36
 20
95.83
 40
0.17
  0
ARC
  8
L-1-1
 10
192.36
 20
95.83
 40
0.37
 50
85.57
 51
219.03
  0
ARC
  8
L-1-1
 10
192.36
 20
95.23
 40
0.37
 50
135.51
 51
274.43
  0
ARC
  8
L-1-1
 10
195.83
 20
94.87
 40
0.27
 50
161.62
 51
39.19
  0
ARC
  8
L-1-1
 10
192.36
 20
95.23
 40
0.17
 50
154.90
 51
251.84
  0
ARC
  8
L-1-1
 10
187.00
 20
111.51
 40
0.11
 50
358.57
 51
186.50
  0
ARC
  8
L-1-1
 10
187.79
 20
96.19
 40
0.67
 50
180.00
 51
270.00
  0
ARC
  8
L-1-1
 10
187.76
 20
93.65
 40
0.87
 50
90.00
 51
180.00
  0
ARC
  8
L-1-1
 10
187.85
 20
93.56
 40
0.73
 50
90.00
 51
180.00
  0
CIRCLE
  8
L-1-1
 10
189.96
 20
88.37
 40
0.08
  0
ARC
  8
L-1-1
 10
191.39
 20
89.70
 40
0.17
 50
178.24
 51
359.48
  0
CIRCLE
  8
L-1-1
 10
191.39
 20
91.10
 40
0.05
  0
ARC
  8
L-1-1
 10
191.39
 20
91.10
 40
0.17
 50
353.97
 51
182.42
  0
ARC
  8
L-1-1
 10
189.23
 20
94.53
 40
0.87
 50
0.00
 51
90.00
  0
ARC
  8
L-1-1
 10
187.76
 20
94.53
 40
0.87
 50
90.00
 51
180.00
  0
ARC
  8
L-1-1
 10
187.76
 20
94.53
 40
0.64
 50
90.00
 51
180.00
  0
ARC
  8
L-1-1
 10
189.23
 20
94.53
 40
0.64
 50
0.00
 51
90.00
  0
CIRCLE
  8
L-1-1
 10
192.69
 20
80.73
 40
0.08
  0
ARC
  8
L-1-1
 10
192.69
 20
80.73
 40
0.17
 50
111.08
 51
249.37
  0
CIRCLE
  8
L-1-1
 10
195.83
 20
94.87
 40
0.13
  0
ARC
  8
L-1-1
 10
195.83
 20
94.87
 40
0.27
 50
320.81
 51
180.46
  0
CIRCLE
  8
L-1-1
 10
192.36
 20
94.27
 40
0.08
  0
ARC
  8
L-1-1
 10
192.36
 20
94.27
 40
0.20
 50
83.66
 51
278.04
  0
ARC
  8
L-1-1
 10
192.34
 20
87.71
 40
0.07
 50
180.00
 51
270.00
  0
ARC
  8
L-1-1
 10
192.21
 20
84.51
 40
0.07
 50
270.00
 51
0.00
  0
ARC
  8
L-1-1
 10
192.34
 20
84.77
 40
0.07
 50
90.00
 51
180.00
  0
ARC
  8
L-1-1
 10
188.63
 20
86.24
 40
0.11
 50
111.78
 51
247.78
  0
ARC
  8
L-1-1
 10
191.56
 20
86.24
 40
1.37
 50
76.12
 51
92.63
  0
ARC
  8
L-1-1
 10
191.56
 20
86.24
 40
1.37
 50
40.98
 51
52.85
  0
ARC
  8
L-1-1
 10
191.56
 20
86.24
 40
1.37
 50
266.75
 51
319.68
  0
ARC
  8
L-1-1
 10
191.56
 20
86.24
 40
1.17
 50
27.85
 51
68.01
  0
ARC
  8
L-1-1
 10
191.56
 20
86.24
 40
1.17
 50
266.75
 51
333.95
  0
ARC
  8
L-1-1
 10
192.21
 20
87.97
 40
0.07
 50
0.00
 51
64.30
  0
ARC
  8
L-1-1
 10
190.26
 20
86.24
 40
1.43
 50
106.65
 51
112.28
  0
ARC
  8
L-1-1
 10
190.26
 20
86.24
 40
1.43
 50
67.39
 51
96.25
  0
ARC
  8
L-1-1
 10
190.26
 20
86.24
 40
1.67
 50
104.29
 51
127.41
  0
ARC
  8
L-1-1
 10
190.26
 20
86.24
 40
1.67
 50
84.19
 51
95.38
  0
ARC
  8
L-1-1
 10
191.23
 20
86.24
 40
1.37
 50
214.51
 51
273.28
  0
ARC
  8
L-1-1
 10
191.23
 20
86.24
 40
1.17
 50
193.45
 51
273.28
  0
ARC
  8
L-1-1
 10
191.23
 20
86.24
 40
1.37
 50
127.81
 51
144.84
  0
ARC
  8
L-1-1
 10
191.23
 20
86.24
 40
1.37
 50
87.31
 51
103.01
  0
ARC
  8
L-1-1
 10
191.23
 20
86.24
 40
1.17
 50
112.75
 51
164.86
  0
ARC
  8
L-1-1
 10
190.26
 20
86.24
 40
1.43
 50
263.81
 51
293.46
  0
ARC
  8
L-1-1
 10
190.26
 20
86.24
 40
1.43
 50
130.36
 51
253.64
  0
ARC
  8
L-1-1
 10
190.26
 20
86.24
 40
1.67
 50
139.86
 51
255.40
  0
ARC
  8
L-1-1
 10
190.26
 20
86.24
 40
1.67
 50
264.76
 51
277.05
  0
ARC
  8
L-1-1
 10
192.39
 20
83.07
 40
0.05
 50
180.00
 51
270.00
  0
ARC
  8
L-1-1
 10
192.28
 20
80.51
 40
0.05
 50
270.00
 51
0.00
  0
ARC
  8
L-1-1
 10
192.39
 20
80.72
 40
0.05
 50
90.00
 51
180.00
  0
ARC
  8
L-1-1
 10
189.42
 20
81.89
 40
0.09
 50
111.78
 51
247.78
  0
ARC
  8
L-1-1
 10
192.28
 20
83.28
 40
0.05
 50
0.00
 51
64.30
  0
ARC
  8
L-1-1
 10
190.73
 20
81.90
 40
1.33
 50
84.19
 51
95.38
  0
ARC
  8
L-1-1
 10
190.73
 20
81.90
 40
1.33
 50
264.76
 51
277.05
  0
ARC
  8
L-1-1
 10
190.81
 20
81.90
 40
0.86
 50
213.43
 51
146.57
  0
ARC
  8
L-1-1
 10
190.81
 20
81.90
 40
1.01
 50
159.23
 51
200.77
  0
ARC
  8
L-1-1
 10
190.81
 20
81.90
 40
1.01
 50
224.72
 51
135.28
  0
ARC
  8
L-1-1
 10
190.73
 20
81.90
 40
1.33
 50
95.64
 51
118.34
  0
ARC
  8
L-1-1
 10
190.73
 20
81.90
 40
1.33
 50
241.66
 51
264.98
  0
ARC
  8
L-1-1
 10
190.73
 20
81.90
 40
1.33
 50
130.14
 51
229.86
  0
ARC
  8
L-1-1
 10
235.50
 20
103.87
 40
0.13
 50
180.00
 51
270.00
  0
ARC
  8
L-1-1
 10
235.50
 20
108.93
 40
0.13
 50
90.00
 51
180.00
  0
ARC
  8
L-1-1
 10
237.90
 20
103.87
 40
0.13
 50
270.00
 51
0.00
  0
ARC
  8
L-1-1
 10
237.90
 20
108.93
 40
0.13
 50
0.00
 51
90.00
  0
ARC
  8
L-1-1
 10
237.90
 20
103.87
 40
0.13
 50
270.00
 51
0.00
  0
ARC
  8
L-1-1
 10
237.90
 20
108.93
 40
0.13
 50
0.00
 51
90.00
  0
ARC
  8
L-1-1
 10
277.10
 20
103.87
 40
0.13
 50
270.00
 51
0.00
  0
ARC
  8
L-1-1
 10
277.10
 20
108.93
 40
0.13
 50
0.00
 51
90.00
  0
ARC
  8
L-1-1
 10
274.70
 20
103.87
 40
0.13
 50
180.00
 51
270.00
  0
ARC
  8
L-1-1
 10
274.70
 20
108.93
 40
0.13
 50
90.00
 51
180.00
  0
ARC
  8
L-1-1
 10
274.70
 20
103.87
 40
0.13
 50
180.00
 51
270.00
  0
ARC
  8
L-1-1
 10
274.70
 20
108.93
 40
0.13
 50
90.00
 51
180.00
  0
ARC
  8
L-1-1
 10
277.10
 20
103.87
 40
0.13
 50
270.00
 51
0.00
  0
ARC
  8
L-1-1
 10
277.10
 20
108.93
 40
0.13
 50
0.00
 51
90.00
  0
ARC
  8
L-1-1
 10
277.10
 20
103.87
 40
0.13
 50
270.00
 51
0.00
  0
ARC
  8
L-1-1
 10
277.10
 20
108.93
 40
0.13
 50
0.00
 51
90.00
  0
ARC
  8
L-1-1
 10
313.90
 20
103.87
 40
0.13
 50
180.00
 51
270.00
  0
ARC
  8
L-1-1
 10
313.90
 20
108.93
 40
0.13
 50
90.00
 51
180.00
  0
ARC
  8
L-1-1
 10
313.90
 20
103.87
 40
0.13
 50
180.00
 51
270.00
  0
ARC
  8
L-1-1
 10
313.90
 20
108.93
 40
0.13
 50
90.00
 51
180.00
  0
CIRCLE
  8
L-1-1
 10
154.56
 20
152.08
 40
0.17
  0
CIRCLE
  8
L-1-1
 10
154.60
 20
149.75
 40
0.17
  0
ARC
  8
L-1-1
 10
154.60
 20
149.75
 40
0.40
 50
181.00
 51
1.00
  0
ARC
  8
L-1-1
 10
154.56
 20
152.08
 40
0.40
 50
1.00
 51
181.00
  0
ARC
  8
L-1-1
 10
154.60
 20
149.75
 40
0.83
 50
119.69
 51
169.46
  0
ARC
  8
L-1-1
 10
154.60
 20
149.75
 40
0.83
 50
192.54
 51
349.46
  0
ARC
  8
L-1-1
 10
154.60
 20
149.75
 40
0.83
 50
12.54
 51
62.31
  0
ARC
  8
L-1-1
 10
154.60
 20
149.75
 40
0.70
 50
194.77
 51
347.23
  0
ARC
  8
L-1-1
 10
154.60
 20
149.75
 40
0.77
 50
193.56
 51
348.44
  0
ARC
  8
L-1-1
 10
154.60
 20
149.75
 40
0.70
 50
14.77
 51
56.15
  0
ARC
  8
L-1-1
 10
154.60
 20
149.75
 40
0.77
 50
13.55
 51
59.55
  0
ARC
  8
L-1-1
 10
154.60
 20
149.75
 40
0.70
 50
125.85
 51
167.23
  0
ARC
  8
L-1-1
 10
154.60
 20
149.75
 40
0.77
 50
122.45
 51
168.44
  0
CIRCLE
  8
L-1-1
 10
156.36
 20
89.07
 40
0.17
  0
CIRCLE
  8
L-1-1
 10
156.38
 20
92.07
 40
0.17
  0
ARC
  8
L-1-1
 10
156.38
 20
92.07
 40
0.40
 50
348.31
 51
179.64
  0
ARC
  8
L-1-1
 10
156.38
 20
92.07
 40
0.83
 50
298.33
 51
240.96
  0
ARC
  8
L-1-1
 10
156.38
 20
92.07
 40
0.77
 50
301.09
 51
238.19
  0
ARC
  8
L-1-1
 10
156.38
 20
92.07
 40
0.70
 50
304.49
 51
234.79
  0
ARC
  8
L-1-1
 10
204.75
 20
239.73
 40
0.04
 50
270.00
 51
90.00
  0
ARC
  8
L-1-1
 10
209.66
 20
239.73
 40
0.27
 50
225.42
 51
90.00
  0
ARC
  8
L-1-1
 10
209.66
 20
240.27
 40
0.27
 50
221.15
 51
268.90
  0
ARC
  8
L-1-1
 10
209.66
 20
240.27
 40
0.13
 50
226.06
 51
268.61
  0
CIRCLE
  8
L-1-1
 10
209.06
 20
239.30
 40
0.03
  0
ARC
  8
L-1-1
 10
209.65
 20
239.01
 40
0.12
 50
242.96
 51
88.67
  0
ARC
  8
L-1-1
 10
209.06
 20
239.30
 40
0.10
 50
140.84
 51
242.96
  0
ARC
  8
L-1-1
 10
209.66
 20
239.63
 40
0.50
 50
271.78
 51
90.00
  0
ARC
  8
L-1-1
 10
209.66
 20
239.63
 40
0.50
 50
210.42
 51
219.92
  0
ARC
  8
L-1-1
 10
209.54
 20
239.97
 40
0.05
 50
327.74
 51
140.84
  0
ARC
  8
L-1-1
 10
192.36
 20
112.07
 40
0.47
 50
39.13
 51
122.57
  0
ARC
  8
L-1-1
 10
187.56
 20
95.97
 40
0.67
 50
180.00
 51
255.84
  0
CIRCLE
  8
L-1-1
 10
159.20
 20
89.55
 40
0.17
  0
ARC
  8
L-1-1
 10
159.20
 20
89.55
 40
0.47
 50
97.69
 51
279.71
  0
ARC
  8
L-1-1
 10
159.63
 20
90.19
 40
0.20
 50
122.57
 51
189.71
  0
ARC
  8
L-1-1
 10
156.36
 20
89.07
 40
0.50
 50
102.78
 51
216.87
  0
ARC
  8
L-1-1
 10
158.20
 20
89.38
 40
0.60
 50
292.05
 51
99.71
  0
ARC
  8
L-1-1
 10
156.36
 20
89.07
 40
0.83
 50
118.33
 51
270.00
  0
ARC
  8
L-1-1
 10
156.36
 20
89.07
 40
0.77
 50
121.09
 51
270.00
  0
ARC
  8
L-1-1
 10
156.36
 20
89.07
 40
0.70
 50
124.49
 51
261.29
  0
ARC
  8
L-1-1
 10
156.36
 20
89.07
 40
1.00
 50
113.18
 51
276.85
  0
CIRCLE
  8
L-1-1
 10
197.25
 20
106.40
 40
0.25
  0
CIRCLE
  8
L-1-1
 10
200.25
 20
101.73
 40
0.08
  0
ARC
  8
L-1-1
 10
200.25
 20
101.73
 40
0.23
 50
180.00
 51
0.00
  0
CIRCLE
  8
L-1-1
 10
202.09
 20
101.73
 40
0.18
  0
ARC
  8
L-1-1
 10
202.09
 20
101.73
 40
0.37
 50
215.12
 51
0.00
  0
CIRCLE
  8
L-1-1
 10
211.99
 20
101.73
 40
0.18
  0
ARC
  8
L-1-1
 10
211.99
 20
101.73
 40
0.37
 50
174.83
 51
315.67
  0
CIRCLE
  8
L-1-1
 10
211.89
 20
102.63
 40
0.13
  0
CIRCLE
  8
L-1-1
 10
211.89
 20
102.63
 40
0.23
  0
CIRCLE
  8
L-1-1
 10
214.43
 20
102.63
 40
0.13
  0
CIRCLE
  8
L-1-1
 10
214.43
 20
102.63
 40
0.23
  0
ARC
  8
L-1-1
 10
44.02
 20
105.68
 40
0.98
 50
222.91
 51
129.49
  0
ARC
  8
L-1-1
 10
44.02
 20
105.68
 40
0.40
 50
279.59
 51
72.81
  0
CIRCLE
  8
L-1-1
 10
153.85
 20
237.61
 40
0.03
  0
CIRCLE
  8
L-1-1
 10
154.10
 20
237.00
 40
0.03
  0
CIRCLE
  8
L-1-1
 10
153.23
 20
237.35
 40
0.03
  0
CIRCLE
  8
L-1-1
 10
153.49
 20
236.74
 40
0.03
  0
ARC
  8
L-1-1
 10
153.19
 20
237.37
 40
0.03
 50
112.83
 51
202.84
  0
ARC
  8
L-1-1
 10
153.86
 20
237.66
 40
0.03
 50
22.80
 51
112.84
  0
ARC
  8
L-1-1
 10
154.15
 20
236.98
 40
0.03
 50
292.83
 51
22.84
  0
ARC
  8
L-1-1
 10
153.47
 20
236.70
 40
0.03
 50
202.81
 51
292.84
  0
CIRCLE
  8
L-1-1
 10
154.13
 20
237.54
 40
0.04
  0
CIRCLE
  8
L-1-1
 10
154.13
 20
237.54
 40
0.07
  0
CIRCLE
  8
L-1-1
 10
153.08
 20
237.10
 40
0.04
  0
CIRCLE
  8
L-1-1
 10
153.08
 20
237.10
 40
0.07
  0
CIRCLE
  8
L-1-1
 10
23.92
 20
106.40
 40
2.95
  0
ARC
  8
L-1-1
 10
26.54
 20
109.39
 40
0.27
 50
0.00
 51
90.00
  0
ARC
  8
L-1-1
 10
26.54
 20
103.42
 40
0.27
 50
270.00
 51
0.00
  0
ARC
  8
L-1-1
 10
21.31
 20
109.39
 40
0.27
 50
90.00
 51
180.00
  0
ARC
  8
L-1-1
 10
21.31
 20
103.42
 40
0.27
 50
180.00
 51
270.00
  0
ARC
  8
L-1-1
 10
25.53
 20
103.17
 40
0.27
 50
196.91
 51
286.90
  0
ARC
  8
L-1-1
 10
25.33
 20
102.81
 40
0.67
 50
196.91
 51
286.90
  0
ARC
  8
L-1-1
 10
25.53
 20
103.17
 40
0.31
 50
196.91
 51
286.90
  0
ARC
  8
L-1-1
 10
25.33
 20
102.81
 40
0.63
 50
196.91
 51
286.90
  0
ARC
  8
L-1-1
 10
23.28
 20
82.80
 40
0.67
 50
0.00
 51
90.00
  0
ARC
  8
L-1-1
 10
22.47
 20
82.80
 40
0.67
 50
0.00
 51
90.00
  0
ARC
  8
L-1-1
 10
24.61
 20
84.84
 40
0.67
 50
180.00
 51
270.00
  0
CIRCLE
  8
L-1-1
 10
29.29
 20
84.57
 40
0.08
  0
CIRCLE
  8
L-1-1
 10
25.29
 20
84.57
 40
0.08
  0
CIRCLE
  8
L-1-1
 10
29.29
 20
87.77
 40
0.08
  0
CIRCLE
  8
L-1-1
 10
25.29
 20
87.77
 40
0.08
  0
CIRCLE
  8
L-1-1
 10
20.18
 20
88.30
 40
0.23
  0
CIRCLE
  8
L-1-1
 10
20.18
 20
88.30
 40
0.17
  0
ARC
  8
L-1-1
 10
26.23
 20
84.61
 40
0.04
 50
270.00
 51
0.00
  0
ARC
  8
L-1-1
 10
28.36
 20
84.61
 40
0.04
 50
180.00
 51
270.00
  0
ARC
  8
L-1-1
 10
28.36
 20
87.73
 40
0.04
 50
90.00
 51
180.00
  0
ARC
  8
L-1-1
 10
26.23
 20
87.73
 40
0.04
 50
0.00
 51
90.00
  0
ARC
  8
L-1-1
 10
28.49
 20
84.54
 40
0.04
 50
270.00
 51
0.00
  0
ARC
  8
L-1-1
 10
29.13
 20
84.80
 40
0.10
 50
270.00
 51
0.00
  0
ARC
  8
L-1-1
 10
26.23
 20
84.61
 40
0.04
 50
270.00
 51
0.00
  0
ARC
  8
L-1-1
 10
26.23
 20
87.73
 40
0.04
 50
0.00
 51
90.00
  0
ARC
  8
L-1-1
 10
27.63
 20
86.14
 40
5.18
 50
170.05
 51
189.14
  0
ARC
  8
L-1-1
 10
28.88
 20
84.54
 40
0.11
 50
202.22
 51
338.22
  0
ARC
  8
L-1-1
 10
26.23
 20
87.73
 40
0.04
 50
0.00
 51
90.00
  0
ARC
  8
L-1-1
 10
28.36
 20
87.73
 40
0.04
 50
90.00
 51
180.00
  0
ARC
  8
L-1-1
 10
29.13
 20
87.54
 40
0.10
 50
0.00
 51
90.00
  0
ARC
  8
L-1-1
 10
26.23
 20
87.73
 40
0.04
 50
0.00
 51
90.00
  0
CIRCLE
  8
L-1-1
 10
18.43
 20
80.55
 40
0.06
  0
CIRCLE
  8
L-1-1
 10
21.63
 20
80.55
 40
0.06
  0
CIRCLE
  8
L-1-1
 10
21.63
 20
83.11
 40
0.06
  0
ARC
  8
L-1-1
 10
20.88
 20
80.58
 40
0.03
 50
180.00
 51
270.00
  0
ARC
  8
L-1-1
 10
19.17
 20
80.58
 40
0.03
 50
270.00
 51
0.00
  0
ARC
  8
L-1-1
 10
19.17
 20
83.07
 40
0.03
 50
0.00
 51
90.00
  0
ARC
  8
L-1-1
 10
20.88
 20
83.07
 40
0.03
 50
90.00
 51
180.00
  0
ARC
  8
L-1-1
 10
19.07
 20
80.52
 40
0.03
 50
180.00
 51
270.00
  0
ARC
  8
L-1-1
 10
18.56
 20
80.73
 40
0.08
 50
180.00
 51
270.00
  0
ARC
  8
L-1-1
 10
20.88
 20
80.58
 40
0.03
 50
180.00
 51
270.00
  0
ARC
  8
L-1-1
 10
20.88
 20
83.07
 40
0.03
 50
90.00
 51
180.00
  0
ARC
  8
L-1-1
 10
19.76
 20
81.80
 40
4.14
 50
350.86
 51
9.95
  0
ARC
  8
L-1-1
 10
18.76
 20
80.52
 40
0.09
 50
201.78
 51
337.79
  0
ARC
  8
L-1-1
 10
20.88
 20
83.07
 40
0.03
 50
90.00
 51
180.00
  0
ARC
  8
L-1-1
 10
19.17
 20
83.07
 40
0.03
 50
0.00
 51
90.00
  0
ARC
  8
L-1-1
 10
18.56
 20
82.92
 40
0.08
 50
90.00
 51
180.00
  0
ARC
  8
L-1-1
 10
20.88
 20
83.07
 40
0.03
 50
90.00
 51
180.00
  0
ARC
  8
L-1-1
 10
23.66
 20
106.18
 40
27.67
 50
231.93
 51
284.51
  0
ARC
  8
L-1-1
 10
32.50
 20
110.97
 40
0.67
 50
0.00
 51
90.00
  0
ARC
  8
L-1-1
 10
32.50
 20
110.97
 40
0.44
 50
0.00
 51
90.00
  0
ARC
  8
L-1-1
 10
314.79
 20
100.05
 40
0.06
 50
115.73
 51
244.68
  0
ARC
  8
L-1-1
 10
314.80
 20
100.37
 40
0.06
 50
115.73
 51
244.26
  0
ARC
  8
L-1-1
 10
314.92
 20
100.21
 40
0.19
 50
145.50
 51
214.50
  0
ARC
  8
L-1-1
 10
314.59
 20
100.05
 40
0.06
 50
115.73
 51
244.68
  0
ARC
  8
L-1-1
 10
314.60
 20
100.37
 40
0.06
 50
115.73
 51
244.26
  0
ARC
  8
L-1-1
 10
314.72
 20
100.21
 40
0.19
 50
145.50
 51
214.50
  0
ARC
  8
L-1-1
 10
314.79
 20
100.52
 40
0.06
 50
115.73
 51
244.68
  0
ARC
  8
L-1-1
 10
314.80
 20
100.84
 40
0.06
 50
115.73
 51
244.26
  0
ARC
  8
L-1-1
 10
314.92
 20
100.68
 40
0.19
 50
145.50
 51
214.50
  0
ARC
  8
L-1-1
 10
314.59
 20
100.52
 40
0.06
 50
115.73
 51
244.68
  0
ARC
  8
L-1-1
 10
314.60
 20
100.84
 40
0.06
 50
115.73
 51
244.26
  0
ARC
  8
L-1-1
 10
314.72
 20
100.68
 40
0.19
 50
145.50
 51
214.50
  0
ARC
  8
L-1-1
 10
314.79
 20
102.00
 40
0.06
 50
115.32
 51
244.26
  0
ARC
  8
L-1-1
 10
314.80
 20
101.68
 40
0.06
 50
115.74
 51
244.26
  0
ARC
  8
L-1-1
 10
314.92
 20
101.84
 40
0.19
 50
145.50
 51
214.50
  0
ARC
  8
L-1-1
 10
314.59
 20
102.00
 40
0.06
 50
115.32
 51
244.26
  0
ARC
  8
L-1-1
 10
314.60
 20
101.68
 40
0.06
 50
115.74
 51
244.26
  0
ARC
  8
L-1-1
 10
314.72
 20
101.84
 40
0.19
 50
145.50
 51
214.50
  0
ARC
  8
L-1-1
 10
314.79
 20
101.53
 40
0.06
 50
115.32
 51
244.26
  0
ARC
  8
L-1-1
 10
314.80
 20
101.21
 40
0.06
 50
115.74
 51
244.26
  0
ARC
  8
L-1-1
 10
314.92
 20
101.37
 40
0.19
 50
145.50
 51
214.50
  0
ARC
  8
L-1-1
 10
314.59
 20
101.53
 40
0.06
 50
115.32
 51
244.26
  0
ARC
  8
L-1-1
 10
314.60
 20
101.21
 40
0.06
 50
115.74
 51
244.26
  0
ARC
  8
L-1-1
 10
314.72
 20
101.37
 40
0.19
 50
145.50
 51
214.50
  0
LINE
  8
L-1-1
 10
323.57
 20
101.25
 11
323.67
 21
101.24
  0
LINE
  8
L-1-1
 10
323.67
 20
101.24
 11
323.76
 21
101.25
  0
LINE
  8
L-1-1
 10
323.76
 20
101.25
 11
323.86
 21
101.27
  0
LINE
  8
L-1-1
 10
323.86
 20
101.27
 11
323.95
 21
101.31
  0
LINE
  8
L-1-1
 10
323.95
 20
101.31
 11
324.03
 21
101.35
  0
LINE
  8
L-1-1
 10
324.03
 20
101.35
 11
324.11
 21
101.41
  0
LINE
  8
L-1-1
 10
324.11
 20
101.41
 11
324.16
 21
101.48
  0
LINE
  8
L-1-1
 10
324.16
 20
101.48
 11
324.21
 21
101.55
  0
LINE
  8
L-1-1
 10
324.21
 20
101.55
 11
324.23
 21
101.63
  0
LINE
  8
L-1-1
 10
324.23
 20
101.63
 11
324.24
 21
101.72
  0
LINE
  8
L-1-1
 10
324.24
 20
101.72
 11
324.24
 21
101.80
  0
LINE
  8
L-1-1
 10
324.24
 20
101.80
 11
324.21
 21
101.88
  0
LINE
  8
L-1-1
 10
324.21
 20
101.88
 11
324.17
 21
101.96
  0
LINE
  8
L-1-1
 10
324.17
 20
101.96
 11
324.11
 21
102.02
  0
LINE
  8
L-1-1
 10
324.04
 20
102.08
 11
324.11
 21
102.02
  0
LINE
  8
L-1-1
 10
323.96
 20
102.13
 11
324.04
 21
102.08
  0
LINE
  8
L-1-1
 10
323.87
 20
102.17
 11
323.96
 21
102.13
  0
LINE
  8
L-1-1
 10
323.77
 20
102.19
 11
323.87
 21
102.17
  0
LINE
  8
L-1-1
 10
323.67
 20
102.20
 11
323.77
 21
102.19
  0
LINE
  8
L-1-1
 10
323.62
 20
102.19
 11
323.67
 21
102.20
  0
LINE
  8
L-1-1
 10
323.62
 20
101.49
 11
323.68
 21
101.48
  0
LINE
  8
L-1-1
 10
323.68
 20
101.48
 11
323.73
 21
101.49
  0
LINE
  8
L-1-1
 10
323.73
 20
101.49
 11
323.79
 21
101.50
  0
LINE
  8
L-1-1
 10
323.79
 20
101.50
 11
323.84
 21
101.52
  0
LINE
  8
L-1-1
 10
323.84
 20
101.52
 11
323.89
 21
101.54
  0
LINE
  8
L-1-1
 10
323.89
 20
101.54
 11
323.93
 21
101.57
  0
LINE
  8
L-1-1
 10
323.93
 20
101.57
 11
323.96
 21
101.61
  0
LINE
  8
L-1-1
 10
323.96
 20
101.61
 11
323.99
 21
101.64
  0
LINE
  8
L-1-1
 10
323.99
 20
101.64
 11
324.00
 21
101.68
  0
LINE
  8
L-1-1
 10
324.00
 20
101.68
 11
324.00
 21
101.72
  0
LINE
  8
L-1-1
 10
324.00
 20
101.72
 11
324.00
 21
101.77
  0
LINE
  8
L-1-1
 10
324.00
 20
101.77
 11
323.98
 21
101.81
  0
LINE
  8
L-1-1
 10
323.98
 20
101.81
 11
323.96
 21
101.84
  0
LINE
  8
L-1-1
 10
323.92
 20
101.88
 11
323.96
 21
101.84
  0
LINE
  8
L-1-1
 10
323.88
 20
101.90
 11
323.92
 21
101.88
  0
LINE
  8
L-1-1
 10
323.83
 20
101.93
 11
323.88
 21
101.90
  0
LINE
  8
L-1-1
 10
323.78
 20
101.94
 11
323.83
 21
101.93
  0
LINE
  8
L-1-1
 10
323.72
 20
101.95
 11
323.78
 21
101.94
  0
LINE
  8
L-1-1
 10
323.66
 20
101.96
 11
323.72
 21
101.95
  0
LINE
  8
L-1-1
 10
323.62
 20
101.95
 11
323.66
 21
101.96
  0
LINE
  8
L-1-1
 10
323.62
 20
99.63
 11
323.68
 21
99.62
  0
LINE
  8
L-1-1
 10
323.68
 20
99.62
 11
323.73
 21
99.63
  0
LINE
  8
L-1-1
 10
323.73
 20
99.63
 11
323.79
 21
99.64
  0
LINE
  8
L-1-1
 10
323.79
 20
99.64
 11
323.84
 21
99.66
  0
LINE
  8
L-1-1
 10
323.84
 20
99.66
 11
323.89
 21
99.68
  0
LINE
  8
L-1-1
 10
323.89
 20
99.68
 11
323.93
 21
99.71
  0
LINE
  8
L-1-1
 10
323.93
 20
99.71
 11
323.96
 21
99.75
  0
LINE
  8
L-1-1
 10
323.96
 20
99.75
 11
323.99
 21
99.78
  0
LINE
  8
L-1-1
 10
323.99
 20
99.78
 11
324.00
 21
99.82
  0
LINE
  8
L-1-1
 10
324.00
 20
99.82
 11
324.00
 21
99.86
  0
LINE
  8
L-1-1
 10
324.00
 20
99.86
 11
324.00
 21
99.91
  0
LINE
  8
L-1-1
 10
324.00
 20
99.91
 11
323.98
 21
99.94
  0
LINE
  8
L-1-1
 10
323.98
 20
99.94
 11
323.96
 21
99.98
  0
LINE
  8
L-1-1
 10
323.92
 20
100.01
 11
323.96
 21
99.98
  0
LINE
  8
L-1-1
 10
323.88
 20
100.04
 11
323.92
 21
100.01
  0
LINE
  8
L-1-1
 10
323.83
 20
100.07
 11
323.88
 21
100.04
  0
LINE
  8
L-1-1
 10
323.78
 20
100.08
 11
323.83
 21
100.07
  0
LINE
  8
L-1-1
 10
323.72
 20
100.09
 11
323.78
 21
100.08
  0
LINE
  8
L-1-1
 10
323.68
 20
100.10
 11
323.72
 21
100.09
  0
LINE
  8
L-1-1
 10
323.62
 20
99.39
 11
323.72
 21
99.39
  0
LINE
  8
L-1-1
 10
323.72
 20
99.39
 11
323.82
 21
99.40
  0
LINE
  8
L-1-1
 10
323.82
 20
99.40
 11
323.91
 21
99.43
  0
LINE
  8
L-1-1
 10
323.91
 20
99.43
 11
324.00
 21
99.47
  0
LINE
  8
L-1-1
 10
324.00
 20
99.47
 11
324.07
 21
99.52
  0
LINE
  8
L-1-1
 10
324.07
 20
99.52
 11
324.14
 21
99.59
  0
LINE
  8
L-1-1
 10
324.14
 20
99.59
 11
324.19
 21
99.66
  0
LINE
  8
L-1-1
 10
324.19
 20
99.66
 11
324.22
 21
99.74
  0
LINE
  8
L-1-1
 10
324.22
 20
99.74
 11
324.24
 21
99.82
  0
LINE
  8
L-1-1
 10
324.24
 20
99.82
 11
324.24
 21
99.90
  0
LINE
  8
L-1-1
 10
324.24
 20
99.90
 11
324.22
 21
99.98
  0
LINE
  8
L-1-1
 10
324.22
 20
99.98
 11
324.19
 21
100.06
  0
LINE
  8
L-1-1
 10
324.19
 20
100.06
 11
324.14
 21
100.13
  0
LINE
  8
L-1-1
 10
324.08
 20
100.20
 11
324.14
 21
100.13
  0
LINE
  8
L-1-1
 10
324.00
 20
100.25
 11
324.08
 21
100.20
  0
LINE
  8
L-1-1
 10
323.95
 20
100.27
 11
324.00
 21
100.25
  0
LINE
  8
L-1-1
 10
324.17
 20
100.10
 11
324.21
 21
100.17
  0
LINE
  8
L-1-1
 10
324.21
 20
100.17
 11
324.23
 21
100.25
  0
LINE
  8
L-1-1
 10
324.23
 20
100.25
 11
324.24
 21
100.33
  0
LINE
  8
L-1-1
 10
324.24
 20
100.33
 11
324.23
 21
100.42
  0
LINE
  8
L-1-1
 10
324.23
 20
100.42
 11
324.21
 21
100.50
  0
LINE
  8
L-1-1
 10
324.21
 20
100.50
 11
324.16
 21
100.57
  0
LINE
  8
L-1-1
 10
324.16
 20
100.57
 11
324.11
 21
100.64
  0
LINE
  8
L-1-1
 10
324.04
 20
100.70
 11
324.11
 21
100.64
  0
LINE
  8
L-1-1
 10
323.95
 20
100.74
 11
324.04
 21
100.70
  0
LINE
  8
L-1-1
 10
323.86
 20
100.78
 11
323.95
 21
100.74
  0
LINE
  8
L-1-1
 10
323.77
 20
100.80
 11
323.86
 21
100.78
  0
LINE
  8
L-1-1
 10
323.67
 20
100.81
 11
323.77
 21
100.80
  0
LINE
  8
L-1-1
 10
323.57
 20
100.80
 11
323.67
 21
100.81
  0
LINE
  8
L-1-1
 10
323.57
 20
100.80
 11
323.57
 21
100.80
  0
LINE
  8
L-1-1
 10
323.99
 20
100.26
 11
324.00
 21
100.29
  0
LINE
  8
L-1-1
 10
324.00
 20
100.29
 11
324.00
 21
100.34
  0
LINE
  8
L-1-1
 10
324.00
 20
100.34
 11
324.00
 21
100.38
  0
LINE
  8
L-1-1
 10
324.00
 20
100.38
 11
323.98
 21
100.42
  0
LINE
  8
L-1-1
 10
323.98
 20
100.42
 11
323.95
 21
100.45
  0
LINE
  8
L-1-1
 10
323.92
 20
100.49
 11
323.95
 21
100.45
  0
LINE
  8
L-1-1
 10
323.88
 20
100.51
 11
323.92
 21
100.49
  0
LINE
  8
L-1-1
 10
323.83
 20
100.54
 11
323.88
 21
100.51
  0
LINE
  8
L-1-1
 10
323.78
 20
100.55
 11
323.83
 21
100.54
  0
LINE
  8
L-1-1
 10
323.72
 20
100.56
 11
323.78
 21
100.55
  0
LINE
  8
L-1-1
 10
323.66
 20
100.57
 11
323.72
 21
100.56
  0
LINE
  8
L-1-1
 10
323.62
 20
100.56
 11
323.66
 21
100.57
  0
LINE
  8
L-1-1
 10
323.57
 20
101.72
 11
323.67
 21
101.72
  0
LINE
  8
L-1-1
 10
323.67
 20
101.72
 11
323.76
 21
101.72
  0
LINE
  8
L-1-1
 10
323.76
 20
101.72
 11
323.86
 21
101.74
  0
LINE
  8
L-1-1
 10
323.86
 20
101.74
 11
323.95
 21
101.78
  0
LINE
  8
L-1-1
 10
323.95
 20
101.78
 11
323.99
 21
101.79
  0
LINE
  8
L-1-1
 10
324.17
 20
101.96
 11
324.21
 21
102.03
  0
LINE
  8
L-1-1
 10
324.21
 20
102.03
 11
324.23
 21
102.11
  0
LINE
  8
L-1-1
 10
324.23
 20
102.11
 11
324.24
 21
102.19
  0
LINE
  8
L-1-1
 10
324.24
 20
102.19
 11
324.23
 21
102.28
  0
LINE
  8
L-1-1
 10
324.23
 20
102.28
 11
324.21
 21
102.36
  0
LINE
  8
L-1-1
 10
324.21
 20
102.36
 11
324.16
 21
102.43
  0
LINE
  8
L-1-1
 10
324.16
 20
102.43
 11
324.11
 21
102.50
  0
LINE
  8
L-1-1
 10
324.04
 20
102.56
 11
324.11
 21
102.50
  0
LINE
  8
L-1-1
 10
323.95
 20
102.60
 11
324.04
 21
102.56
  0
LINE
  8
L-1-1
 10
323.86
 20
102.64
 11
323.95
 21
102.60
  0
LINE
  8
L-1-1
 10
323.77
 20
102.66
 11
323.86
 21
102.64
  0
LINE
  8
L-1-1
 10
323.67
 20
102.67
 11
323.77
 21
102.66
  0
LINE
  8
L-1-1
 10
323.62
 20
102.67
 11
323.67
 21
102.67
  0
LINE
  8
L-1-1
 10
323.99
 20
102.12
 11
324.00
 21
102.16
  0
LINE
  8
L-1-1
 10
324.00
 20
102.16
 11
324.00
 21
102.20
  0
LINE
  8
L-1-1
 10
324.00
 20
102.20
 11
324.00
 21
102.24
  0
LINE
  8
L-1-1
 10
324.00
 20
102.24
 11
323.98
 21
102.28
  0
LINE
  8
L-1-1
 10
323.98
 20
102.28
 11
323.95
 21
102.32
  0
LINE
  8
L-1-1
 10
323.92
 20
102.35
 11
323.95
 21
102.32
  0
LINE
  8
L-1-1
 10
323.88
 20
102.38
 11
323.92
 21
102.35
  0
LINE
  8
L-1-1
 10
323.83
 20
102.40
 11
323.88
 21
102.38
  0
LINE
  8
L-1-1
 10
323.78
 20
102.42
 11
323.83
 21
102.40
  0
LINE
  8
L-1-1
 10
323.72
 20
102.42
 11
323.78
 21
102.42
  0
LINE
  8
L-1-1
 10
323.66
 20
102.43
 11
323.72
 21
102.42
  0
LINE
  8
L-1-1
 10
323.62
 20
102.42
 11
323.66
 21
102.43
  0
LINE
  8
L-1-1
 10
323.90
 20
100.29
 11
323.99
 21
100.25
  0
LINE
  8
L-1-1
 10
323.81
 20
100.32
 11
323.90
 21
100.29
  0
LINE
  8
L-1-1
 10
323.71
 20
100.33
 11
323.81
 21
100.32
  0
LINE
  8
L-1-1
 10
323.61
 20
100.33
 11
323.71
 21
100.33
  0
LINE
  8
L-1-1
 10
323.57
 20
100.33
 11
323.61
 21
100.33
  0
LINE
  8
L-1-1
 10
323.62
 20
99.86
 11
323.72
 21
99.86
  0
LINE
  8
L-1-1
 10
323.72
 20
99.86
 11
323.82
 21
99.87
  0
LINE
  8
L-1-1
 10
323.82
 20
99.87
 11
323.91
 21
99.90
  0
LINE
  8
L-1-1
 10
323.91
 20
99.90
 11
323.99
 21
99.93
  0
ARC
  8
L-1-1
 10
314.79
 20
112.75
 40
0.06
 50
115.32
 51
244.26
  0
ARC
  8
L-1-1
 10
314.80
 20
112.43
 40
0.06
 50
115.74
 51
244.26
  0
ARC
  8
L-1-1
 10
314.92
 20
112.59
 40
0.19
 50
145.50
 51
214.50
  0
ARC
  8
L-1-1
 10
314.59
 20
112.75
 40
0.06
 50
115.32
 51
244.26
  0
ARC
  8
L-1-1
 10
314.60
 20
112.43
 40
0.06
 50
115.74
 51
244.26
  0
ARC
  8
L-1-1
 10
314.72
 20
112.59
 40
0.19
 50
145.50
 51
214.50
  0
ARC
  8
L-1-1
 10
314.79
 20
112.28
 40
0.06
 50
115.32
 51
244.26
  0
ARC
  8
L-1-1
 10
314.80
 20
111.96
 40
0.06
 50
115.74
 51
244.26
  0
ARC
  8
L-1-1
 10
314.92
 20
112.12
 40
0.19
 50
145.50
 51
214.50
  0
ARC
  8
L-1-1
 10
314.59
 20
112.28
 40
0.06
 50
115.32
 51
244.26
  0
ARC
  8
L-1-1
 10
314.60
 20
111.96
 40
0.06
 50
115.74
 51
244.26
  0
ARC
  8
L-1-1
 10
314.72
 20
112.12
 40
0.19
 50
145.50
 51
214.50
  0
ARC
  8
L-1-1
 10
314.79
 20
110.80
 40
0.06
 50
115.73
 51
244.68
  0
ARC
  8
L-1-1
 10
314.80
 20
111.12
 40
0.06
 50
115.73
 51
244.26
  0
ARC
  8
L-1-1
 10
314.92
 20
110.96
 40
0.19
 50
145.50
 51
214.50
  0
ARC
  8
L-1-1
 10
314.59
 20
110.80
 40
0.06
 50
115.73
 51
244.68
  0
ARC
  8
L-1-1
 10
314.60
 20
111.12
 40
0.06
 50
115.73
 51
244.26
  0
ARC
  8
L-1-1
 10
314.72
 20
110.96
 40
0.19
 50
145.50
 51
214.50
  0
ARC
  8
L-1-1
 10
314.79
 20
111.27
 40
0.06
 50
115.73
 51
244.68
  0
ARC
  8
L-1-1
 10
314.80
 20
111.59
 40
0.06
 50
115.73
 51
244.26
  0
ARC
  8
L-1-1
 10
314.92
 20
111.43
 40
0.19
 50
145.50
 51
214.50
  0
ARC
  8
L-1-1
 10
314.59
 20
111.27
 40
0.06
 50
115.73
 51
244.68
  0
ARC
  8
L-1-1
 10
314.60
 20
111.59
 40
0.06
 50
115.73
 51
244.26
  0
ARC
  8
L-1-1
 10
314.72
 20
111.43
 40
0.19
 50
145.50
 51
214.50
  0
LINE
  8
L-1-1
 10
323.62
 20
110.61
 11
323.72
 21
110.61
  0
LINE
  8
L-1-1
 10
323.72
 20
110.61
 11
323.82
 21
110.62
  0
LINE
  8
L-1-1
 10
323.82
 20
110.62
 11
323.91
 21
110.65
  0
LINE
  8
L-1-1
 10
323.91
 20
110.65
 11
324.00
 21
110.69
  0
LINE
  8
L-1-1
 10
324.00
 20
110.69
 11
324.07
 21
110.74
  0
LINE
  8
L-1-1
 10
324.07
 20
110.74
 11
324.14
 21
110.81
  0
LINE
  8
L-1-1
 10
324.14
 20
110.81
 11
324.19
 21
110.88
  0
LINE
  8
L-1-1
 10
324.19
 20
110.88
 11
324.22
 21
110.95
  0
LINE
  8
L-1-1
 10
324.22
 20
110.95
 11
324.24
 21
111.04
  0
LINE
  8
L-1-1
 10
324.24
 20
111.04
 11
324.24
 21
111.12
  0
LINE
  8
L-1-1
 10
324.24
 20
111.12
 11
324.22
 21
111.20
  0
LINE
  8
L-1-1
 10
324.22
 20
111.20
 11
324.19
 21
111.28
  0
LINE
  8
L-1-1
 10
324.19
 20
111.28
 11
324.14
 21
111.35
  0
LINE
  8
L-1-1
 10
324.08
 20
111.41
 11
324.14
 21
111.35
  0
LINE
  8
L-1-1
 10
324.00
 20
111.47
 11
324.08
 21
111.41
  0
LINE
  8
L-1-1
 10
323.91
 20
111.51
 11
324.00
 21
111.47
  0
LINE
  8
L-1-1
 10
323.82
 20
111.54
 11
323.91
 21
111.51
  0
LINE
  8
L-1-1
 10
323.72
 20
111.55
 11
323.82
 21
111.54
  0
LINE
  8
L-1-1
 10
323.62
 20
111.55
 11
323.72
 21
111.55
  0
LINE
  8
L-1-1
 10
323.57
 20
111.55
 11
323.62
 21
111.55
  0
LINE
  8
L-1-1
 10
323.62
 20
110.85
 11
323.68
 21
110.84
  0
LINE
  8
L-1-1
 10
323.68
 20
110.84
 11
323.73
 21
110.85
  0
LINE
  8
L-1-1
 10
323.73
 20
110.85
 11
323.79
 21
110.86
  0
LINE
  8
L-1-1
 10
323.79
 20
110.86
 11
323.84
 21
110.88
  0
LINE
  8
L-1-1
 10
323.84
 20
110.88
 11
323.89
 21
110.90
  0
LINE
  8
L-1-1
 10
323.89
 20
110.90
 11
323.93
 21
110.93
  0
LINE
  8
L-1-1
 10
323.93
 20
110.93
 11
323.96
 21
110.97
  0
LINE
  8
L-1-1
 10
323.96
 20
110.97
 11
323.99
 21
111.00
  0
LINE
  8
L-1-1
 10
323.99
 20
111.00
 11
324.00
 21
111.04
  0
LINE
  8
L-1-1
 10
324.00
 20
111.04
 11
324.00
 21
111.08
  0
LINE
  8
L-1-1
 10
324.00
 20
111.08
 11
324.00
 21
111.12
  0
LINE
  8
L-1-1
 10
324.00
 20
111.12
 11
323.98
 21
111.16
  0
LINE
  8
L-1-1
 10
323.98
 20
111.16
 11
323.96
 21
111.20
  0
LINE
  8
L-1-1
 10
323.92
 20
111.23
 11
323.96
 21
111.20
  0
LINE
  8
L-1-1
 10
323.88
 20
111.26
 11
323.92
 21
111.23
  0
LINE
  8
L-1-1
 10
323.83
 20
111.29
 11
323.88
 21
111.26
  0
LINE
  8
L-1-1
 10
323.78
 20
111.30
 11
323.83
 21
111.29
  0
LINE
  8
L-1-1
 10
323.72
 20
111.31
 11
323.78
 21
111.30
  0
LINE
  8
L-1-1
 10
323.66
 20
111.31
 11
323.72
 21
111.31
  0
LINE
  8
L-1-1
 10
323.62
 20
111.31
 11
323.66
 21
111.31
  0
LINE
  8
L-1-1
 10
323.68
 20
112.70
 11
323.73
 21
112.71
  0
LINE
  8
L-1-1
 10
323.73
 20
112.71
 11
323.79
 21
112.72
  0
LINE
  8
L-1-1
 10
323.79
 20
112.72
 11
323.84
 21
112.74
  0
LINE
  8
L-1-1
 10
323.84
 20
112.74
 11
323.89
 21
112.76
  0
LINE
  8
L-1-1
 10
323.89
 20
112.76
 11
323.93
 21
112.79
  0
LINE
  8
L-1-1
 10
323.93
 20
112.79
 11
323.96
 21
112.83
  0
LINE
  8
L-1-1
 10
323.96
 20
112.83
 11
323.98
 21
112.86
  0
LINE
  8
L-1-1
 10
323.98
 20
112.86
 11
324.00
 21
112.90
  0
LINE
  8
L-1-1
 10
324.00
 20
112.90
 11
324.00
 21
112.94
  0
LINE
  8
L-1-1
 10
324.00
 20
112.94
 11
324.00
 21
112.99
  0
LINE
  8
L-1-1
 10
324.00
 20
112.99
 11
323.98
 21
113.02
  0
LINE
  8
L-1-1
 10
323.98
 20
113.02
 11
323.96
 21
113.06
  0
LINE
  8
L-1-1
 10
323.92
 20
113.09
 11
323.96
 21
113.06
  0
LINE
  8
L-1-1
 10
323.88
 20
113.12
 11
323.92
 21
113.09
  0
LINE
  8
L-1-1
 10
323.83
 20
113.15
 11
323.88
 21
113.12
  0
LINE
  8
L-1-1
 10
323.78
 20
113.16
 11
323.83
 21
113.15
  0
LINE
  8
L-1-1
 10
323.72
 20
113.17
 11
323.78
 21
113.16
  0
LINE
  8
L-1-1
 10
323.66
 20
113.18
 11
323.72
 21
113.17
  0
LINE
  8
L-1-1
 10
323.62
 20
113.17
 11
323.66
 21
113.18
  0
LINE
  8
L-1-1
 10
323.95
 20
112.53
 11
324.04
 21
112.57
  0
LINE
  8
L-1-1
 10
324.04
 20
112.57
 11
324.11
 21
112.63
  0
LINE
  8
L-1-1
 10
324.11
 20
112.63
 11
324.17
 21
112.70
  0
LINE
  8
L-1-1
 10
324.17
 20
112.70
 11
324.21
 21
112.78
  0
LINE
  8
L-1-1
 10
324.21
 20
112.78
 11
324.23
 21
112.86
  0
LINE
  8
L-1-1
 10
324.23
 20
112.86
 11
324.24
 21
112.94
  0
LINE
  8
L-1-1
 10
324.24
 20
112.94
 11
324.23
 21
113.02
  0
LINE
  8
L-1-1
 10
324.23
 20
113.02
 11
324.21
 21
113.10
  0
LINE
  8
L-1-1
 10
324.21
 20
113.10
 11
324.17
 21
113.18
  0
LINE
  8
L-1-1
 10
324.17
 20
113.18
 11
324.11
 21
113.24
  0
LINE
  8
L-1-1
 10
324.04
 20
113.30
 11
324.11
 21
113.24
  0
LINE
  8
L-1-1
 10
323.96
 20
113.35
 11
324.04
 21
113.30
  0
LINE
  8
L-1-1
 10
323.87
 20
113.39
 11
323.96
 21
113.35
  0
LINE
  8
L-1-1
 10
323.77
 20
113.41
 11
323.87
 21
113.39
  0
LINE
  8
L-1-1
 10
323.67
 20
113.42
 11
323.77
 21
113.41
  0
LINE
  8
L-1-1
 10
323.62
 20
113.41
 11
323.67
 21
113.42
  0
LINE
  8
L-1-1
 10
323.57
 20
112.00
 11
323.67
 21
111.99
  0
LINE
  8
L-1-1
 10
323.67
 20
111.99
 11
323.76
 21
112.00
  0
LINE
  8
L-1-1
 10
323.76
 20
112.00
 11
323.86
 21
112.02
  0
LINE
  8
L-1-1
 10
323.86
 20
112.02
 11
323.95
 21
112.05
  0
LINE
  8
L-1-1
 10
323.95
 20
112.05
 11
324.03
 21
112.10
  0
LINE
  8
L-1-1
 10
324.03
 20
112.10
 11
324.11
 21
112.16
  0
LINE
  8
L-1-1
 10
324.11
 20
112.16
 11
324.16
 21
112.23
  0
LINE
  8
L-1-1
 10
324.16
 20
112.23
 11
324.21
 21
112.30
  0
LINE
  8
L-1-1
 10
324.21
 20
112.30
 11
324.23
 21
112.38
  0
LINE
  8
L-1-1
 10
324.23
 20
112.38
 11
324.24
 21
112.46
  0
LINE
  8
L-1-1
 10
324.24
 20
112.46
 11
324.24
 21
112.55
  0
LINE
  8
L-1-1
 10
324.24
 20
112.55
 11
324.21
 21
112.63
  0
LINE
  8
L-1-1
 10
324.21
 20
112.63
 11
324.17
 21
112.70
  0
LINE
  8
L-1-1
 10
324.17
 20
112.70
 11
324.17
 21
112.70
  0
LINE
  8
L-1-1
 10
323.62
 20
112.24
 11
323.68
 21
112.23
  0
LINE
  8
L-1-1
 10
323.68
 20
112.23
 11
323.73
 21
112.24
  0
LINE
  8
L-1-1
 10
323.73
 20
112.24
 11
323.79
 21
112.25
  0
LINE
  8
L-1-1
 10
323.79
 20
112.25
 11
323.84
 21
112.27
  0
LINE
  8
L-1-1
 10
323.84
 20
112.27
 11
323.89
 21
112.29
  0
LINE
  8
L-1-1
 10
323.89
 20
112.29
 11
323.93
 21
112.32
  0
LINE
  8
L-1-1
 10
323.93
 20
112.32
 11
323.96
 21
112.35
  0
LINE
  8
L-1-1
 10
323.96
 20
112.35
 11
323.99
 21
112.39
  0
LINE
  8
L-1-1
 10
323.99
 20
112.39
 11
324.00
 21
112.43
  0
LINE
  8
L-1-1
 10
324.00
 20
112.43
 11
324.00
 21
112.47
  0
LINE
  8
L-1-1
 10
324.00
 20
112.47
 11
324.00
 21
112.51
  0
LINE
  8
L-1-1
 10
324.00
 20
112.51
 11
323.99
 21
112.54
  0
LINE
  8
L-1-1
 10
323.90
 20
111.04
 11
323.99
 21
111.00
  0
LINE
  8
L-1-1
 10
323.80
 20
111.07
 11
323.90
 21
111.04
  0
LINE
  8
L-1-1
 10
323.70
 20
111.08
 11
323.80
 21
111.07
  0
LINE
  8
L-1-1
 10
323.60
 20
111.08
 11
323.70
 21
111.08
  0
LINE
  8
L-1-1
 10
323.57
 20
111.08
 11
323.60
 21
111.08
  0
LINE
  8
L-1-1
 10
323.62
 20
110.13
 11
323.72
 21
110.13
  0
LINE
  8
L-1-1
 10
323.72
 20
110.13
 11
323.82
 21
110.15
  0
LINE
  8
L-1-1
 10
323.82
 20
110.15
 11
323.91
 21
110.18
  0
LINE
  8
L-1-1
 10
323.91
 20
110.18
 11
324.00
 21
110.22
  0
LINE
  8
L-1-1
 10
324.00
 20
110.22
 11
324.07
 21
110.27
  0
LINE
  8
L-1-1
 10
324.07
 20
110.27
 11
324.14
 21
110.33
  0
LINE
  8
L-1-1
 10
324.14
 20
110.33
 11
324.19
 21
110.41
  0
LINE
  8
L-1-1
 10
324.19
 20
110.41
 11
324.22
 21
110.48
  0
LINE
  8
L-1-1
 10
324.22
 20
110.48
 11
324.24
 21
110.56
  0
LINE
  8
L-1-1
 10
324.24
 20
110.56
 11
324.24
 21
110.65
  0
LINE
  8
L-1-1
 10
324.24
 20
110.65
 11
324.22
 21
110.73
  0
LINE
  8
L-1-1
 10
324.22
 20
110.73
 11
324.19
 21
110.81
  0
LINE
  8
L-1-1
 10
324.19
 20
110.81
 11
324.17
 21
110.84
  0
LINE
  8
L-1-1
 10
323.62
 20
110.37
 11
323.68
 21
110.37
  0
LINE
  8
L-1-1
 10
323.68
 20
110.37
 11
323.73
 21
110.38
  0
LINE
  8
L-1-1
 10
323.73
 20
110.38
 11
323.79
 21
110.39
  0
LINE
  8
L-1-1
 10
323.79
 20
110.39
 11
323.84
 21
110.41
  0
LINE
  8
L-1-1
 10
323.84
 20
110.41
 11
323.89
 21
110.43
  0
LINE
  8
L-1-1
 10
323.89
 20
110.43
 11
323.93
 21
110.46
  0
LINE
  8
L-1-1
 10
323.93
 20
110.46
 11
323.96
 21
110.49
  0
LINE
  8
L-1-1
 10
323.96
 20
110.49
 11
323.99
 21
110.53
  0
LINE
  8
L-1-1
 10
323.99
 20
110.53
 11
324.00
 21
110.57
  0
LINE
  8
L-1-1
 10
324.00
 20
110.57
 11
324.00
 21
110.61
  0
LINE
  8
L-1-1
 10
324.00
 20
110.61
 11
324.00
 21
110.65
  0
LINE
  8
L-1-1
 10
324.00
 20
110.65
 11
323.99
 21
110.68
  0
LINE
  8
L-1-1
 10
323.57
 20
112.47
 11
323.67
 21
112.46
  0
LINE
  8
L-1-1
 10
323.67
 20
112.46
 11
323.76
 21
112.47
  0
LINE
  8
L-1-1
 10
323.76
 20
112.47
 11
323.86
 21
112.49
  0
LINE
  8
L-1-1
 10
323.86
 20
112.49
 11
323.95
 21
112.53
  0
LINE
  8
L-1-1
 10
323.95
 20
112.53
 11
323.99
 21
112.55
  0
LINE
  8
L-1-1
 10
323.90
 20
112.90
 11
323.99
 21
112.87
  0
LINE
  8
L-1-1
 10
323.80
 20
112.93
 11
323.90
 21
112.90
  0
LINE
  8
L-1-1
 10
323.70
 20
112.94
 11
323.80
 21
112.93
  0
LINE
  8
L-1-1
 10
323.62
 20
112.94
 11
323.70
 21
112.94
  0
CIRCLE
  8
L-1-1
 10
329.12
 20
91.72
 40
0.36
  0
CIRCLE
  8
L-1-1
 10
330.53
 20
90.30
 40
0.36
  0
CIRCLE
  8
L-1-1
 10
325.65
 20
88.25
 40
0.36
  0
CIRCLE
  8
L-1-1
 10
327.07
 20
86.84
 40
0.36
  0
CIRCLE
  8
L-1-1
 10
341.92
 20
65.63
 40
0.27
  0
CIRCLE
  8
L-1-1
 10
339.63
 20
66.76
 40
0.27
  0
CIRCLE
  8
L-1-1
 10
336.69
 20
70.86
 40
0.27
  0
CIRCLE
  8
L-1-1
 10
337.82
 20
68.57
 40
0.27
  0
CIRCLE
  8
L-1-1
 10
351.74
 20
75.45
 40
0.27
  0
CIRCLE
  8
L-1-1
 10
350.61
 20
77.74
 40
0.27
  0
CIRCLE
  8
L-1-1
 10
346.51
 20
80.68
 40
0.27
  0
CIRCLE
  8
L-1-1
 10
348.80
 20
79.55
 40
0.27
  0
CIRCLE
  8
L-1-1
 10
341.93
 20
80.69
 40
0.27
  0
CIRCLE
  8
L-1-1
 10
339.64
 20
79.56
 40
0.27
  0
CIRCLE
  8
L-1-1
 10
336.69
 20
75.46
 40
0.27
  0
CIRCLE
  8
L-1-1
 10
337.83
 20
77.75
 40
0.27
  0
CIRCLE
  8
L-1-1
 10
341.92
 20
65.63
 40
0.27
  0
CIRCLE
  8
L-1-1
 10
351.74
 20
75.45
 40
0.27
  0
CIRCLE
  8
L-1-1
 10
351.75
 20
70.87
 40
0.27
  0
CIRCLE
  8
L-1-1
 10
350.62
 20
68.58
 40
0.27
  0
CIRCLE
  8
L-1-1
 10
346.52
 20
65.63
 40
0.27
  0
CIRCLE
  8
L-1-1
 10
348.81
 20
66.77
 40
0.27
  0
CIRCLE
  8
L-1-1
 10
344.24
 20
73.15
 40
6.00
  0
CIRCLE
  8
L-1-1
 10
341.92
 20
80.68
 40
0.27
  0
CIRCLE
  8
L-1-1
 10
339.63
 20
79.55
 40
0.27
  0
CIRCLE
  8
L-1-1
 10
336.69
 20
75.45
 40
0.27
  0
CIRCLE
  8
L-1-1
 10
337.82
 20
77.74
 40
0.27
  0
CIRCLE
  8
L-1-1
 10
341.92
 20
80.68
 40
0.27
  0
CIRCLE
  8
L-1-1
 10
351.74
 20
75.45
 40
0.27
  0
CIRCLE
  8
L-1-1
 10
350.61
 20
77.74
 40
0.27
  0
CIRCLE
  8
L-1-1
 10
346.51
 20
80.68
 40
0.27
  0
CIRCLE
  8
L-1-1
 10
348.80
 20
79.55
 40
0.27
  0
CIRCLE
  8
L-1-1
 10
351.74
 20
75.45
 40
0.27
  0
CIRCLE
  8
L-1-1
 10
362.78
 20
58.06
 40
0.36
  0
CIRCLE
  8
L-1-1
 10
361.36
 20
59.47
 40
0.36
  0
CIRCLE
  8
L-1-1
 10
359.31
 20
54.59
 40
0.36
  0
CIRCLE
  8
L-1-1
 10
357.90
 20
56.01
 40
0.36
  0
CIRCLE
  8
L-1-1
 10
362.78
 20
88.25
 40
0.36
  0
CIRCLE
  8
L-1-1
 10
361.36
 20
86.84
 40
0.36
  0
CIRCLE
  8
L-1-1
 10
359.31
 20
91.72
 40
0.36
  0
CIRCLE
  8
L-1-1
 10
357.90
 20
90.30
 40
0.36
  0
CIRCLE
  8
L-1-1
 10
329.12
 20
54.59
 40
0.36
  0
CIRCLE
  8
L-1-1
 10
330.53
 20
56.01
 40
0.36
  0
CIRCLE
  8
L-1-1
 10
325.65
 20
58.06
 40
0.36
  0
CIRCLE
  8
L-1-1
 10
327.07
 20
59.47
 40
0.36
  0
ARC
  8
L-1-1
 10
362.07
 20
104.86
 40
1.00
 50
245.46
 51
98.92
  0
ARC
  8
L-1-1
 10
362.07
 20
104.86
 40
1.72
 50
256.03
 51
97.85
  0
ARC
  8
L-1-1
 10
336.97
 20
106.87
 40
0.20
 50
270.00
 51
0.00
  0
ARC
  8
L-1-1
 10
346.61
 20
106.87
 40
0.20
 50
180.00
 51
270.00
  0
ARC
  8
L-1-1
 10
337.29
 20
108.91
 40
0.12
 50
180.00
 51
270.00
  0
ARC
  8
L-1-1
 10
337.29
 20
108.43
 40
0.12
 50
90.00
 51
180.00
  0
ARC
  8
L-1-1
 10
346.29
 20
108.43
 40
0.12
 50
0.00
 51
90.00
  0
ARC
  8
L-1-1
 10
346.29
 20
108.91
 40
0.12
 50
270.00
 51
0.00
  0
ARC
  8
L-1-1
 10
335.43
 20
105.74
 40
0.18
 50
115.73
 51
244.68
  0
ARC
  8
L-1-1
 10
335.43
 20
106.70
 40
0.18
 50
115.73
 51
244.26
  0
ARC
  8
L-1-1
 10
335.82
 20
106.22
 40
0.57
 50
145.50
 51
214.50
  0
ARC
  8
L-1-1
 10
334.83
 20
105.74
 40
0.18
 50
115.73
 51
244.68
  0
ARC
  8
L-1-1
 10
334.83
 20
106.70
 40
0.18
 50
115.73
 51
244.26
  0
ARC
  8
L-1-1
 10
335.22
 20
106.22
 40
0.57
 50
145.50
 51
214.50
  0
ARC
  8
L-1-1
 10
362.07
 20
112.48
 40
1.00
 50
261.08
 51
114.54
  0
ARC
  8
L-1-1
 10
362.07
 20
112.48
 40
1.72
 50
262.15
 51
103.97
  0
ARC
  8
L-1-1
 10
336.97
 20
110.47
 40
0.20
 50
0.00
 51
90.00
  0
ARC
  8
L-1-1
 10
346.61
 20
110.47
 40
0.20
 50
90.00
 51
180.00
  0
ARC
  8
L-1-1
 10
335.43
 20
111.60
 40
0.18
 50
115.32
 51
244.26
  0
ARC
  8
L-1-1
 10
335.43
 20
110.64
 40
0.18
 50
115.74
 51
244.26
  0
ARC
  8
L-1-1
 10
335.82
 20
111.12
 40
0.57
 50
145.50
 51
214.50
  0
ARC
  8
L-1-1
 10
334.83
 20
111.60
 40
0.18
 50
115.32
 51
244.26
  0
ARC
  8
L-1-1
 10
334.83
 20
110.64
 40
0.18
 50
115.74
 51
244.26
  0
ARC
  8
L-1-1
 10
335.22
 20
111.12
 40
0.57
 50
145.50
 51
214.50
  0
CIRCLE
  8
L-1-1
 10
19.17
 20
115.73
 40
0.36
  0
CIRCLE
  8
L-1-1
 10
23.92
 20
115.73
 40
0.36
  0
CIRCLE
  8
L-1-1
 10
33.17
 20
115.73
 40
0.36
  0
CIRCLE
  8
L-1-1
 10
23.92
 20
72.70
 40
0.36
  0
CIRCLE
  8
L-1-1
 10
30.01
 20
72.70
 40
0.36
  0
CIRCLE
  8
L-1-1
 10
17.64
 20
72.70
 40
0.36
  0
CIRCLE
  8
L-1-1
 10
33.17
 20
72.70
 40
0.36
  0
CIRCLE
  8
L-1-1
 10
38.23
 20
112.07
 40
0.36
  0
CIRCLE
  8
L-1-1
 10
38.23
 20
106.40
 40
0.36
  0
CIRCLE
  8
L-1-1
 10
38.23
 20
94.79
 40
0.36
  0
CIRCLE
  8
L-1-1
 10
38.23
 20
79.46
 40
0.36
  0
CIRCLE
  8
L-1-1
 10
197.50
 20
69.10
 40
0.36
  0
CIRCLE
  8
L-1-1
 10
192.36
 20
69.10
 40
0.36
  0
CIRCLE
  8
L-1-1
 10
156.36
 20
69.10
 40
0.36
  0
CIRCLE
  8
L-1-1
 10
275.90
 20
114.43
 40
0.36
  0
CIRCLE
  8
L-1-1
 10
315.10
 20
114.43
 40
0.36
  0
CIRCLE
  8
L-1-1
 10
131.71
 20
89.07
 40
0.36
  0
CIRCLE
  8
L-1-1
 10
131.71
 20
106.40
 40
0.36
  0
CIRCLE
  8
L-1-1
 10
232.22
 20
106.40
 40
0.36
  0
CIRCLE
  8
L-1-1
 10
232.22
 20
239.73
 40
0.36
  0
CIRCLE
  8
L-1-1
 10
315.10
 20
69.10
 40
0.36
  0
CIRCLE
  8
L-1-1
 10
318.58
 20
69.10
 40
0.36
  0
CIRCLE
  8
L-1-1
 10
322.18
 20
61.53
 40
0.36
  0
CIRCLE
  8
L-1-1
 10
323.60
 20
62.95
 40
0.36
  0
CIRCLE
  8
L-1-1
 10
354.43
 20
93.78
 40
0.36
  0
CIRCLE
  8
L-1-1
 10
355.84
 20
95.19
 40
0.36
  0
CIRCLE
  8
L-1-1
 10
365.16
 20
90.64
 40
0.36
  0
CIRCLE
  8
L-1-1
 10
361.70
 20
94.10
 40
0.36
  0
CIRCLE
  8
L-1-1
 10
356.87
 20
50.46
 40
0.36
  0
CIRCLE
  8
L-1-1
 10
321.52
 20
85.82
 40
0.36
  0
CIRCLE
  8
L-1-1
 10
363.79
 20
123.44
 40
0.36
  0
CIRCLE
  8
L-1-1
 10
346.79
 20
123.44
 40
0.36
  0
CIRCLE
  8
L-1-1
 10
334.09
 20
123.44
 40
0.36
  0
CIRCLE
  8
L-1-1
 10
334.09
 20
114.85
 40
0.36
  0
CIRCLE
  8
L-1-1
 10
337.09
 20
114.85
 40
0.36
  0
CIRCLE
  8
L-1-1
 10
323.59
 20
90.95
 40
0.36
  0
CIRCLE
  8
L-1-1
 10
326.42
 20
93.78
 40
0.36
  0
CIRCLE
  8
L-1-1
 10
334.09
 20
128.06
 40
0.36
  0
CIRCLE
  8
L-1-1
 10
363.79
 20
128.06
 40
0.36
  0
LINE
  8
L-1-1
 10
21.42
 20
153.32
 11
22.30
 21
153.32
  0
LINE
  8
L-1-1
 10
21.42
 20
153.23
 11
21.42
 21
153.32
  0
LINE
  8
L-1-1
 10
22.30
 20
153.23
 11
22.30
 21
153.32
  0
LINE
  8
L-1-1
 10
21.42
 20
153.23
 11
22.30
 21
153.23
  0
LINE
  8
L-1-1
 10
23.48
 20
153.32
 11
24.36
 21
153.32
  0
LINE
  8
L-1-1
 10
23.48
 20
153.23
 11
23.48
 21
153.32
  0
LINE
  8
L-1-1
 10
24.36
 20
153.23
 11
24.36
 21
153.32
  0
LINE
  8
L-1-1
 10
23.48
 20
153.23
 11
24.36
 21
153.23
  0
LINE
  8
L-1-1
 10
21.64
 20
114.89
 11
21.64
 21
153.23
  0
LINE
  8
L-1-1
 10
22.09
 20
114.89
 11
22.09
 21
153.23
  0
LINE
  8
L-1-1
 10
23.66
 20
114.89
 11
23.66
 21
153.23
  0
LINE
  8
L-1-1
 10
24.18
 20
114.89
 11
24.18
 21
153.23
  0
LINE
  8
L-1-1
 10
21.42
 20
114.80
 11
22.30
 21
114.80
  0
LINE
  8
L-1-1
 10
21.42
 20
114.80
 11
21.42
 21
114.89
  0
LINE
  8
L-1-1
 10
22.30
 20
114.80
 11
22.30
 21
114.89
  0
LINE
  8
L-1-1
 10
21.42
 20
114.89
 11
22.30
 21
114.89
  0
LINE
  8
L-1-1
 10
23.48
 20
114.80
 11
24.36
 21
114.80
  0
LINE
  8
L-1-1
 10
23.48
 20
114.80
 11
23.48
 21
114.89
  0
LINE
  8
L-1-1
 10
24.36
 20
114.80
 11
24.36
 21
114.89
  0
LINE
  8
L-1-1
 10
23.48
 20
114.89
 11
24.36
 21
114.89
  0
LINE
  8
L-1-1
 10
22.09
 20
115.34
 11
23.66
 21
115.34
  0
LINE
  8
L-1-1
 10
22.09
 20
115.54
 11
23.66
 21
115.54
  0
LINE
  8
L-1-1
 10
22.09
 20
152.64
 11
23.66
 21
152.64
  0
LINE
  8
L-1-1
 10
22.09
 20
152.44
 11
23.66
 21
152.44
  0
LINE
  8
L-1-1
 10
22.09
 20
122.96
 11
23.66
 21
122.96
  0
LINE
  8
L-1-1
 10
22.09
 20
130.18
 11
23.66
 21
130.18
  0
LINE
  8
L-1-1
 10
22.09
 20
130.38
 11
23.66
 21
130.38
  0
LINE
  8
L-1-1
 10
22.09
 20
137.60
 11
23.66
 21
137.60
  0
LINE
  8
L-1-1
 10
22.09
 20
137.80
 11
23.66
 21
137.80
  0
LINE
  8
L-1-1
 10
22.09
 20
145.02
 11
23.66
 21
145.02
  0
LINE
  8
L-1-1
 10
22.09
 20
145.22
 11
23.66
 21
145.22
  0
LINE
  8
L-1-1
 10
22.09
 20
119.74
 11
23.66
 21
122.76
  0
LINE
  8
L-1-1
 10
22.09
 20
119.31
 11
23.66
 21
122.33
  0
LINE
  8
L-1-1
 10
23.66
 20
115.54
 11
22.09
 21
118.57
  0
LINE
  8
L-1-1
 10
23.66
 20
115.98
 11
22.09
 21
119.00
  0
LINE
  8
L-1-1
 10
22.09
 20
122.76
 11
23.66
 21
122.76
  0
LINE
  8
L-1-1
 10
23.66
 20
115.98
 11
22.09
 21
119.00
  0
LINE
  8
L-1-1
 10
22.09
 20
127.16
 11
23.66
 21
130.18
  0
LINE
  8
L-1-1
 10
22.09
 20
126.73
 11
23.66
 21
129.75
  0
LINE
  8
L-1-1
 10
23.66
 20
122.96
 11
22.09
 21
125.98
  0
LINE
  8
L-1-1
 10
23.66
 20
123.40
 11
22.09
 21
126.42
  0
LINE
  8
L-1-1
 10
23.66
 20
123.40
 11
22.09
 21
126.42
  0
LINE
  8
L-1-1
 10
22.09
 20
134.58
 11
23.66
 21
137.60
  0
LINE
  8
L-1-1
 10
22.09
 20
134.15
 11
23.66
 21
137.17
  0
LINE
  8
L-1-1
 10
23.66
 20
130.38
 11
22.09
 21
133.40
  0
LINE
  8
L-1-1
 10
23.66
 20
130.82
 11
22.09
 21
133.84
  0
LINE
  8
L-1-1
 10
23.66
 20
130.82
 11
22.09
 21
133.84
  0
LINE
  8
L-1-1
 10
22.09
 20
142.00
 11
23.66
 21
145.02
  0
LINE
  8
L-1-1
 10
22.09
 20
141.57
 11
23.66
 21
144.59
  0
LINE
  8
L-1-1
 10
23.66
 20
137.80
 11
22.09
 21
140.82
  0
LINE
  8
L-1-1
 10
23.66
 20
138.23
 11
22.09
 21
141.25
  0
LINE
  8
L-1-1
 10
23.66
 20
138.23
 11
22.09
 21
141.25
  0
LINE
  8
L-1-1
 10
22.09
 20
149.42
 11
23.66
 21
152.44
  0
LINE
  8
L-1-1
 10
22.09
 20
148.99
 11
23.66
 21
152.01
  0
LINE
  8
L-1-1
 10
23.66
 20
145.22
 11
22.09
 21
148.24
  0
LINE
  8
L-1-1
 10
23.66
 20
145.65
 11
22.09
 21
148.67
  0
LINE
  8
L-1-1
 10
23.66
 20
145.65
 11
22.09
 21
148.67
  0
LINE
  8
L-1-1
 10
25.54
 20
153.32
 11
26.42
 21
153.32
  0
LINE
  8
L-1-1
 10
26.42
 20
153.23
 11
26.42
 21
153.32
  0
LINE
  8
L-1-1
 10
25.54
 20
153.23
 11
25.54
 21
153.32
  0
LINE
  8
L-1-1
 10
25.54
 20
153.23
 11
26.42
 21
153.23
  0
LINE
  8
L-1-1
 10
26.21
 20
114.89
 11
26.20
 21
153.23
  0
LINE
  8
L-1-1
 10
25.76
 20
114.89
 11
25.76
 21
153.23
  0
LINE
  8
L-1-1
 10
25.54
 20
114.80
 11
26.42
 21
114.80
  0
LINE
  8
L-1-1
 10
26.42
 20
114.80
 11
26.42
 21
114.89
  0
LINE
  8
L-1-1
 10
25.54
 20
114.80
 11
25.54
 21
114.89
  0
LINE
  8
L-1-1
 10
25.54
 20
114.89
 11
26.42
 21
114.89
  0
LINE
  8
L-1-1
 10
24.18
 20
115.34
 11
25.76
 21
115.34
  0
LINE
  8
L-1-1
 10
24.18
 20
115.54
 11
25.76
 21
115.54
  0
LINE
  8
L-1-1
 10
24.18
 20
152.64
 11
25.76
 21
152.64
  0
LINE
  8
L-1-1
 10
24.18
 20
152.44
 11
25.76
 21
152.44
  0
LINE
  8
L-1-1
 10
24.18
 20
122.96
 11
25.76
 21
122.96
  0
LINE
  8
L-1-1
 10
24.18
 20
130.18
 11
25.76
 21
130.18
  0
LINE
  8
L-1-1
 10
24.18
 20
130.38
 11
25.76
 21
130.38
  0
LINE
  8
L-1-1
 10
24.18
 20
137.60
 11
25.76
 21
137.60
  0
LINE
  8
L-1-1
 10
24.18
 20
137.80
 11
25.76
 21
137.80
  0
LINE
  8
L-1-1
 10
24.18
 20
145.02
 11
25.76
 21
145.02
  0
LINE
  8
L-1-1
 10
24.18
 20
145.22
 11
25.76
 21
145.22
  0
LINE
  8
L-1-1
 10
24.18
 20
119.74
 11
25.76
 21
122.76
  0
LINE
  8
L-1-1
 10
24.18
 20
119.31
 11
25.76
 21
122.33
  0
LINE
  8
L-1-1
 10
25.76
 20
115.54
 11
24.18
 21
118.57
  0
LINE
  8
L-1-1
 10
25.76
 20
115.98
 11
24.18
 21
119.00
  0
LINE
  8
L-1-1
 10
24.18
 20
122.76
 11
25.76
 21
122.76
  0
LINE
  8
L-1-1
 10
25.76
 20
115.98
 11
24.18
 21
119.00
  0
LINE
  8
L-1-1
 10
24.18
 20
127.16
 11
25.76
 21
130.18
  0
LINE
  8
L-1-1
 10
24.18
 20
126.73
 11
25.76
 21
129.75
  0
LINE
  8
L-1-1
 10
25.76
 20
122.96
 11
24.18
 21
125.98
  0
LINE
  8
L-1-1
 10
25.76
 20
123.40
 11
24.18
 21
126.42
  0
LINE
  8
L-1-1
 10
25.76
 20
123.40
 11
24.18
 21
126.42
  0
LINE
  8
L-1-1
 10
24.18
 20
134.58
 11
25.76
 21
137.60
  0
LINE
  8
L-1-1
 10
24.18
 20
134.15
 11
25.76
 21
137.17
  0
LINE
  8
L-1-1
 10
25.76
 20
130.38
 11
24.18
 21
133.40
  0
LINE
  8
L-1-1
 10
25.76
 20
130.82
 11
24.18
 21
133.84
  0
LINE
  8
L-1-1
 10
25.76
 20
130.82
 11
24.18
 21
133.84
  0
LINE
  8
L-1-1
 10
24.18
 20
142.00
 11
25.76
 21
145.02
  0
LINE
  8
L-1-1
 10
24.18
 20
141.57
 11
25.76
 21
144.59
  0
LINE
  8
L-1-1
 10
25.76
 20
137.80
 11
24.18
 21
140.82
  0
LINE
  8
L-1-1
 10
25.76
 20
138.23
 11
24.18
 21
141.25
  0
LINE
  8
L-1-1
 10
25.76
 20
138.23
 11
24.18
 21
141.25
  0
LINE
  8
L-1-1
 10
24.18
 20
149.42
 11
25.76
 21
152.44
  0
LINE
  8
L-1-1
 10
24.18
 20
148.99
 11
25.76
 21
152.01
  0
LINE
  8
L-1-1
 10
25.76
 20
145.22
 11
24.18
 21
148.24
  0
LINE
  8
L-1-1
 10
25.76
 20
145.65
 11
24.18
 21
148.67
  0
LINE
  8
L-1-1
 10
25.76
 20
145.65
 11
24.18
 21
148.67
  0
LINE
  8
L-1-1
 10
20.88
 20
95.41
 11
20.88
 21
96.23
  0
LINE
  8
L-1-1
 10
20.79
 20
95.41
 11
21.32
 21
95.41
  0
LINE
  8
L-1-1
 10
21.42
 20
114.71
 11
26.42
 21
114.71
  0
LINE
  8
L-3-1
 10
20.79
 20
95.82
 11
27.05
 21
95.82
  0
LINE
  8
L-1-1
 10
20.79
 20
96.23
 11
21.32
 21
96.23
  0
LINE
  8
L-3-1
 10
23.92
 20
95.82
 11
23.92
 21
115.17
  0
LINE
  8
L-1-1
 10
21.41
 20
112.77
 11
26.48
 21
112.77
  0
LINE
  8
L-1-1
 10
20.88
 20
96.23
 11
21.48
 21
114.71
  0
LINE
  8
L-1-1
 10
21.23
 20
96.23
 11
22.86
 21
112.77
  0
LINE
  8
L-1-1
 10
21.23
 20
95.41
 11
21.23
 21
96.23
  0
LINE
  8
L-1-1
 10
26.97
 20
96.23
 11
26.42
 21
114.71
  0
LINE
  8
L-1-1
 10
26.61
 20
96.23
 11
24.98
 21
112.77
  0
LINE
  8
L-1-1
 10
20.79
 20
95.41
 11
20.79
 21
96.23
  0
LINE
  8
L-1-1
 10
21.32
 20
95.41
 11
21.32
 21
96.23
  0
LINE
  8
L-1-1
 10
26.97
 20
95.41
 11
26.97
 21
96.23
  0
LINE
  8
L-1-1
 10
26.53
 20
95.41
 11
27.05
 21
95.41
  0
LINE
  8
L-1-1
 10
26.53
 20
96.23
 11
27.05
 21
96.23
  0
LINE
  8
L-1-1
 10
26.61
 20
95.41
 11
26.61
 21
96.23
  0
LINE
  8
L-1-1
 10
27.05
 20
95.41
 11
27.05
 21
96.23
  0
LINE
  8
L-1-1
 10
26.53
 20
95.41
 11
26.53
 21
96.23
  0
LINE
  8
L-1-1
 10
21.42
 20
114.80
 11
22.30
 21
114.80
  0
LINE
  8
L-1-1
 10
21.42
 20
114.71
 11
21.42
 21
114.80
  0
LINE
  8
L-1-1
 10
22.30
 20
114.71
 11
22.30
 21
114.80
  0
LINE
  8
L-1-1
 10
25.54
 20
114.80
 11
26.42
 21
114.80
  0
LINE
  8
L-1-1
 10
26.42
 20
114.71
 11
26.42
 21
114.80
  0
LINE
  8
L-1-1
 10
25.54
 20
114.71
 11
25.54
 21
114.80
  0
LINE
  8
L-1-1
 10
23.48
 20
114.80
 11
24.36
 21
114.80
  0
LINE
  8
L-1-1
 10
23.48
 20
114.71
 11
23.48
 21
114.80
  0
LINE
  8
L-1-1
 10
24.36
 20
114.71
 11
24.36
 21
114.80
  0
LINE
  8
L-1-1
 10
21.42
 20
153.32
 11
22.30
 21
153.32
  0
LINE
  8
L-1-1
 10
21.42
 20
153.32
 11
21.42
 21
153.40
  0
LINE
  8
L-1-1
 10
22.30
 20
153.32
 11
22.30
 21
153.40
  0
LINE
  8
L-1-1
 10
21.42
 20
153.40
 11
22.30
 21
153.40
  0
LINE
  8
L-1-1
 10
23.48
 20
153.32
 11
24.36
 21
153.32
  0
LINE
  8
L-1-1
 10
23.48
 20
153.32
 11
23.48
 21
153.40
  0
LINE
  8
L-1-1
 10
24.36
 20
153.32
 11
24.36
 21
153.40
  0
LINE
  8
L-1-1
 10
23.48
 20
153.40
 11
24.36
 21
153.40
  0
LINE
  8
L-1-1
 10
21.64
 20
153.40
 11
21.64
 21
191.87
  0
LINE
  8
L-1-1
 10
22.09
 20
153.40
 11
22.09
 21
191.87
  0
LINE
  8
L-1-1
 10
23.66
 20
153.40
 11
23.66
 21
191.87
  0
LINE
  8
L-1-1
 10
24.18
 20
153.40
 11
24.19
 21
191.87
  0
LINE
  8
L-1-1
 10
21.42
 20
191.96
 11
22.30
 21
191.96
  0
LINE
  8
L-1-1
 10
21.42
 20
191.87
 11
21.42
 21
191.96
  0
LINE
  8
L-1-1
 10
22.30
 20
191.87
 11
22.30
 21
191.96
  0
LINE
  8
L-1-1
 10
21.42
 20
191.87
 11
22.30
 21
191.87
  0
LINE
  8
L-1-1
 10
23.48
 20
191.96
 11
24.36
 21
191.96
  0
LINE
  8
L-1-1
 10
23.48
 20
191.87
 11
23.48
 21
191.96
  0
LINE
  8
L-1-1
 10
24.36
 20
191.87
 11
24.36
 21
191.96
  0
LINE
  8
L-1-1
 10
23.48
 20
191.87
 11
24.36
 21
191.87
  0
LINE
  8
L-1-1
 10
22.09
 20
191.29
 11
23.66
 21
191.29
  0
LINE
  8
L-1-1
 10
22.09
 20
191.09
 11
23.66
 21
191.09
  0
LINE
  8
L-1-1
 10
22.09
 20
153.99
 11
23.66
 21
153.99
  0
LINE
  8
L-1-1
 10
22.09
 20
154.19
 11
23.66
 21
154.19
  0
LINE
  8
L-1-1
 10
22.09
 20
183.67
 11
23.66
 21
183.67
  0
LINE
  8
L-1-1
 10
22.09
 20
176.45
 11
23.66
 21
176.45
  0
LINE
  8
L-1-1
 10
22.09
 20
176.25
 11
23.66
 21
176.25
  0
LINE
  8
L-1-1
 10
22.09
 20
169.03
 11
23.66
 21
169.03
  0
LINE
  8
L-1-1
 10
22.09
 20
168.83
 11
23.66
 21
168.83
  0
LINE
  8
L-1-1
 10
22.09
 20
161.61
 11
23.66
 21
161.61
  0
LINE
  8
L-1-1
 10
22.09
 20
161.41
 11
23.66
 21
161.41
  0
LINE
  8
L-1-1
 10
23.66
 20
183.87
 11
22.09
 21
186.89
  0
LINE
  8
L-1-1
 10
23.66
 20
184.30
 11
22.09
 21
187.32
  0
LINE
  8
L-1-1
 10
22.09
 20
188.07
 11
23.66
 21
191.09
  0
LINE
  8
L-1-1
 10
22.09
 20
187.63
 11
23.66
 21
190.65
  0
LINE
  8
L-1-1
 10
22.09
 20
183.87
 11
23.66
 21
183.87
  0
LINE
  8
L-1-1
 10
22.09
 20
187.63
 11
23.66
 21
190.65
  0
LINE
  8
L-1-1
 10
23.66
 20
176.45
 11
22.09
 21
179.47
  0
LINE
  8
L-1-1
 10
23.66
 20
176.88
 11
22.09
 21
179.90
  0
LINE
  8
L-1-1
 10
22.09
 20
180.65
 11
23.66
 21
183.67
  0
LINE
  8
L-1-1
 10
22.09
 20
180.21
 11
23.66
 21
183.23
  0
LINE
  8
L-1-1
 10
22.09
 20
180.21
 11
23.66
 21
183.23
  0
LINE
  8
L-1-1
 10
23.66
 20
169.03
 11
22.09
 21
172.05
  0
LINE
  8
L-1-1
 10
23.66
 20
169.46
 11
22.09
 21
172.48
  0
LINE
  8
L-1-1
 10
22.09
 20
173.23
 11
23.66
 21
176.25
  0
LINE
  8
L-1-1
 10
22.09
 20
172.80
 11
23.66
 21
175.82
  0
LINE
  8
L-1-1
 10
22.09
 20
172.80
 11
23.66
 21
175.82
  0
LINE
  8
L-1-1
 10
23.66
 20
161.61
 11
22.09
 21
164.63
  0
LINE
  8
L-1-1
 10
23.66
 20
162.04
 11
22.09
 21
165.06
  0
LINE
  8
L-1-1
 10
22.09
 20
165.81
 11
23.66
 21
168.83
  0
LINE
  8
L-1-1
 10
22.09
 20
165.38
 11
23.66
 21
168.40
  0
LINE
  8
L-1-1
 10
22.09
 20
165.38
 11
23.66
 21
168.40
  0
LINE
  8
L-1-1
 10
23.66
 20
154.19
 11
22.09
 21
157.21
  0
LINE
  8
L-1-1
 10
23.66
 20
154.63
 11
22.09
 21
157.65
  0
LINE
  8
L-1-1
 10
22.09
 20
158.39
 11
23.66
 21
161.41
  0
LINE
  8
L-1-1
 10
22.09
 20
157.96
 11
23.66
 21
160.98
  0
LINE
  8
L-1-1
 10
22.09
 20
157.96
 11
23.66
 21
160.98
  0
LINE
  8
L-1-1
 10
25.54
 20
153.32
 11
26.42
 21
153.32
  0
LINE
  8
L-1-1
 10
26.42
 20
153.32
 11
26.42
 21
153.40
  0
LINE
  8
L-1-1
 10
25.54
 20
153.32
 11
25.54
 21
153.40
  0
LINE
  8
L-1-1
 10
25.54
 20
153.40
 11
26.42
 21
153.40
  0
LINE
  8
L-1-1
 10
26.20
 20
153.40
 11
26.21
 21
191.87
  0
LINE
  8
L-1-1
 10
25.76
 20
153.40
 11
25.76
 21
191.87
  0
LINE
  8
L-1-1
 10
25.54
 20
191.96
 11
26.42
 21
191.96
  0
LINE
  8
L-1-1
 10
26.42
 20
191.87
 11
26.42
 21
191.96
  0
LINE
  8
L-1-1
 10
25.54
 20
191.87
 11
25.54
 21
191.96
  0
LINE
  8
L-1-1
 10
25.54
 20
191.87
 11
26.42
 21
191.87
  0
LINE
  8
L-1-1
 10
24.18
 20
191.29
 11
25.76
 21
191.29
  0
LINE
  8
L-1-1
 10
24.18
 20
191.09
 11
25.76
 21
191.09
  0
LINE
  8
L-1-1
 10
24.18
 20
153.99
 11
25.76
 21
153.99
  0
LINE
  8
L-1-1
 10
24.18
 20
154.19
 11
25.76
 21
154.19
  0
LINE
  8
L-1-1
 10
24.18
 20
183.67
 11
25.76
 21
183.67
  0
LINE
  8
L-1-1
 10
24.18
 20
176.45
 11
25.76
 21
176.45
  0
LINE
  8
L-1-1
 10
24.18
 20
176.25
 11
25.76
 21
176.25
  0
LINE
  8
L-1-1
 10
24.18
 20
169.03
 11
25.76
 21
169.03
  0
LINE
  8
L-1-1
 10
24.18
 20
168.83
 11
25.76
 21
168.83
  0
LINE
  8
L-1-1
 10
24.18
 20
161.61
 11
25.76
 21
161.61
  0
LINE
  8
L-1-1
 10
24.18
 20
161.41
 11
25.76
 21
161.41
  0
LINE
  8
L-1-1
 10
25.76
 20
183.87
 11
24.18
 21
186.89
  0
LINE
  8
L-1-1
 10
25.76
 20
184.30
 11
24.18
 21
187.32
  0
LINE
  8
L-1-1
 10
24.18
 20
188.07
 11
25.76
 21
191.09
  0
LINE
  8
L-1-1
 10
24.18
 20
187.63
 11
25.76
 21
190.65
  0
LINE
  8
L-1-1
 10
24.18
 20
183.87
 11
25.76
 21
183.87
  0
LINE
  8
L-1-1
 10
24.18
 20
187.63
 11
25.76
 21
190.65
  0
LINE
  8
L-1-1
 10
25.76
 20
176.45
 11
24.18
 21
179.47
  0
LINE
  8
L-1-1
 10
25.76
 20
176.88
 11
24.18
 21
179.90
  0
LINE
  8
L-1-1
 10
24.18
 20
180.65
 11
25.76
 21
183.67
  0
LINE
  8
L-1-1
 10
24.18
 20
180.21
 11
25.76
 21
183.23
  0
LINE
  8
L-1-1
 10
24.18
 20
180.21
 11
25.76
 21
183.23
  0
LINE
  8
L-1-1
 10
25.76
 20
169.03
 11
24.18
 21
172.05
  0
LINE
  8
L-1-1
 10
25.76
 20
169.46
 11
24.18
 21
172.48
  0
LINE
  8
L-1-1
 10
24.18
 20
173.23
 11
25.76
 21
176.25
  0
LINE
  8
L-1-1
 10
24.18
 20
172.80
 11
25.76
 21
175.82
  0
LINE
  8
L-1-1
 10
24.18
 20
172.80
 11
25.76
 21
175.82
  0
LINE
  8
L-1-1
 10
25.76
 20
161.61
 11
24.18
 21
164.63
  0
LINE
  8
L-1-1
 10
25.76
 20
162.04
 11
24.18
 21
165.06
  0
LINE
  8
L-1-1
 10
24.18
 20
165.81
 11
25.76
 21
168.83
  0
LINE
  8
L-1-1
 10
24.18
 20
165.38
 11
25.76
 21
168.40
  0
LINE
  8
L-1-1
 10
24.18
 20
165.38
 11
25.76
 21
168.40
  0
LINE
  8
L-1-1
 10
25.76
 20
154.19
 11
24.18
 21
157.21
  0
LINE
  8
L-1-1
 10
25.76
 20
154.63
 11
24.18
 21
157.65
  0
LINE
  8
L-1-1
 10
24.18
 20
158.39
 11
25.76
 21
161.41
  0
LINE
  8
L-1-1
 10
24.18
 20
157.96
 11
25.76
 21
160.98
  0
LINE
  8
L-1-1
 10
24.18
 20
157.96
 11
25.76
 21
160.98
  0
LINE
  8
L-1-1
 10
20.54
 20
240.21
 11
21.13
 21
240.21
  0
LINE
  8
L-1-1
 10
20.54
 20
238.45
 11
20.54
 21
240.21
  0
LINE
  8
L-1-1
 10
21.13
 20
238.45
 11
21.13
 21
240.21
  0
LINE
  8
L-1-1
 10
20.54
 20
238.45
 11
21.13
 21
238.45
  0
LINE
  8
L-1-1
 10
21.64
 20
239.92
 11
26.21
 21
239.92
  0
LINE
  8
L-1-1
 10
21.64
 20
234.99
 11
21.64
 21
239.92
  0
LINE
  8
L-1-1
 10
26.21
 20
234.99
 11
26.21
 21
239.92
  0
LINE
  8
L-1-1
 10
21.64
 20
234.99
 11
26.21
 21
234.99
  0
LINE
  8
L-1-1
 10
21.64
 20
192.05
 11
21.64
 21
234.99
  0
LINE
  8
L-1-1
 10
22.09
 20
192.05
 11
22.09
 21
234.99
  0
LINE
  8
L-1-1
 10
23.66
 20
192.05
 11
23.66
 21
234.99
  0
LINE
  8
L-1-1
 10
24.18
 20
192.05
 11
24.18
 21
234.99
  0
LINE
  8
L-1-1
 10
21.42
 20
191.96
 11
22.30
 21
191.96
  0
LINE
  8
L-1-1
 10
21.42
 20
191.96
 11
21.42
 21
192.05
  0
LINE
  8
L-1-1
 10
22.30
 20
191.96
 11
22.30
 21
192.05
  0
LINE
  8
L-1-1
 10
21.42
 20
192.05
 11
22.30
 21
192.05
  0
LINE
  8
L-1-1
 10
23.48
 20
191.96
 11
24.36
 21
191.96
  0
LINE
  8
L-1-1
 10
23.48
 20
191.96
 11
23.48
 21
192.05
  0
LINE
  8
L-1-1
 10
24.36
 20
191.96
 11
24.36
 21
192.05
  0
LINE
  8
L-1-1
 10
23.48
 20
192.05
 11
24.36
 21
192.05
  0
LINE
  8
L-1-1
 10
22.09
 20
192.64
 11
23.66
 21
192.64
  0
LINE
  8
L-1-1
 10
22.09
 20
192.84
 11
23.66
 21
192.84
  0
LINE
  8
L-1-1
 10
26.21
 20
192.05
 11
26.21
 21
234.99
  0
LINE
  8
L-1-1
 10
25.76
 20
192.05
 11
25.76
 21
234.99
  0
LINE
  8
L-1-1
 10
25.54
 20
191.96
 11
26.42
 21
191.96
  0
LINE
  8
L-1-1
 10
26.42
 20
191.96
 11
26.42
 21
192.05
  0
LINE
  8
L-1-1
 10
25.54
 20
191.96
 11
25.54
 21
192.05
  0
LINE
  8
L-1-1
 10
25.54
 20
192.05
 11
26.42
 21
192.05
  0
LINE
  8
L-1-1
 10
24.18
 20
192.64
 11
25.76
 21
192.64
  0
LINE
  8
L-1-1
 10
24.18
 20
192.84
 11
25.76
 21
192.84
  0
LINE
  8
L-3-1
 10
23.92
 20
192.84
 11
23.92
 21
234.99
  0
LINE
  8
L-3-1
 10
20.54
 20
239.33
 11
26.20
 21
239.33
  0
LINE
  8
L-1-1
 10
21.13
 20
239.04
 11
21.64
 21
239.04
  0
LINE
  8
L-1-1
 10
21.13
 20
239.63
 11
21.64
 21
239.63
  0
LINE
  8
L-1-1
 10
26.72
 20
240.21
 11
27.30
 21
240.21
  0
LINE
  8
L-1-1
 10
27.30
 20
238.45
 11
27.30
 21
240.21
  0
LINE
  8
L-1-1
 10
26.72
 20
238.45
 11
26.72
 21
240.21
  0
LINE
  8
L-1-1
 10
26.72
 20
238.45
 11
27.30
 21
238.45
  0
LINE
  8
L-1-1
 10
26.20
 20
239.04
 11
26.72
 21
239.04
  0
LINE
  8
L-1-1
 10
26.21
 20
239.63
 11
26.72
 21
239.63
  0
LINE
  8
L-1-1
 10
22.09
 20
201.04
 11
23.66
 21
201.04
  0
LINE
  8
L-1-1
 10
22.09
 20
200.84
 11
23.66
 21
200.84
  0
LINE
  8
L-1-1
 10
24.18
 20
201.04
 11
25.76
 21
201.04
  0
LINE
  8
L-1-1
 10
24.18
 20
200.84
 11
25.76
 21
200.84
  0
LINE
  8
L-1-1
 10
22.09
 20
230.29
 11
25.76
 21
230.29
  0
LINE
  8
L-1-1
 10
23.66
 20
193.03
 11
22.09
 21
196.07
  0
LINE
  8
L-1-1
 10
23.66
 20
193.46
 11
22.09
 21
196.51
  0
LINE
  8
L-1-1
 10
22.09
 20
197.60
 11
23.66
 21
200.65
  0
LINE
  8
L-1-1
 10
22.09
 20
197.17
 11
23.66
 21
200.22
  0
LINE
  8
L-1-1
 10
22.09
 20
205.80
 11
23.66
 21
208.85
  0
LINE
  8
L-1-1
 10
22.09
 20
205.37
 11
23.66
 21
208.42
  0
LINE
  8
L-1-1
 10
23.66
 20
201.23
 11
22.09
 21
204.27
  0
LINE
  8
L-1-1
 10
23.66
 20
201.66
 11
22.09
 21
204.71
  0
LINE
  8
L-1-1
 10
22.09
 20
209.04
 11
23.66
 21
209.04
  0
LINE
  8
L-1-1
 10
22.09
 20
209.24
 11
23.66
 21
209.24
  0
LINE
  8
L-1-1
 10
24.18
 20
209.04
 11
25.76
 21
209.04
  0
LINE
  8
L-1-1
 10
24.18
 20
209.24
 11
25.76
 21
209.24
  0
LINE
  8
L-1-1
 10
22.09
 20
216.21
 11
23.66
 21
216.21
  0
LINE
  8
L-1-1
 10
22.09
 20
216.41
 11
23.66
 21
216.41
  0
LINE
  8
L-1-1
 10
24.18
 20
216.21
 11
25.76
 21
216.21
  0
LINE
  8
L-1-1
 10
24.19
 20
216.41
 11
25.76
 21
216.41
  0
LINE
  8
L-1-1
 10
22.09
 20
223.36
 11
23.66
 21
223.36
  0
LINE
  8
L-1-1
 10
22.09
 20
223.56
 11
23.66
 21
223.56
  0
LINE
  8
L-1-1
 10
24.18
 20
223.36
 11
25.76
 21
223.36
  0
LINE
  8
L-1-1
 10
24.19
 20
223.56
 11
25.76
 21
223.56
  0
LINE
  8
L-1-1
 10
23.66
 20
209.41
 11
22.09
 21
211.89
  0
LINE
  8
L-1-1
 10
23.66
 20
209.78
 11
22.09
 21
212.27
  0
LINE
  8
L-1-1
 10
22.09
 20
213.56
 11
23.66
 21
216.04
  0
LINE
  8
L-1-1
 10
22.09
 20
213.18
 11
23.66
 21
215.67
  0
LINE
  8
L-1-1
 10
23.66
 20
216.67
 11
22.09
 21
219.14
  0
LINE
  8
L-1-1
 10
23.66
 20
217.04
 11
22.09
 21
219.51
  0
LINE
  8
L-1-1
 10
22.09
 20
220.63
 11
23.66
 21
223.10
  0
LINE
  8
L-1-1
 10
22.09
 20
220.26
 11
23.66
 21
222.73
  0
LINE
  8
L-1-1
 10
23.66
 20
223.87
 11
22.09
 21
226.19
  0
LINE
  8
L-1-1
 10
23.66
 20
224.23
 11
22.09
 21
226.55
  0
LINE
  8
L-1-1
 10
22.09
 20
227.65
 11
23.66
 21
229.97
  0
LINE
  8
L-1-1
 10
22.09
 20
227.29
 11
23.66
 21
229.62
  0
LINE
  8
L-1-1
 10
25.76
 20
193.03
 11
24.18
 21
196.07
  0
LINE
  8
L-1-1
 10
25.76
 20
193.46
 11
24.18
 21
196.51
  0
LINE
  8
L-1-1
 10
24.18
 20
197.60
 11
25.76
 21
200.65
  0
LINE
  8
L-1-1
 10
24.18
 20
197.17
 11
25.76
 21
200.22
  0
LINE
  8
L-1-1
 10
24.18
 20
205.80
 11
25.75
 21
208.85
  0
LINE
  8
L-1-1
 10
24.18
 20
205.37
 11
25.76
 21
208.42
  0
LINE
  8
L-1-1
 10
25.76
 20
201.23
 11
24.18
 21
204.27
  0
LINE
  8
L-1-1
 10
25.76
 20
201.66
 11
24.18
 21
204.71
  0
LINE
  8
L-1-1
 10
25.76
 20
209.41
 11
24.18
 21
211.89
  0
LINE
  8
L-1-1
 10
25.76
 20
209.78
 11
24.18
 21
212.27
  0
LINE
  8
L-1-1
 10
24.18
 20
213.56
 11
25.76
 21
216.04
  0
LINE
  8
L-1-1
 10
24.18
 20
213.18
 11
25.76
 21
215.67
  0
LINE
  8
L-1-1
 10
25.76
 20
216.67
 11
24.18
 21
219.14
  0
LINE
  8
L-1-1
 10
25.76
 20
217.04
 11
24.18
 21
219.51
  0
LINE
  8
L-1-1
 10
24.18
 20
220.63
 11
25.75
 21
223.10
  0
LINE
  8
L-1-1
 10
24.18
 20
220.26
 11
25.76
 21
222.73
  0
LINE
  8
L-1-1
 10
25.75
 20
223.87
 11
24.18
 21
226.19
  0
LINE
  8
L-1-1
 10
25.76
 20
224.23
 11
24.18
 21
226.55
  0
LINE
  8
L-1-1
 10
24.18
 20
227.65
 11
25.76
 21
229.97
  0
LINE
  8
L-1-1
 10
24.18
 20
227.29
 11
25.76
 21
229.62
  0
TEXT
  8
NTEXT
 10
299.37
 20
47.02
 40
2.50
 41
0.80
  1
DESCRIPTION
 50
0.00
  7
KANJI
  0
TEXT
  8
NTEXT
 10
334.04
 20
47.26
 40
2.50
 41
0.80
  1
MATL
 50
0.00
  7
KANJI
  0
TEXT
  8
NTEXT
 10
347.23
 20
47.02
 40
2.50
 41
0.80
  1
QTY
 50
0.00
  7
KANJI
  0
TEXT
  8
NTEXT
 10
356.91
 20
47.02
 40
2.50
 41
0.80
  1
WEIGHT
 50
0.00
  7
KANJI
  0
TEXT
  8
NTEXT
 10
372.87
 20
46.77
 40
2.50
 41
0.80
  1
NOTE
 50
0.00
  7
KANJI
  0
TEXT
  8
NTEXT
 10
345.03
 20
39.68
 40
2.50
 41
0.80
  1
APPROVED  BY
 50
0.00
  7
KANJI
  0
TEXT
  8
NTEXT
 10
345.52
 20
33.09
 40
2.50
 41
0.80
  1
CHECKED   BY
 50
0.00
  7
KANJI
  0
TEXT
  8
NTEXT
 10
346.01
 20
26.01
 40
2.50
 41
0.80
  1
DESIGNED  BY
 50
0.00
  7
KANJI
  0
TEXT
  8
NTEXT
 10
346.01
 20
19.41
 40
2.50
 41
0.80
  1
DRAWN     BY
 50
0.00
  7
KANJI
  0
TEXT
  8
NTEXT
 10
362.85
 20
11.37
 40
2.50
 41
0.80
  1
DRAWING  NO
 50
0.00
  7
KANJI
  0
TEXT
  8
NTEXT
 10
299.85
 20
39.45
 40
2.50
 41
0.80
  1
TITLE
 50
0.00
  7
KANJI
  0
TEXT
  8
NTEXT
 10
278.12
 20
26.26
 40
2.50
 41
0.80
  1
PRODUCTION NO
 50
0.00
  7
KANJI
  0
TEXT
  8
NTEXT
 10
278.12
 20
19.18
 40
2.50
 41
0.80
  1
SCALE
 50
0.00
  7
KANJI
  0
TEXT
  8
NTEXT
 10
308.40
 20
19.18
 40
2.50
 41
0.80
  1
DATE
 50
0.00
  7
KANJI
  0
TEXT
  8
NTEXT
 10
287.16
 20
7.21
 40
4.00
 41
0.56
  1
MATSUDA ENGRG CO.LTD.
 50
0.00
  7
KANJI
  0
TEXT
  8
NTEXT
 10
296.19
 20
2.33
 40
2.50
 41
0.80
  1
MATSUDO CHIBA JAPAN
 50
0.00
  7
KANJI
  0
TEXT
  8
NTEXT
 10
279.10
 20
6.97
 40
3.00
 41
0.53
  1
MEC
 50
0.00
  7
KANJI
  0
TEXT
  8
NTEXT
 10
195.74
 20
269.41
 40
3.00
 41
0.53
  1
MEC
 50
0.00
  7
KANJI
  0
TEXT
  8
NTEXT
 10
276.89
 20
43.34
 40
3.00
 41
0.80
  1
òäìå
 50
0.00
  7
KANJI
  0
TEXT
  8
NTEXT
 10
279.01
 20
47.09
 40
2.50
 41
0.80
  1
No
 50
0.00
  7
KANJI
  0
TEXT
  8
NTEXT
 10
298.39
 20
43.33
 40
3.00
 41
0.80
  1
û╝ü@ü@ü@Å╠
 50
0.00
  7
KANJI
  0
TEXT
  8
NTEXT
 10
331.49
 20
43.33
 40
3.00
 41
0.80
  1
ìÌü@Ä┐
 50
0.00
  7
KANJI
  0
TEXT
  8
NTEXT
 10
344.61
 20
43.12
 40
3.00
 41
0.80
  1
î┬ü@Éö
 50
0.00
  7
KANJI
  0
TEXT
  8
NTEXT
 10
356.48
 20
43.12
 40
3.00
 41
0.80
  1
Ådü@ù╩
 50
0.00
  7
KANJI
  0
TEXT
  8
NTEXT
 10
370.27
 20
43.42
 40
3.00
 41
0.80
  1
ôEü@ü@ùv
 50
0.00
  7
KANJI
  0
TEXT
  8
NTEXT
 10
347.42
 20
36.39
 40
3.00
 41
0.80
  1
Å│ü@ü@öF
 50
0.00
  7
KANJI
  0
TEXT
  8
NTEXT
 10
347.35
 20
29.53
 40
3.00
 41
0.80
  1
îƒü@ü@É}
 50
0.00
  7
KANJI
  0
TEXT
  8
NTEXT
 10
347.43
 20
22.58
 40
3.00
 41
0.80
  1
É¦ü@ü@îv
 50
0.00
  7
KANJI
  0
TEXT
  8
NTEXT
 10
347.48
 20
15.80
 40
3.00
 41
0.80
  1
É╗ü@ü@É}
 50
0.00
  7
KANJI
  0
TEXT
  8
NTEXT
 10
347.64
 20
11.28
 40
3.00
 41
0.80
  1
É}ü@ü@öÈ
 50
0.00
  7
KANJI
  0
TEXT
  8
NTEXT
 10
282.41
 20
38.81
 40
3.00
 41
0.80
  1
û╝ü@ü@Å╠
 50
0.00
  7
KANJI
  0
TEXT
  8
NTEXT
 10
281.75
 20
22.77
 40
3.00
 41
0.80
  1
É╗ü@ü@öÈ
 50
0.00
  7
KANJI
  0
TEXT
  8
NTEXT
 10
278.46
 20
15.78
 40
3.00
 41
0.80
  1
Ä┌ü@ôx
 50
0.00
  7
KANJI
  0
TEXT
  8
NTEXT
 10
306.93
 20
15.78
 40
3.00
 41
0.80
  1
ô·ü@òt
 50
0.00
  7
KANJI
  0
TEXT
  8
NTEXT
 10
303.99
 20
29.70
 40
3.00
 41
0.80
  1
ægùºèOî`É}
 50
0.00
  7
KANJI
  0
TEXT
  8
NTEXT
 10
287.57
 20
33.93
 40
4.00
 41
0.80
  1
éuébésü|éRéO
 50
0.00
  7
KANJI
  0
TEXT
  8
NTEXT
 10
292.25
 20
16.30
 40
3.00
 41
0.53
  1
1/150
 50
0.00
  7
KANJI
  0
TEXT
  8
NTEXT
 10
13.76
 20
90.01
 40
3.00
 41
0.80
  1
R4,150
 50
60.00
  7
KANJI
  0
TEXT
  8
NTEXT
 10
12.90
 20
116.33
 40
3.00
 41
0.80
  1
713
 50
0.00
  7
KANJI
  0
TEXT
  8
NTEXT
 10
24.30
 20
116.23
 40
3.00
 41
0.80
  1
1,387
 50
0.00
  7
KANJI
  0
TEXT
  8
NTEXT
 10
23.16
 20
69.32
 40
3.00
 41
0.80
  1
913
 50
0.00
  7
KANJI
  0
TEXT
  8
NTEXT
 10
5.44
 20
73.37
 40
3.00
 41
0.80
  1
942.5
 50
0.00
  7
KANJI
  0
TEXT
  8
NTEXT
 10
29.09
 20
73.20
 40
3.00
 41
0.80
  1
474
 50
0.00
  7
KANJI
  0
TEXT
  8
NTEXT
 10
37.73
 20
106.73
 40
3.00
 41
0.80
  1
850
 50
90.00
  7
KANJI
  0
TEXT
  8
NTEXT
 10
41.84
 20
95.56
 40
3.00
 41
0.80
  1
1,741
 50
90.00
  7
KANJI
  0
TEXT
  8
NTEXT
 10
42.10
 20
77.40
 40
3.00
 41
0.80
  1
2,300
 50
90.00
  7
KANJI
  0
TEXT
  8
NTEXT
 10
190.68
 20
65.10
 40
3.00
 41
0.80
  1
771.5
 50
0.00
  7
KANJI
  0
TEXT
  8
NTEXT
 10
190.68
 20
65.10
 40
3.00
 41
0.80
  1
771.5
 50
0.00
  7
KANJI
  0
TEXT
  8
NTEXT
 10
170.11
 20
65.10
 40
3.00
 41
0.80
  1
5,400
 50
0.00
  7
KANJI
  0
TEXT
  8
NTEXT
 10
291.25
 20
114.93
 40
3.00
 41
0.80
  1
5,880
 50
0.00
  7
KANJI
  0
TEXT
  8
NTEXT
 10
131.21
 20
93.48
 40
3.00
 41
0.80
  1
2,600
 50
90.00
  7
KANJI
  0
TEXT
  8
NTEXT
 10
231.72
 20
167.94
 40
3.00
 41
0.80
  1
20,000
 50
90.00
  7
KANJI
  0
TEXT
  8
NTEXT
 10
249.81
 20
203.65
 40
3.00
 41
0.80
  1
15M
 50
90.00
  7
KANJI
  0
TEXT
  8
NTEXT
 10
249.81
 20
224.26
 40
3.00
 41
0.80
  1
18M
 50
90.00
  7
KANJI
  0
TEXT
  8
NTEXT
 10
249.91
 20
237.77
 40
3.00
 41
0.80
  1
20M
 50
90.00
  7
KANJI
  0
TEXT
  8
NTEXT
 10
253.65
 20
240.43
 40
3.00
 41
0.80
  1
2.0T
 50
90.00
  7
KANJI
  0
TEXT
  8
NTEXT
 10
257.49
 20
240.43
 40
3.00
 41
0.80
  1
1.5T
 50
90.00
  7
KANJI
  0
TEXT
  8
NTEXT
 10
261.41
 20
240.43
 40
3.00
 41
0.80
  1
1.3T
 50
90.00
  7
KANJI
  0
TEXT
  8
NTEXT
 10
266.80
 20
243.14
 40
3.00
 41
0.80
  1
ÆÞèiëÎÅd
 50
90.00
  7
KANJI
  0
TEXT
  8
NTEXT
 10
289.24
 20
147.49
 40
3.00
 41
0.80
  1
î^ü@ü@ü@ü@ü@Ä«
 50
90.00
  7
KANJI
  0
TEXT
  8
NTEXT
 10
294.24
 20
147.49
 40
3.00
 41
0.80
  1
ÆÞü@èiü@ëÎü@Åd
 50
90.00
  7
KANJI
  0
TEXT
  8
NTEXT
 10
299.24
 20
147.49
 40
3.00
 41
0.80
  1
É¨ü@ë±ü@ö╝ü@îa
 50
90.00
  7
KANJI
  0
TEXT
  8
NTEXT
 10
304.24
 20
147.49
 40
3.00
 41
0.80
  1
ùgü@ü@ü@ü@ü@Æ÷
 50
90.00
  7
KANJI
  0
TEXT
  8
NTEXT
 10
316.74
 20
142.02
 40
3.00
 41
0.80
  1
æ¼ü@ôx
 50
90.00
  7
KANJI
  0
TEXT
  8
NTEXT
 10
336.74
 20
142.02
 40
3.00
 41
0.80
  1
ôdô«ï@
 50
90.00
  7
KANJI
  0
TEXT
  8
NTEXT
 10
349.24
 20
147.49
 40
3.00
 41
0.80
  1
ê└ü@æSü@æòü@Æu
 50
90.00
  7
KANJI
  0
TEXT
  8
NTEXT
 10
354.24
 20
147.49
 40
3.00
 41
0.80
  1
©Î▓ð¦©Ìò¹Ä«
 50
90.00
  7
KANJI
  0
TEXT
  8
NTEXT
 10
359.24
 20
147.49
 40
3.00
 41
0.80
  1
æÇü@ìýü@ò¹ü@Ä«
 50
90.00
  7
KANJI
  0
TEXT
  8
NTEXT
 10
364.24
 20
147.49
 40
3.00
 41
0.80
  1
ôdü@ü@ü@ü@ü@î╣
 50
90.00
  7
KANJI
  0
TEXT
  8
NTEXT
 10
349.39
 20
182.84
 40
3.00
 41
0.80
  1
ë▀è¬üCïNòÜüCÉ¨ë±üCëÎÅdü@ü@ü@ü@ü@èeÉº
 50
90.00
  7
KANJI
  0
TEXT
  8
NTEXT
 10
354.39
 20
182.84
 40
3.00
 41
0.80
  1
û¹ê│Ä«¥┘╠©Î▓ð¦©Ì
 50
90.00
  7
KANJI
  0
TEXT
  8
NTEXT
 10
359.39
 20
182.84
 40
3.00
 41
0.80
  1
╠▀»╝¡╬Ì└¦ÏË░─║¦─█░┘
 50
90.00
  7
KANJI
  0
TEXT
  8
NTEXT
 10
364.39
 20
182.84
 40
3.00
 41
0.80
  1
200/220V  50/60HZ
 50
90.00
  7
KANJI
  0
TEXT
  8
NTEXT
 10
344.22
 20
161.45
 40
3.00
 41
0.80
  1
©Î▓ð¦©Ì
 50
90.00
  7
KANJI
  0
TEXT
  8
NTEXT
 10
329.22
 20
161.45
 40
3.00
 41
0.80
  1
è¬ü@ÅÒ
 50
90.00
  7
KANJI
  0
TEXT
  8
NTEXT
 10
334.22
 20
161.45
 40
3.00
 41
0.80
  1
ïNü@òÜ
 50
90.00
  7
KANJI
  0
TEXT
  8
NTEXT
 10
339.22
 20
161.45
 40
3.00
 41
0.80
  1
É¨ü@ë±
 50
90.00
  7
KANJI
  0
TEXT
  8
NTEXT
 10
324.22
 20
161.45
 40
3.00
 41
0.80
  1
©Î▓ð¦©Ì
 50
90.00
  7
KANJI
  0
TEXT
  8
NTEXT
 10
309.22
 20
161.45
 40
3.00
 41
0.80
  1
è¬ü@ÅÒ
 50
90.00
  7
KANJI
  0
TEXT
  8
NTEXT
 10
314.22
 20
161.45
 40
3.00
 41
0.80
  1
ïNü@òÜ
 50
90.00
  7
KANJI
  0
TEXT
  8
NTEXT
 10
319.22
 20
161.45
 40
3.00
 41
0.80
  1
É¨ü@ë±
 50
90.00
  7
KANJI
  0
TEXT
  8
NTEXT
 10
289.44
 20
204.67
 40
4.00
 41
0.80
  1
éuébésü|éRéO
 50
90.00
  7
KANJI
  0
TEXT
  8
NTEXT
 10
284.44
 20
177.82
 40
3.00
 41
0.80
  1
Ädü@ü@ü@ü@ü@ü@ü@ü@ü@ü@ü@ùl
 50
90.00
  7
KANJI
  0
TEXT
  8
NTEXT
 10
294.44
 20
183.85
 40
3.00
 41
0.80
  1
éPüDéR
 50
90.00
  7
KANJI
  0
TEXT
  8
NTEXT
 10
294.44
 20
208.85
 40
3.00
 41
0.80
  1
éPüDéT
 50
90.00
  7
KANJI
  0
TEXT
  8
NTEXT
 10
294.44
 20
233.85
 40
3.00
 41
0.80
  1
éQüDéOü@ü@éö
 50
90.00
  7
KANJI
  0
TEXT
  8
NTEXT
 10
299.44
 20
183.85
 40
3.00
 41
0.80
  1
éQéO
 50
90.00
  7
KANJI
  0
TEXT
  8
NTEXT
 10
299.44
 20
208.85
 40
3.00
 41
0.80
  1
éPéW
 50
90.00
  7
KANJI
  0
TEXT
  8
NTEXT
 10
299.44
 20
233.85
 40
3.00
 41
0.80
  1
éOü`éPéTél
 50
90.00
  7
KANJI
  0
TEXT
  8
NTEXT
 10
303.91
 20
209.60
 40
3.00
 41
0.80
  1
éVéTü@ü@ü@ü@ü@ü@ü@ü@ü@él
 50
90.00
  7
KANJI
  0
TEXT
  8
NTEXT
 10
309.07
 20
200.29
 40
3.00
 41
0.80
  1
éPéUüDéTü^éQéO
 50
90.00
  7
KANJI
  0
TEXT
  8
NTEXT
 10
314.07
 20
200.29
 40
3.00
 41
0.80
  1
éPéPü^éPéR
 50
90.00
  7
KANJI
  0
TEXT
  8
NTEXT
 10
319.07
 20
200.29
 40
3.00
 41
0.80
  1
éOüDéTéSü^éPüDéUéT
 50
90.00
  7
KANJI
  0
TEXT
  8
NTEXT
 10
324.44
 20
182.39
 40
3.00
 41
0.80
  1
UP éOüDéTéUélü^min    DOWN éOüDéXéTé
 50
90.00
  7
KANJI
  0
TEXT
  8
NTEXT
 10
309.39
 20
243.53
 40
3.00
 41
0.80
  1
élü^min
 50
90.00
  7
KANJI
  0
TEXT
  8
NTEXT
 10
314.14
 20
243.53
 40
3.00
 41
0.80
  1
élü^min
 50
90.00
  7
KANJI
  0
TEXT
  8
NTEXT
 10
319.12
 20
243.51
 40
3.00
 41
0.80
  1
R.P.M
 50
90.00
  7
KANJI
  0
TEXT
  8
NTEXT
 10
329.07
 20
250.33
 40
3.00
 41
0.80
  1
éo
 50
90.00
  7
KANJI
  0
TEXT
  8
NTEXT
 10
334.07
 20
250.33
 40
3.00
 41
0.80
  1
éo
 50
90.00
  7
KANJI
  0
TEXT
  8
NTEXT
 10
339.07
 20
250.33
 40
3.00
 41
0.80
  1
éo
 50
90.00
  7
KANJI
  0
TEXT
  8
NTEXT
 10
344.07
 20
250.33
 40
3.00
 41
0.80
  1
éo
 50
90.00
  7
KANJI
  0
TEXT
  8
NTEXT
 10
329.11
 20
212.89
 40
3.00
 41
0.80
  1
kw
 50
90.00
  7
KANJI
  0
TEXT
  8
NTEXT
 10
334.11
 20
212.89
 40
3.00
 41
0.80
  1
kw
 50
90.00
  7
KANJI
  0
TEXT
  8
NTEXT
 10
339.11
 20
212.89
 40
3.00
 41
0.80
  1
kw
 50
90.00
  7
KANJI
  0
TEXT
  8
NTEXT
 10
344.11
 20
212.89
 40
3.00
 41
0.80
  1
kw
 50
90.00
  7
KANJI
  0
TEXT
  8
NTEXT
 10
329.11
 20
234.44
 40
3.00
 41
0.80
  1
éS
 50
90.00
  7
KANJI
  0
TEXT
  8
NTEXT
 10
334.11
 20
234.44
 40
3.00
 41
0.80
  1
éS
 50
90.00
  7
KANJI
  0
TEXT
  8
NTEXT
 10
339.11
 20
234.44
 40
3.00
 41
0.80
  1
éS
 50
90.00
  7
KANJI
  0
TEXT
  8
NTEXT
 10
344.11
 20
234.44
 40
3.00
 41
0.80
  1
éS
 50
90.00
  7
KANJI
  0
TEXT
  8
NTEXT
 10
329.11
 20
194.62
 40
3.00
 41
0.80
  1
éW
 50
90.00
  7
KANJI
  0
TEXT
  8
NTEXT
 10
334.11
 20
194.62
 40
3.00
 41
0.80
  1
éU
 50
90.00
  7
KANJI
  0
TEXT
  8
NTEXT
 10
339.11
 20
191.33
 40
3.00
 41
0.80
  1
éQüDéQ
 50
90.00
  7
KANJI
  0
TEXT
  8
NTEXT
 10
344.11
 20
191.33
 40
3.00
 41
0.80
  1
éQüDéQ
 50
90.00
  7
KANJI
  0
TEXT
  8
NTEXT
 10
251.18
 20
65.60
 40
3.00
 41
0.80
  1
17,640
 50
0.00
  7
KANJI
  0
TEXT
  8
NTEXT
 10
314.34
 20
65.60
 40
3.00
 41
0.80
  1
522
 50
0.00
  7
KANJI
  0
TEXT
  8
NTEXT
 10
320.82
 20
61.56
 40
2.50
 41
0.80
  1
100
 50
45.00
  7
KANJI
  0
TEXT
  8
NTEXT
 10
342.26
 20
83.00
 40
2.50
 41
0.80
  1
2,180
 50
45.00
  7
KANJI
  0
TEXT
  8
NTEXT
 10
353.42
 20
93.53
 40
2.50
 41
0.80
  1
100
 50
45.00
  7
KANJI
  0
TEXT
  8
NTEXT
 10
362.52
 20
93.92
 40
2.50
 41
0.80
  1
245
 50
-45.00
  7
KANJI
  0
TEXT
  8
NTEXT
 10
330.62
 20
76.43
 40
2.50
 41
0.80
  1
2,500
 50
135.00
  7
KANJI
  0
TEXT
  8
NTEXT
 10
352.55
 20
123.86
 40
2.50
 41
0.80
  1
850
 50
0.00
  7
KANJI
  0
TEXT
  8
NTEXT
 10
338.25
 20
123.86
 40
2.50
 41
0.80
  1
635
 50
0.00
  7
KANJI
  0
TEXT
  8
NTEXT
 10
334.31
 20
116.27
 40
2.50
 41
0.80
  1
150
 50
0.00
  7
KANJI
  0
TEXT
  8
NTEXT
 10
322.89
 20
90.95
 40
3.00
 41
0.80
  1
200
 50
45.00
  7
KANJI
  0
TEXT
  8
NTEXT
 10
344.69
 20
128.56
 40
3.00
 41
0.80
  1
1,485
 50
0.00
  7
KANJI
  0
TEXT
  8
NTEXT
 10
316.74
 20
34.48
 40
3.00
 41
0.80
  1
Ä®ùºéPéWél
 50
0.00
  7
KANJI
  0
TEXT
  8
NTEXT
 10
4.71
 20
266.77
 40
3.00
 41
0.53
  1
VCT30 18
 50
0.00
  7
KANJI
  0
TEXT
  8
NTEXT
 10
219.10
 20
3.73
 40
4.00
 41
0.60
  1
âtâ@âCâïû╝ü@éuéâéöéRéOü@éPéWüDéäéÿéå
 50
0.00
  7
KANJI
  0
ENDSEC
  0
EOF
