  0
SECTION
  2
HEADER
  9
$ACADVER
  1
AC1009
  9
$INSBASE
 10
0
 20
0
 30
0
  9
$EXTMIN
 10
0
 20
0
  9
$EXTMAX
 10
21000
 20
14850
  9
$LIMMIN
 10
0
 20
0
  9
$LIMMAX
 10
21000
 20
14850
  9
$LTSCALE
 40
50
  0
ENDSEC
  0
SECTION
  2
TABLES
  0
TABLE
  2
LTYPE
 70
     9
  0
LTYPE
  2
CONTINUOUS
 70
    64
  3
実線
 72
    65
 73
     0
 40
0.0
  0
LTYPE
  2
DASHED1
 70
    64
  3
--  --  --  --  --  --  --  --  
 72
    65
 73
     2
 40
2.5
 49
1.25
 49
-1.25
  0
LTYPE
  2
DASHED2
 70
    64
  3
----    ----    ----    ----    
 72
    65
 73
     2
 40
5.0
 49
2.5
 49
-2.5
  0
LTYPE
  2
DASHED3
 70
    64
  3
------  ------  ------  ------  
 72
    65
 73
     2
 40
5.0
 49
3.75
 49
-1.25
  0
LTYPE
  2
CENTER1
 70
    64
  3
----- - ----- - ----- - ----- - 
 72
    65
 73
     4
 40
10.0
 49
6.25
 49
-1.25
 49
1.25
 49
-1.25
  0
LTYPE
  2
CENTER2
 70
    64
  3
----------  --  ----------  --  
 72
    65
 73
     4
 40
20.0
 49
12.5
 49
-2.5
 49
2.5
 49
-2.5
  0
LTYPE
  2
PHANTOM1
 70
    64
  3
--- - - --- - - --- - - --- - - 
 72
    65
 73
     6
 40
10.0
 49
3.25
 49
-1.25
 49
1.25
 49
-1.25
 49
1.25
 49
-1.25
  0
LTYPE
  2
PHANTOM2
 70
    64
  3
--------  -  -  --------  -  -  
 72
    65
 73
     6
 40
20.0
 49
10.0
 49
-2.5
 49
1.25
 49
-2.5
 49
1.25
 49
-2.5
  0
LTYPE
  2
DOT
 70
    64
  3
-   -   -   -   -   -   -   -   
 72
    65
 73
     2
 40
2.5
 49
0.625
 49
-1.875
  0
LTYPE
  2
DUMMY
 70
    64
  3
ダミー
 72
    65
 73
     0
 40
0.0
  0
LTYPE
  2
RAND1
 70
    64
  3
ランダム線1
 72
    65
 73
     4
 40
10.0
 49
1.0
 49
-2.0
 49
3.0
 49
-4.0
  0
LTYPE
  2
RAND2
 70
    64
  3
ランダム線2
 72
    65
 73
     4
 40
14.0
 49
2.0
 49
-3.0
 49
4.0
 49
-5.0
  0
LTYPE
  2
RAND3
 70
    64
  3
ランダム線3
 72
    65
 73
     4
 40
18.0
 49
3.0
 49
-4.0
 49
5.0
 49
-6.0
  0
LTYPE
  2
RAND4
 70
    64
  3
ランダム線4
 72
    65
 73
     4
 40
22.0
 49
4.0
 49
-5.0
 49
6.0
 49
-7.0
  0
LTYPE
  2
RAND5
 70
    64
  3
ランダム線5
 72
    65
 73
     4
 40
26.0
 49
5.0
 49
-6.0
 49
7.0
 49
-8.0
  0
LTYPE
  2
LONG1
 70
    64
  3
----------  --  ----------  --  
 72
    65
 73
     4
 40
40.0
 49
32.5
 49
-2.5
 49
2.5
 49
-2.5
  0
LTYPE
  2
LONG2
 70
    64
  3
--------  -  -  --------  -  -  
 72
    65
 73
     6
 40
40.0
 49
30.0
 49
-2.5
 49
1.25
 49
-2.5
 49
1.25
 49
-2.5
  0
LTYPE
  2
LONG3
 70
    64
  3
+++++++++++++++..+++++++++++++++
 72
    65
 73
     2
 40
40.0
 49
37.5
 49
-2.5
  0
LTYPE
  2
LONG4
 70
    64
  3
+++++++++++++++..+++++++++++++++
 72
    65
 73
     2
 40
80.0
 49
75.0
 49
-5.0
  0
LTYPE
  2
LONG5
 70
    64
  3
----------  --  ----------  --  
 72
    65
 73
     4
 40
60.0
 49
37.5
 49
-7.5
 49
7.5
 49
-7.5
  0
LTYPE
  2
dashed
 70
   64
  3
-------   -------------   ------
 72
   65
 73
    2
 40
7.5
 49
6
 49
-1.5
  0
LTYPE
  2
dashed_spaced
 70
   64
  3
----        --------        ----
 72
   65
 73
    2
 40
12
 49
6
 49
-6
  0
LTYPE
  2
long_dashed_dotted
 70
   64
  3
------------- --- --------------
 72
   65
 73
    4
 40
15.25
 49
12
 49
-1.5
 49
0.25
 49
-1.5
  0
LTYPE
  2
long_dashed_double-dotted
 70
   64
  3
----------- --- --- ------------
 72
   65
 73
    6
 40
17
 49
12
 49
-1.5
 49
0.25
 49
-1.5
 49
0.25
 49
-1.5
  0
LTYPE
  2
long_dashed_triplicate-dotted
 70
   64
  3
--------- --- --- --- ----------
 72
   65
 73
    8
 40
18.75
 49
12
 49
-1.5
 49
0.25
 49
-1.5
 49
0.25
 49
-1.5
 49
0.25
 49
-1.5
  0
LTYPE
  2
dotted
 70
   64
  3
   -       -       -       -    
 72
   65
 73
    2
 40
1.75
 49
0.25
 49
-1.5
  0
LTYPE
  2
chain
 70
   64
  3
-------------- -- --------------
 72
   65
 73
    4
 40
18.5
 49
12
 49
-1.5
 49
3.5
 49
-1.5
  0
LTYPE
  2
chain_double_dash
 70
   64
  3
------------ -- -- -------------
 72
   65
 73
    6
 40
23.5
 49
12
 49
-1.5
 49
3.5
 49
-1.5
 49
3.5
 49
-1.5
  0
LTYPE
  2
dashed_dotted
 70
   64
  3
-----------     -     ----------
 72
   65
 73
    4
 40
9.25
 49
6
 49
-1.5
 49
0.25
 49
-1.5
  0
LTYPE
  2
double-dashed_dotted
 70
   64
  3
------   -----------   -   -----
 72
   65
 73
    6
 40
16.75
 49
6
 49
-1.5
 49
6
 49
-1.5
 49
0.25
 49
-1.5
  0
LTYPE
  2
dashed_double-dotted
 70
   64
  3
---------    -    -    ---------
 72
   65
 73
    6
 40
11
 49
6
 49
-1.5
 49
0.25
 49
-1.5
 49
0.25
 49
-1.5
  0
LTYPE
  2
double-dashed_double-dotted
 70
   64
  3
-----   ---------   -   -   ----
 72
   65
 73
    8
 40
18.5
 49
6
 49
-1.5
 49
6
 49
-1.5
 49
0.25
 49
-1.5
 49
0.25
 49
-1.5
  0
LTYPE
  2
dashed_triplicate-dotted
 70
   64
  3
-------    -    -    -    ------
 72
   65
 73
    8
 40
12.75
 49
6
 49
-1.5
 49
0.25
 49
-1.5
 49
0.25
 49
-1.5
 49
0.25
 49
-1.5
  0
LTYPE
  2
double-dashed_triplicate-dotted
 70
   64
  3
-----  ---------  -  -  -  -----
 72
   65
 73
   10
 40
20.25
 49
6
 49
-1.5
 49
6
 49
-1.5
 49
0.25
 49
-1.5
 49
0.25
 49
-1.5
 49
0.25
 49
-1.5
  0
LTYPE
  2
undefined
 70
   64
  3
--------------------------------
 72
   65
 73
    0
 40
0
  0
ENDTAB
  0
TABLE
  2
STYLE
  5
3
100
AcDbSymbolTable
 70
     1
  0
STYLE
  5
10
100
AcDbSymbolTableRecord
100
AcDbTextStyleTableRecord
  2
STANDARD
 70
     0
 40
0.0
 41
1.0
 50
0.0
 71
     0
 42
0.2
  3
txt
  4
bigfont.shx
  0
STYLE
  5
26
100
AcDbSymbolTableRecord
100
AcDbTextStyleTableRecord
  2
TATEGAKI
 70
    68
 40
0.0
 41
1.0
 50
0.0
 71
     0
 42
1.0
  3
txt
  4
bigfont.shx
  0
ENDTAB
  0
TABLE
  2
LAYER
 70
    2
  0
LAYER
  2
_0-0_
 70
   64
 62
    7
  6
CONTINUOUS
  0
LAYER
  2
ADD_LINE
 70
   64
 62
    7
  6
CONTINUOUS
  0
ENDTAB
  0
ENDSEC
  0
SECTION
  2
BLOCKS
  0
ENDSEC
  0
SECTION
  2
ENTITIES
  0
LINE
  8
_0-0_
  6
CONTINUOUS
 62
    7
 10
8310.103653663813
 20
2504.1032301920923
 11
8310.103653663813
 21
3216.1117751139673
  0
LINE
  8
_0-0_
  6
CONTINUOUS
 62
    7
 10
8310.103653663813
 20
3216.1117751139673
 11
9022.1121222917427
 21
3216.1117751139673
  0
LINE
  8
_0-0_
  6
CONTINUOUS
 62
    7
 10
9022.1121222917427
 20
3216.1117751139673
 11
9022.1121222917427
 21
2504.1032301920923
  0
LINE
  8
_0-0_
  6
CONTINUOUS
 62
    7
 10
9022.1121222917427
 20
2504.1032301920923
 11
8310.103653663813
 21
2504.1032301920923
  0
LINE
  8
_0-0_
  6
CONTINUOUS
 62
    7
 10
8335.0158240739693
 20
2507.2643630045918
 11
8335.0158240739693
 21
2141.4003493327173
  0
LINE
  8
_0-0_
  6
CONTINUOUS
 62
    7
 10
8335.0158240739693
 20
2141.4003493327173
 11
8875.1065070573677
 21
2141.4003493327173
  0
LINE
  8
_0-0_
  6
CONTINUOUS
 62
    7
 10
8875.1065070573677
 20
2141.4003493327173
 11
8875.1065070573677
 21
2504.1032301920923
  0
LINE
  8
_0-0_
  6
CENTER2
 62
    7
 10
8844.1347663347115
 20
2354.1049391764673
 11
8441.4821555559029
 21
2354.1049391764673
  0
LINE
  8
_0-0_
  6
CENTER2
 62
    7
 10
8666.1078803483833
 20
3298.4486891764659
 11
8666.1078803483833
 21
2184.1396071452168
  0
LINE
  8
_0-0_
  6
CONTINUOUS
 62
    7
 10
4646.3202216569771
 20
3802.6081130045918
 11
4625.1041572038521
 21
3781.3971755045914
  0
LINE
  8
_0-0_
  6
CONTINUOUS
 62
    7
 10
4625.1041572038521
 20
1965.1571852702161
 11
4641.7965400163521
 21
1940.2299391764673
  0
LINE
  8
_0-0_
  6
CONTINUOUS
 62
    7
 10
5760.9713447038512
 20
1478.9389235514661
 11
5790.4022529069762
 21
1473.1122633952168
  0
LINE
  8
_0-0_
  6
CONTINUOUS
 62
    7
 10
6903.893952125728
 20
3802.6081130045918
 11
6925.1098945085387
 21
3781.3971755045914
  0
LINE
  8
_0-0_
  6
CONTINUOUS
 62
    7
 10
5827.4979560319762
 20
2674.3097731608414
 11
5827.4979560319762
 21
2974.3112380045914
  0
LINE
  8
_0-0_
  6
CONTINUOUS
 62
    7
 10
6097.4986884538521
 20
2674.3097731608414
 11
6097.4986884538521
 21
2974.3112380045914
  0
LINE
  8
_0-0_
  6
CONTINUOUS
 62
    7
 10
5692.4925849382271
 20
2639.3149001139664
 11
6232.4989325944771
 21
2639.3149001139664
  0
LINE
  8
_0-0_
  6
CONTINUOUS
 62
    7
 10
5692.4925849382271
 20
3009.3112380045923
 11
6232.4989325944771
 21
3009.3112380045923
  0
LINE
  8
_0-0_
  6
CONTINUOUS
 62
    7
 10
5692.4925849382271
 20
2674.3097731608414
 11
6232.4989325944771
 21
2674.3097731608414
  0
LINE
  8
_0-0_
  6
CONTINUOUS
 62
    7
 10
6232.4989325944771
 20
2974.3112380045914
 11
5692.4925849382271
 21
2974.3112380045914
  0
LINE
  8
_0-0_
  6
CONTINUOUS
 62
    7
 10
5742.4952704851012
 20
2674.3097731608414
 11
5742.4952704851012
 21
3009.3112380045923
  0
LINE
  8
_0-0_
  6
CONTINUOUS
 62
    7
 10
6182.4962470476021
 20
2674.3097731608414
 11
6182.4962470476021
 21
3009.3112380045923
  0
LINE
  8
_0-0_
  6
CONTINUOUS
 62
    7
 10
5778.4960029069762
 20
3529.2065016764668
 11
5810.4933173601021
 21
3552.3053786295918
  0
LINE
  8
_0-0_
  6
CONTINUOUS
 62
    7
 10
5810.4933173601021
 20
3552.3053786295918
 11
6114.4933173601021
 21
3552.3053786295918
  0
LINE
  8
_0-0_
  6
CONTINUOUS
 62
    7
 10
6114.4933173601021
 20
3552.3053786295918
 11
6146.4955146257271
 21
3529.2065016764668
  0
LINE
  8
_0-0_
  6
CONTINUOUS
 62
    7
 10
5778.4960029069762
 20
3482.3053786295914
 11
5778.4960029069762
 21
3529.2065016764668
  0
LINE
  8
_0-0_
  6
CONTINUOUS
 62
    7
 10
5778.4960029069762
 20
3529.2065016764668
 11
6146.4955146257271
 21
3529.2065016764668
  0
LINE
  8
_0-0_
  6
CONTINUOUS
 62
    7
 10
6146.4955146257271
 20
3529.2065016764668
 11
6146.4955146257271
 21
3482.3053786295914
  0
LINE
  8
_0-0_
  6
CONTINUOUS
 62
    7
 10
5712.4945380632271
 20
3009.3112380045923
 11
5712.4945380632271
 21
3109.3065993327173
  0
LINE
  8
_0-0_
  6
CONTINUOUS
 62
    7
 10
5712.4945380632271
 20
3109.3065993327173
 11
6212.4969794694762
 21
3109.3065993327173
  0
LINE
  8
_0-0_
  6
CONTINUOUS
 62
    7
 10
6212.4969794694762
 20
3109.3065993327173
 11
6212.4969794694762
 21
3009.3112380045923
  0
LINE
  8
_0-0_
  6
CONTINUOUS
 62
    7
 10
5712.4945380632271
 20
3109.3065993327173
 11
5692.4925849382271
 21
3109.3065993327173
  0
LINE
  8
_0-0_
  6
CONTINUOUS
 62
    7
 10
5692.4925849382271
 20
3109.3065993327173
 11
5692.4925849382271
 21
3009.3112380045923
  0
LINE
  8
_0-0_
  6
CONTINUOUS
 62
    7
 10
6232.4989325944771
 20
3009.3112380045923
 11
6232.4989325944771
 21
3109.3065993327173
  0
LINE
  8
_0-0_
  6
CONTINUOUS
 62
    7
 10
6232.4989325944771
 20
3109.3065993327173
 11
6212.4969794694762
 21
3109.3065993327173
  0
LINE
  8
_0-0_
  6
CONTINUOUS
 62
    7
 10
6162.4942939226021
 20
3109.3065993327173
 11
6162.4942939226021
 21
3402.3070876139668
  0
LINE
  8
_0-0_
  6
CONTINUOUS
 62
    7
 10
6162.4942939226021
 20
3402.3070876139668
 11
5762.4972236101012
 21
3402.3070876139668
  0
LINE
  8
_0-0_
  6
CONTINUOUS
 62
    7
 10
5762.4972236101012
 20
3402.3070876139668
 11
5762.4972236101012
 21
3109.3065993327173
  0
LINE
  8
_0-0_
  6
CONTINUOUS
 62
    7
 10
5712.4945380632271
 20
2639.3149001139664
 11
5712.4945380632271
 21
2559.3065993327173
  0
LINE
  8
_0-0_
  6
CONTINUOUS
 62
    7
 10
5712.4945380632271
 20
2559.3065993327173
 11
6212.4969794694762
 21
2559.3065993327173
  0
LINE
  8
_0-0_
  6
CONTINUOUS
 62
    7
 10
6212.4969794694762
 20
2559.3065993327173
 11
6212.4969794694762
 21
2639.3149001139664
  0
LINE
  8
_0-0_
  6
CONTINUOUS
 62
    7
 10
5692.4925849382271
 20
3009.3112380045923
 11
5692.4925849382271
 21
2559.3065993327173
  0
LINE
  8
_0-0_
  6
CONTINUOUS
 62
    7
 10
5692.4925849382271
 20
2559.3065993327173
 11
5712.4945380632271
 21
2559.3065993327173
  0
LINE
  8
_0-0_
  6
CONTINUOUS
 62
    7
 10
6212.4969794694762
 20
2559.3065993327173
 11
6232.4989325944771
 21
2559.3065993327173
  0
LINE
  8
_0-0_
  6
CONTINUOUS
 62
    7
 10
6232.4989325944771
 20
2559.3065993327173
 11
6232.4989325944771
 21
3009.3112380045923
  0
LINE
  8
_0-0_
  6
CONTINUOUS
 62
    7
 10
5762.4972236101012
 20
2559.3065993327173
 11
5762.4972236101012
 21
2422.3046462077164
  0
LINE
  8
_0-0_
  6
CONTINUOUS
 62
    7
 10
5762.4972236101012
 20
2422.3046462077164
 11
6162.4942939226021
 21
2422.3046462077164
  0
LINE
  8
_0-0_
  6
CONTINUOUS
 62
    7
 10
6162.4942939226021
 20
2422.3046462077164
 11
6162.4942939226021
 21
2559.3065993327173
  0
LINE
  8
_0-0_
  6
CONTINUOUS
 62
    7
 10
5732.5016181413521
 20
3402.3070876139668
 11
5732.5016181413521
 21
3482.3053786295914
  0
LINE
  8
_0-0_
  6
CONTINUOUS
 62
    7
 10
5732.5016181413521
 20
3482.3053786295914
 11
6192.4999091569771
 21
3482.3053786295914
  0
LINE
  8
_0-0_
  6
CONTINUOUS
 62
    7
 10
6192.4999091569771
 20
3482.3053786295914
 11
6192.4999091569771
 21
3402.3070876139668
  0
LINE
  8
_0-0_
  6
CONTINUOUS
 62
    7
 10
6192.4999091569771
 20
3402.3070876139668
 11
5732.5016181413521
 21
3402.3070876139668
  0
LINE
  8
_0-0_
  6
CENTER2
 62
    7
 10
6254.2054755632262
 20
1687.2836501139673
 11
6254.2054755632262
 21
3146.4884840983414
  0
LINE
  8
_0-0_
  6
CONTINUOUS
 62
    7
 10
4573.1070868913521
 20
1962.814411832717
 11
5288.1034247819771
 21
1962.814411832717
  0
LINE
  8
_0-0_
  6
CONTINUOUS
 62
    7
 10
5288.1034247819771
 20
1962.814411832717
 11
5288.1034247819771
 21
1912.8114821452173
  0
LINE
  8
_0-0_
  6
CONTINUOUS
 62
    7
 10
5288.1034247819771
 20
1912.8114821452173
 11
5338.1009833757271
 21
1912.8114821452173
  0
LINE
  8
_0-0_
  6
CONTINUOUS
 62
    7
 10
5338.1009833757271
 20
1912.8114821452173
 11
5338.1009833757271
 21
1962.814411832717
  0
LINE
  8
_0-0_
  6
CONTINUOUS
 62
    7
 10
4573.1070868913521
 20
1962.814411832717
 11
4573.1070868913521
 21
1912.8114821452173
  0
LINE
  8
_0-0_
  6
CONTINUOUS
 62
    7
 10
4573.1070868913521
 20
1912.8114821452173
 11
4523.1044013444762
 21
1912.8114821452173
  0
LINE
  8
_0-0_
  6
CONTINUOUS
 62
    7
 10
4523.1044013444762
 20
1912.8114821452173
 11
4523.1044013444762
 21
1962.814411832717
  0
LINE
  8
_0-0_
  6
CONTINUOUS
 62
    7
 10
4523.1044013444762
 20
2062.8149001139664
 11
5338.1009833757271
 21
2062.8149001139664
  0
LINE
  8
_0-0_
  6
CONTINUOUS
 62
    7
 10
4523.1044013444762
 20
2062.8149001139664
 11
4523.1044013444762
 21
1962.814411832717
  0
LINE
  8
_0-0_
  6
CONTINUOUS
 62
    7
 10
5338.1009833757271
 20
1962.814411832717
 11
5338.1009833757271
 21
2062.8149001139664
  0
LINE
  8
_0-0_
  6
CONTINUOUS
 62
    7
 10
4730.6068427507271
 20
1962.814411832717
 11
4730.6068427507271
 21
1739.0160719889664
  0
LINE
  8
_0-0_
  6
CONTINUOUS
 62
    7
 10
4730.6068427507271
 20
1739.0160719889664
 11
5130.6036689226021
 21
1739.0160719889664
  0
LINE
  8
_0-0_
  6
CONTINUOUS
 62
    7
 10
5130.6036689226021
 20
1739.0160719889664
 11
5130.6036689226021
 21
1962.814411832717
  0
LINE
  8
_0-0_
  6
CONTINUOUS
 62
    7
 10
4770.5961005632271
 20
2062.8149001139664
 11
4770.5961005632271
 21
2309.0131423014668
  0
LINE
  8
_0-0_
  6
CONTINUOUS
 62
    7
 10
5090.5995185319771
 20
2062.8149001139664
 11
5090.5995185319771
 21
2309.0131423014668
  0
LINE
  8
_0-0_
  6
CONTINUOUS
 62
    7
 10
4770.5961005632271
 20
2555.3107497233414
 11
4770.5961005632271
 21
2309.0131423014668
  0
LINE
  8
_0-0_
  6
CONTINUOUS
 62
    7
 10
5090.5995185319771
 20
2555.3107497233414
 11
5090.5995185319771
 21
2309.0131423014668
  0
LINE
  8
_0-0_
  6
CONTINUOUS
 62
    7
 10
4573.1070868913521
 20
2655.3061110514664
 11
5288.1034247819771
 21
2655.3061110514664
  0
LINE
  8
_0-0_
  6
CONTINUOUS
 62
    7
 10
4573.1070868913521
 20
2655.3061110514664
 11
4573.1070868913521
 21
2705.3087965983423
  0
LINE
  8
_0-0_
  6
CONTINUOUS
 62
    7
 10
4573.1070868913521
 20
2705.3087965983423
 11
4523.1044013444762
 21
2705.3087965983423
  0
LINE
  8
_0-0_
  6
CONTINUOUS
 62
    7
 10
4523.1044013444762
 20
2705.3087965983423
 11
4523.1044013444762
 21
2655.3061110514664
  0
LINE
  8
_0-0_
  6
CONTINUOUS
 62
    7
 10
4523.1044013444762
 20
2555.3107497233414
 11
5338.1009833757271
 21
2555.3107497233414
  0
LINE
  8
_0-0_
  6
CONTINUOUS
 62
    7
 10
4523.1044013444762
 20
2555.3107497233414
 11
4523.1044013444762
 21
2655.3061110514664
  0
LINE
  8
_0-0_
  6
CONTINUOUS
 62
    7
 10
5288.1034247819771
 20
2655.3061110514664
 11
5288.1034247819771
 21
2705.3087965983423
  0
LINE
  8
_0-0_
  6
CONTINUOUS
 62
    7
 10
5288.1034247819771
 20
2705.3087965983423
 11
5338.1009833757271
 21
2705.3087965983423
  0
LINE
  8
_0-0_
  6
CONTINUOUS
 62
    7
 10
5338.1009833757271
 20
2705.3087965983423
 11
5338.1009833757271
 21
2655.3061110514664
  0
LINE
  8
_0-0_
  6
CONTINUOUS
 62
    7
 10
5338.1009833757271
 20
2655.3061110514664
 11
5338.1009833757271
 21
2555.3107497233414
  0
LINE
  8
_0-0_
  6
CONTINUOUS
 62
    7
 10
5155.6000068132271
 20
2655.3061110514664
 11
5155.6000068132271
 21
2984.0099684733418
  0
LINE
  8
_0-0_
  6
CONTINUOUS
 62
    7
 10
5155.6000068132271
 20
2984.0099684733418
 11
4705.6053779069771
 21
2984.0099684733418
  0
LINE
  8
_0-0_
  6
CONTINUOUS
 62
    7
 10
4705.6053779069771
 20
2984.0099684733418
 11
4705.6053779069771
 21
2655.3061110514664
  0
LINE
  8
_0-0_
  6
CONTINUOUS
 62
    7
 10
5155.6000068132271
 20
2984.0099684733418
 11
5180.6014716569771
 21
2984.0099684733418
  0
LINE
  8
_0-0_
  6
CONTINUOUS
 62
    7
 10
5180.6014716569771
 20
2984.0099684733418
 11
5180.6014716569771
 21
3084.0155837077164
  0
LINE
  8
_0-0_
  6
CONTINUOUS
 62
    7
 10
5180.6014716569771
 20
3084.0155837077164
 11
4930.6026923601021
 21
3084.0155837077164
  0
LINE
  8
_0-0_
  6
CONTINUOUS
 62
    7
 10
4705.6053779069771
 20
2984.0099684733418
 11
4680.6041572038521
 21
2984.0099684733418
  0
LINE
  8
_0-0_
  6
CONTINUOUS
 62
    7
 10
4680.6041572038521
 20
2984.0099684733418
 11
4680.6041572038521
 21
3084.0155837077164
  0
LINE
  8
_0-0_
  6
CONTINUOUS
 62
    7
 10
4680.6041572038521
 20
3084.0155837077164
 11
4930.6026923601021
 21
3084.0155837077164
  0
LINE
  8
_0-0_
  6
CONTINUOUS
 62
    7
 10
4705.6053779069771
 20
3084.0155837077164
 11
4705.6053779069771
 21
3164.0138747233423
  0
LINE
  8
_0-0_
  6
CONTINUOUS
 62
    7
 10
4705.6053779069771
 20
3164.0138747233423
 11
5155.6000068132271
 21
3164.0138747233423
  0
LINE
  8
_0-0_
  6
CONTINUOUS
 62
    7
 10
5155.6000068132271
 20
3164.0138747233423
 11
5155.6000068132271
 21
3084.0155837077164
  0
LINE
  8
_0-0_
  6
CONTINUOUS
 62
    7
 10
4705.6053779069771
 20
3164.0138747233423
 11
4755.6080634538521
 21
3234.0136305827173
  0
LINE
  8
_0-0_
  6
CONTINUOUS
 62
    7
 10
4755.6080634538521
 20
3234.0136305827173
 11
5105.6024482194762
 21
3234.0136305827173
  0
LINE
  8
_0-0_
  6
CONTINUOUS
 62
    7
 10
5105.6024482194762
 20
3234.0136305827173
 11
5155.6000068132271
 21
3164.0138747233423
  0
LINE
  8
_0-0_
  6
CONTINUOUS
 62
    7
 10
5338.1009833757271
 20
2062.8149001139664
 11
5338.1009833757271
 21
2555.3107497233414
  0
LINE
  8
_0-0_
  6
CONTINUOUS
 62
    7
 10
5288.1034247819771
 20
2062.8149001139664
 11
5288.1034247819771
 21
2555.3107497233414
  0
LINE
  8
_0-0_
  6
CONTINUOUS
 62
    7
 10
4523.1044013444762
 20
2062.8149001139664
 11
4523.1044013444762
 21
2555.3107497233414
  0
LINE
  8
_0-0_
  6
CONTINUOUS
 62
    7
 10
4573.1070868913521
 20
2062.8149001139664
 11
4573.1070868913521
 21
2555.3107497233414
  0
LINE
  8
_0-0_
  6
CONTINUOUS
 62
    7
 10
4705.6053779069771
 20
2724.0077712077168
 11
4475.6039130632271
 21
2724.0077712077168
  0
LINE
  8
_0-0_
  6
CONTINUOUS
 62
    7
 10
4475.6039130632271
 20
2724.0077712077168
 11
4475.6039130632271
 21
2984.0099684733418
  0
LINE
  8
_0-0_
  6
CONTINUOUS
 62
    7
 10
4475.6039130632271
 20
2984.0099684733418
 11
4680.6041572038521
 21
2984.0099684733418
  0
LINE
  8
_0-0_
  6
CONTINUOUS
 62
    7
 10
4730.6068427507271
 20
1879.0107008952164
 11
4450.6024482194771
 21
1879.0107008952164
  0
LINE
  8
_0-0_
  6
CONTINUOUS
 62
    7
 10
4523.1044013444762
 20
1946.518025113967
 11
4503.1024482194771
 21
1946.518025113967
  0
LINE
  8
_0-0_
  6
CONTINUOUS
 62
    7
 10
4503.1024482194771
 20
1946.518025113967
 11
4503.1024482194771
 21
1879.0107008952164
  0
LINE
  8
_0-0_
  6
CONTINUOUS
 62
    7
 10
7397.3857734147887
 20
2575.0595290202173
 11
7397.3857734147887
 21
3175.0573317545914
  0
LINE
  8
_0-0_
  6
CONTINUOUS
 62
    7
 10
7397.3857734147887
 20
3175.0573317545914
 11
7997.3835761491646
 21
3175.0573317545914
  0
LINE
  8
_0-0_
  6
CONTINUOUS
 62
    7
 10
7997.3835761491646
 20
3175.0573317545914
 11
7997.3835761491646
 21
2575.0595290202173
  0
LINE
  8
_0-0_
  6
CONTINUOUS
 62
    7
 10
7997.3835761491646
 20
2575.0595290202173
 11
7397.3857734147887
 21
2575.0595290202173
  0
LINE
  8
_0-0_
  6
CONTINUOUS
 62
    7
 10
8916.106568092524
 20
2324.1093337077159
 11
8771.910279030024
 21
2214.7001540202168
  0
LINE
  8
_0-0_
  6
CONTINUOUS
 62
    7
 10
8916.106568092524
 20
2384.1107985514668
 11
8771.910279030024
 21
2493.6093337077168
  0
LINE
  8
_0-0_
  6
CONTINUOUS
 62
    7
 10
8916.106568092524
 20
2324.1093337077159
 11
8916.106568092524
 21
2384.1107985514668
  0
LINE
  8
_0-0_
  6
CONTINUOUS
 62
    7
 10
8856.1102607194771
 20
2364.1088454264664
 11
9031.1098334733833
 21
2364.1088454264664
  0
LINE
  8
_0-0_
  6
CONTINUOUS
 62
    7
 10
9031.1098334733833
 20
2364.1088454264664
 11
9031.1098334733833
 21
2344.1064040202164
  0
LINE
  8
_0-0_
  6
CONTINUOUS
 62
    7
 10
9031.1098334733833
 20
2344.1064040202164
 11
8856.1102607194771
 21
2344.1064040202164
  0
LINE
  8
_0-0_
  6
CONTINUOUS
 62
    7
 10
8856.1102607194771
 20
2344.1064040202164
 11
8856.1102607194771
 21
2364.1088454264664
  0
LINE
  8
_0-0_
  6
CONTINUOUS
 62
    7
 10
8856.1102607194771
 20
2354.1049391764673
 11
9031.1098334733833
 21
2354.1049391764673
  0
LINE
  8
_0-0_
  6
CONTINUOUS
 62
    7
 10
8931.1143195573677
 20
2318.1044508952168
 11
9031.1098334733833
 21
2318.1044508952168
  0
LINE
  8
_0-0_
  6
CONTINUOUS
 62
    7
 10
9031.1098334733833
 20
2318.1044508952168
 11
9031.1098334733833
 21
2298.1073805827164
  0
LINE
  8
_0-0_
  6
CONTINUOUS
 62
    7
 10
9031.1098334733833
 20
2298.1073805827164
 11
8931.1143195573677
 21
2298.1073805827164
  0
LINE
  8
_0-0_
  6
CONTINUOUS
 62
    7
 10
8931.1143195573677
 20
2298.1073805827164
 11
8931.1143195573677
 21
2318.1044508952168
  0
LINE
  8
_0-0_
  6
CONTINUOUS
 62
    7
 10
8931.1143195573677
 20
2390.1156813639673
 11
9031.1098334733833
 21
2390.1156813639673
  0
LINE
  8
_0-0_
  6
CONTINUOUS
 62
    7
 10
9031.1098334733833
 20
2390.1156813639673
 11
9031.1098334733833
 21
2410.1029860514673
  0
LINE
  8
_0-0_
  6
CONTINUOUS
 62
    7
 10
9031.1098334733833
 20
2410.1029860514673
 11
8931.1143195573677
 21
2410.1029860514673
  0
LINE
  8
_0-0_
  6
CONTINUOUS
 62
    7
 10
8931.1143195573677
 20
2410.1029860514673
 11
8931.1143195573677
 21
2390.1156813639673
  0
LINE
  8
_0-0_
  6
CONTINUOUS
 62
    7
 10
8956.1057441179146
 20
2298.1073805827164
 11
8956.1057441179146
 21
2258.1029860514664
  0
LINE
  8
_0-0_
  6
CONTINUOUS
 62
    7
 10
8956.1057441179146
 20
2258.1029860514664
 11
9006.1084601823677
 21
2258.1029860514664
  0
LINE
  8
_0-0_
  6
CONTINUOUS
 62
    7
 10
9006.1084601823677
 20
2258.1029860514664
 11
9006.1084601823677
 21
2298.1073805827164
  0
LINE
  8
_0-0_
  6
CONTINUOUS
 62
    7
 10
9011.1127021257253
 20
2318.1044508952168
 11
9011.1127021257253
 21
2344.1064040202164
  0
LINE
  8
_0-0_
  6
CONTINUOUS
 62
    7
 10
9011.1127021257253
 20
2364.1088454264664
 11
9011.1127021257253
 21
2390.1156813639673
  0
LINE
  8
_0-0_
  6
CONTINUOUS
 62
    7
 10
8951.1114203874458
 20
2318.1044508952168
 11
8951.1114203874458
 21
2344.1064040202164
  0
LINE
  8
_0-0_
  6
CONTINUOUS
 62
    7
 10
8951.1114203874458
 20
2364.1088454264664
 11
8951.1114203874458
 21
2390.1156813639673
  0
LINE
  8
_0-0_
  6
CONTINUOUS
 62
    7
 10
8961.109986061274
 20
2410.1029860514673
 11
8961.109986061274
 21
2425.1107985514664
  0
LINE
  8
_0-0_
  6
CONTINUOUS
 62
    7
 10
8961.109986061274
 20
2425.1107985514664
 11
9001.1042182390083
 21
2425.1107985514664
  0
LINE
  8
_0-0_
  6
CONTINUOUS
 62
    7
 10
9001.1042182390083
 20
2425.1107985514664
 11
9001.1042182390083
 21
2410.1029860514673
  0
LINE
  8
_0-0_
  6
CONTINUOUS
 62
    7
 10
8476.1055152360786
 20
2364.1088454264664
 11
8301.1059424821724
 21
2364.1088454264664
  0
LINE
  8
_0-0_
  6
CONTINUOUS
 62
    7
 10
8301.1059424821724
 20
2364.1088454264664
 11
8301.1059424821724
 21
2344.1064040202164
  0
LINE
  8
_0-0_
  6
CONTINUOUS
 62
    7
 10
8301.1059424821724
 20
2344.1064040202164
 11
8476.1055152360786
 21
2344.1064040202164
  0
LINE
  8
_0-0_
  6
CONTINUOUS
 62
    7
 10
8476.1055152360786
 20
2344.1064040202164
 11
8476.1055152360786
 21
2364.1088454264664
  0
LINE
  8
_0-0_
  6
CONTINUOUS
 62
    7
 10
8476.1055152360786
 20
2354.1049391764673
 11
8301.1059424821724
 21
2354.1049391764673
  0
LINE
  8
_0-0_
  6
CONTINUOUS
 62
    7
 10
8401.101456398188
 20
2318.1044508952168
 11
8301.1059424821724
 21
2318.1044508952168
  0
LINE
  8
_0-0_
  6
CONTINUOUS
 62
    7
 10
8301.1059424821724
 20
2318.1044508952168
 11
8301.1059424821724
 21
2298.1073805827164
  0
LINE
  8
_0-0_
  6
CONTINUOUS
 62
    7
 10
8301.1059424821724
 20
2298.1073805827164
 11
8401.101456398188
 21
2298.1073805827164
  0
LINE
  8
_0-0_
  6
CONTINUOUS
 62
    7
 10
8401.101456398188
 20
2298.1073805827164
 11
8401.101456398188
 21
2318.1044508952168
  0
LINE
  8
_0-0_
  6
CONTINUOUS
 62
    7
 10
8401.101456398188
 20
2390.1156813639673
 11
8301.1059424821724
 21
2390.1156813639673
  0
LINE
  8
_0-0_
  6
CONTINUOUS
 62
    7
 10
8301.1059424821724
 20
2390.1156813639673
 11
8301.1059424821724
 21
2410.1029860514673
  0
LINE
  8
_0-0_
  6
CONTINUOUS
 62
    7
 10
8301.1059424821724
 20
2410.1029860514673
 11
8401.101456398188
 21
2410.1029860514673
  0
LINE
  8
_0-0_
  6
CONTINUOUS
 62
    7
 10
8401.101456398188
 20
2410.1029860514673
 11
8401.101456398188
 21
2390.1156813639673
  0
LINE
  8
_0-0_
  6
CONTINUOUS
 62
    7
 10
8376.110001320063
 20
2298.1073805827164
 11
8376.110001320063
 21
2258.1029860514664
  0
LINE
  8
_0-0_
  6
CONTINUOUS
 62
    7
 10
8376.110001320063
 20
2258.1029860514664
 11
8326.107300514399
 21
2258.1029860514664
  0
LINE
  8
_0-0_
  6
CONTINUOUS
 62
    7
 10
8326.107300514399
 20
2258.1029860514664
 11
8326.107300514399
 21
2298.1073805827164
  0
LINE
  8
_0-0_
  6
CONTINUOUS
 62
    7
 10
8321.1030585710396
 20
2318.1044508952168
 11
8321.1030585710396
 21
2344.1064040202164
  0
LINE
  8
_0-0_
  6
CONTINUOUS
 62
    7
 10
8321.1030585710396
 20
2364.1088454264664
 11
8321.1030585710396
 21
2390.1156813639673
  0
LINE
  8
_0-0_
  6
CONTINUOUS
 62
    7
 10
8381.1142432634224
 20
2318.1044508952168
 11
8381.1142432634224
 21
2344.1064040202164
  0
LINE
  8
_0-0_
  6
CONTINUOUS
 62
    7
 10
8381.1142432634224
 20
2364.1088454264664
 11
8381.1142432634224
 21
2390.1156813639673
  0
LINE
  8
_0-0_
  6
CONTINUOUS
 62
    7
 10
8371.1057746354927
 20
2410.1029860514673
 11
8371.1057746354927
 21
2425.1107985514664
  0
LINE
  8
_0-0_
  6
CONTINUOUS
 62
    7
 10
8371.1057746354927
 20
2425.1107985514664
 11
8331.1115271989693
 21
2425.1107985514664
  0
LINE
  8
_0-0_
  6
CONTINUOUS
 62
    7
 10
8331.1115271989693
 20
2425.1107985514664
 11
8331.1115271989693
 21
2410.1029860514673
  0
LINE
  8
_0-0_
  6
CONTINUOUS
 62
    7
 10
8416.1091926042409
 20
2324.1093337077159
 11
8560.3054788057198
 21
2214.7001540202168
  0
LINE
  8
_0-0_
  6
CONTINUOUS
 62
    7
 10
8416.1091926042409
 20
2384.1107985514668
 11
8560.3054788057198
 21
2493.6093337077168
  0
LINE
  8
_0-0_
  6
CONTINUOUS
 62
    7
 10
8416.1091926042409
 20
2324.1093337077159
 11
8416.1091926042409
 21
2384.1107985514668
  0
LINE
  8
_0-0_
  6
CENTER2
 62
    7
 10
8256.2065741960396
 20
2354.1049391764673
 11
9063.7066962663503
 21
2354.1049391764673
  0
LINE
  8
_0-0_
  6
CONTINUOUS
 62
    4
 10
33666.099518531977
 20
3298.4486891764659
 11
33666.099518531977
 21
2184.1396071452168
  0
LINE
  8
_0-0_
  6
CENTER2
 62
    7
 10
4625.1041572038521
 20
2860.1076247233423
 11
29306.980377906977
 21
2860.1076247233423
  0
LINE
  8
_0-0_
  6
CONTINUOUS
 62
    3
 10
12924.724030250727
 20
2525.1012770670914
 11
12924.724030250727
 21
2860.1076247233423
  0
LINE
  8
_0-0_
  6
CONTINUOUS
 62
    3
 10
12806.220124000725
 20
2523.2086989420923
 11
12806.220124000725
 21
2860.1076247233423
  0
LINE
  8
_0-0_
  6
CONTINUOUS
 62
    3
 10
6828.2284247819771
 20
2323.7079665202173
 11
6828.2284247819771
 21
2258.7074782389664
  0
LINE
  8
_0-0_
  6
CONTINUOUS
 62
    3
 10
12924.724030250727
 20
3195.0990798014673
 11
12924.724030250727
 21
2860.1076247233423
  0
LINE
  8
_0-0_
  6
CONTINUOUS
 62
    3
 10
12806.220124000725
 20
3197.1056715983423
 11
12806.220124000725
 21
2860.1076247233423
  0
LINE
  8
_0-0_
  6
CONTINUOUS
 62
    3
 10
6828.2284247819771
 20
3396.6012770670914
 11
6828.2284247819771
 21
3461.6066481608414
  0
LINE
  8
_0-0_
  6
CONTINUOUS
 62
    3
 10
13996.974030250727
 20
2460.1056715983418
 11
13996.974030250727
 21
2525.1012770670914
  0
LINE
  8
_0-0_
  6
CONTINUOUS
 62
    3
 10
13996.974030250727
 20
2460.1056715983418
 11
12865.478424781977
 21
2460.1056715983418
  0
LINE
  8
_0-0_
  6
CONTINUOUS
 62
    3
 10
12865.478424781977
 20
2460.1056715983418
 11
6828.2284247819771
 21
2258.7074782389664
  0
LINE
  8
_0-0_
  6
CONTINUOUS
 62
    3
 10
13996.974030250727
 20
2525.1012770670914
 11
12863.849518531975
 21
2525.1012770670914
  0
LINE
  8
_0-0_
  6
CONTINUOUS
 62
    3
 10
12863.849518531975
 20
2525.1012770670914
 11
6828.2284247819771
 21
2323.7079665202173
  0
LINE
  8
_0-0_
  6
CONTINUOUS
 62
    3
 10
13996.974030250727
 20
3260.1093337077173
 11
12865.478424781977
 21
3260.1093337077173
  0
LINE
  8
_0-0_
  6
CONTINUOUS
 62
    3
 10
12865.478424781977
 20
3260.1093337077173
 11
6828.2284247819771
 21
3461.6066481608414
  0
LINE
  8
_0-0_
  6
CONTINUOUS
 62
    3
 10
13996.974030250727
 20
3195.0990798014673
 11
12863.849518531975
 21
3195.0990798014673
  0
LINE
  8
_0-0_
  6
CONTINUOUS
 62
    3
 10
12863.849518531975
 20
3195.0990798014673
 11
6828.2284247819771
 21
3396.6012770670914
  0
LINE
  8
_0-0_
  6
CONTINUOUS
 62
    3
 10
13996.974030250727
 20
3260.1093337077173
 11
13996.974030250727
 21
3195.0990798014673
  0
LINE
  8
_0-0_
  6
CONTINUOUS
 62
    3
 10
13759.973053688227
 20
2555.1068923014668
 11
14115.477936500727
 21
2555.1068923014668
  0
LINE
  8
_0-0_
  6
CONTINUOUS
 62
    3
 10
14115.477936500727
 20
2555.1068923014668
 11
14115.477936500727
 21
2525.1012770670914
  0
LINE
  8
_0-0_
  6
CONTINUOUS
 62
    3
 10
14115.477936500727
 20
2525.1012770670914
 11
13759.973053688227
 21
2525.1012770670914
  0
LINE
  8
_0-0_
  6
CONTINUOUS
 62
    3
 10
13759.973053688227
 20
2525.1012770670914
 11
13759.973053688227
 21
2555.1068923014668
  0
LINE
  8
_0-0_
  6
CONTINUOUS
 62
    3
 10
13996.974030250727
 20
2460.1056715983418
 11
14115.477936500727
 21
2460.1056715983418
  0
LINE
  8
_0-0_
  6
CONTINUOUS
 62
    3
 10
14115.477936500727
 20
2460.1056715983418
 11
14115.477936500727
 21
2430.1049391764664
  0
LINE
  8
_0-0_
  6
CONTINUOUS
 62
    3
 10
14115.477936500727
 20
2430.1049391764664
 11
13759.973053688227
 21
2430.1049391764664
  0
LINE
  8
_0-0_
  6
CONTINUOUS
 62
    3
 10
13759.973053688227
 20
2430.1049391764664
 11
13759.973053688227
 21
2460.1056715983418
  0
LINE
  8
_0-0_
  6
CENTER2
 62
    3
 10
14056.225983375725
 20
2384.9032790202173
 11
14056.225983375725
 21
2603.4052321452164
  0
LINE
  8
_0-0_
  6
CONTINUOUS
 62
    3
 10
13759.973053688227
 20
3165.1032301920923
 11
14115.477936500727
 21
3165.1032301920923
  0
LINE
  8
_0-0_
  6
CONTINUOUS
 62
    3
 10
14115.477936500727
 20
3165.1032301920923
 11
14115.477936500727
 21
3195.0990798014673
  0
LINE
  8
_0-0_
  6
CONTINUOUS
 62
    3
 10
14115.477936500727
 20
3195.0990798014673
 11
13759.973053688227
 21
3195.0990798014673
  0
LINE
  8
_0-0_
  6
CONTINUOUS
 62
    3
 10
13759.973053688227
 20
3195.0990798014673
 11
13759.973053688227
 21
3165.1032301920923
  0
LINE
  8
_0-0_
  6
CONTINUOUS
 62
    3
 10
13996.974030250727
 20
3260.1093337077173
 11
14115.477936500727
 21
3260.1093337077173
  0
LINE
  8
_0-0_
  6
CONTINUOUS
 62
    3
 10
14115.477936500727
 20
3260.1093337077173
 11
14115.477936500727
 21
3290.1100661295914
  0
LINE
  8
_0-0_
  6
CONTINUOUS
 62
    3
 10
14115.477936500727
 20
3290.1100661295914
 11
13759.973053688227
 21
3290.1100661295914
  0
LINE
  8
_0-0_
  6
CONTINUOUS
 62
    3
 10
13759.973053688227
 20
3290.1100661295914
 11
13759.973053688227
 21
3260.1093337077173
  0
LINE
  8
_0-0_
  6
CENTER2
 62
    3
 10
14056.225983375725
 20
3105.6122633952173
 11
14056.225983375725
 21
3354.9025465983418
  0
LINE
  8
_0-0_
  6
CONTINUOUS
 62
    3
 10
13996.974030250727
 20
2525.1012770670914
 11
13996.974030250727
 21
3195.0990798014673
  0
LINE
  8
_0-0_
  6
CONTINUOUS
 62
    3
 10
13996.974030250727
 20
3195.0990798014673
 11
13460.858307594477
 21
2525.1012770670914
  0
LINE
  8
_0-0_
  6
CONTINUOUS
 62
    3
 10
13460.858307594477
 20
2525.1012770670914
 11
12924.724030250727
 21
3195.0990798014673
  0
LINE
  8
_0-0_
  6
CONTINUOUS
 62
    3
 10
7183.7272040788521
 20
2335.6044508952168
 11
7183.7272040788521
 21
3384.7050368327168
  0
LINE
  8
_0-0_
  6
CONTINUOUS
 62
    3
 10
7337.7251288835396
 20
2340.7074782389673
 11
7337.7251288835396
 21
3379.5966383952164
  0
LINE
  8
_0-0_
  6
CENTER2
 62
    3
 10
13073.907135719477
 20
2860.1076247233423
 11
7048.7987372819762
 21
2860.1076247233423
  0
LINE
  8
_0-0_
  6
CONTINUOUS
 62
    3
 10
7337.7251288835396
 20
3379.5966383952164
 11
7884.6049506608833
 21
2359.0004469889664
  0
LINE
  8
_0-0_
  6
CONTINUOUS
 62
    3
 10
7884.6049506608833
 20
2359.0004469889664
 11
8431.478638405024
 21
3343.1103102702168
  0
LINE
  8
_0-0_
  6
CONTINUOUS
 62
    3
 10
8431.478638405024
 20
3343.1103102702168
 11
8978.3522956315865
 21
2395.5014235514668
  0
LINE
  8
_0-0_
  6
CONTINUOUS
 62
    3
 10
8978.3522956315865
 20
2395.5014235514668
 11
9525.1020820085396
 21
3306.6090895670909
  0
LINE
  8
_0-0_
  6
CONTINUOUS
 62
    3
 10
9525.1020820085396
 20
3306.6090895670909
 11
10071.975739235102
 21
2432.0028883952164
  0
LINE
  8
_0-0_
  6
CONTINUOUS
 62
    3
 10
10071.975739235102
 20
2432.0028883952164
 11
10618.849518531977
 21
3270.1029860514664
  0
LINE
  8
_0-0_
  6
CONTINUOUS
 62
    3
 10
10618.849518531977
 20
3270.1029860514664
 11
11165.599274391352
 21
2468.5087477702168
  0
LINE
  8
_0-0_
  6
CONTINUOUS
 62
    3
 10
11165.599274391352
 20
2468.5087477702168
 11
11712.479157203852
 21
3233.6017653483423
  0
LINE
  8
_0-0_
  6
CONTINUOUS
 62
    3
 10
11712.479157203852
 20
3233.6017653483423
 11
12259.346588844477
 21
2505.0050856608423
  0
LINE
  8
_0-0_
  6
CONTINUOUS
 62
    3
 10
12259.346588844477
 20
2505.0050856608423
 11
12806.220124000725
 21
3197.1056715983423
  0
LINE
  8
_0-0_
  6
CONTINUOUS
 62
    3
 10
8978.3522956315865
 20
2395.5014235514668
 11
8978.3522956315865
 21
3324.8026930827164
  0
LINE
  8
_0-0_
  6
CENTER2
 62
    3
 10
20039.977448219477
 20
2860.1076247233423
 11
26023.716706031981
 21
2860.1076247233423
  0
LINE
  8
_0-0_
  6
CONTINUOUS
 62
    3
 10
25727.599518531973
 20
2555.1068923014668
 11
26082.974518531977
 21
2555.1068923014668
  0
LINE
  8
_0-0_
  6
CONTINUOUS
 62
    3
 10
26082.974518531977
 20
2555.1068923014668
 11
26082.974518531977
 21
2525.1012770670914
  0
LINE
  8
_0-0_
  6
CONTINUOUS
 62
    3
 10
26082.974518531977
 20
2525.1012770670914
 11
25727.599518531973
 21
2525.1012770670914
  0
LINE
  8
_0-0_
  6
CONTINUOUS
 62
    3
 10
25727.599518531973
 20
2525.1012770670914
 11
25727.599518531973
 21
2555.1068923014668
  0
LINE
  8
_0-0_
  6
CONTINUOUS
 62
    3
 10
25727.599518531973
 20
3165.1032301920923
 11
26082.974518531977
 21
3165.1032301920923
  0
LINE
  8
_0-0_
  6
CONTINUOUS
 62
    3
 10
26082.974518531977
 20
3165.1032301920923
 11
26082.974518531977
 21
3195.0990798014673
  0
LINE
  8
_0-0_
  6
CONTINUOUS
 62
    3
 10
26082.974518531977
 20
3195.0990798014673
 11
25727.599518531973
 21
3195.0990798014673
  0
LINE
  8
_0-0_
  6
CONTINUOUS
 62
    3
 10
25727.599518531973
 20
3195.0990798014673
 11
25727.599518531973
 21
3165.1032301920923
  0
LINE
  8
_0-0_
  6
CENTER2
 62
    3
 10
20099.223541969477
 20
2430.1049391764664
 11
20099.223541969477
 21
2581.8078200358414
  0
LINE
  8
_0-0_
  6
CENTER2
 62
    3
 10
20099.223541969477
 20
3290.1100661295914
 11
20099.223541969477
 21
3138.5016676920914
  0
LINE
  8
_0-0_
  6
CONTINUOUS
 62
    3
 10
20039.977448219477
 20
2460.1056715983418
 11
25964.607331031981
 21
2460.1056715983418
  0
LINE
  8
_0-0_
  6
CONTINUOUS
 62
    3
 10
25964.607331031981
 20
2460.1056715983418
 11
25964.607331031981
 21
2525.1012770670914
  0
LINE
  8
_0-0_
  6
CONTINUOUS
 62
    3
 10
25964.607331031981
 20
2525.1012770670914
 11
20039.977448219477
 21
2525.1012770670914
  0
LINE
  8
_0-0_
  6
CONTINUOUS
 62
    3
 10
20039.977448219477
 20
2525.1012770670914
 11
20039.977448219477
 21
2460.1056715983418
  0
LINE
  8
_0-0_
  6
CONTINUOUS
 62
    3
 10
20039.977448219477
 20
3195.0990798014673
 11
25964.607331031981
 21
3195.0990798014673
  0
LINE
  8
_0-0_
  6
CONTINUOUS
 62
    3
 10
25964.607331031981
 20
3195.0990798014673
 11
25964.607331031981
 21
3260.1093337077173
  0
LINE
  8
_0-0_
  6
CONTINUOUS
 62
    3
 10
25964.607331031981
 20
3260.1093337077173
 11
20039.977448219477
 21
3260.1093337077173
  0
LINE
  8
_0-0_
  6
CONTINUOUS
 62
    3
 10
20039.977448219477
 20
3260.1093337077173
 11
20039.977448219477
 21
3195.0990798014673
  0
LINE
  8
_0-0_
  6
CONTINUOUS
 62
    3
 10
25964.607331031981
 20
2460.1056715983418
 11
26082.974518531977
 21
2460.1056715983418
  0
LINE
  8
_0-0_
  6
CONTINUOUS
 62
    3
 10
26082.974518531977
 20
2460.1056715983418
 11
26082.974518531977
 21
2430.1049391764664
  0
LINE
  8
_0-0_
  6
CONTINUOUS
 62
    3
 10
26082.974518531977
 20
2430.1049391764664
 11
25727.599518531973
 21
2430.1049391764664
  0
LINE
  8
_0-0_
  6
CONTINUOUS
 62
    3
 10
25727.599518531973
 20
2430.1049391764664
 11
25727.599518531973
 21
2460.1056715983418
  0
LINE
  8
_0-0_
  6
CONTINUOUS
 62
    3
 10
25964.607331031981
 20
3260.1093337077173
 11
26082.974518531977
 21
3260.1093337077173
  0
LINE
  8
_0-0_
  6
CONTINUOUS
 62
    3
 10
26082.974518531977
 20
3260.1093337077173
 11
26082.974518531977
 21
3290.1100661295914
  0
LINE
  8
_0-0_
  6
CONTINUOUS
 62
    3
 10
26082.974518531977
 20
3290.1100661295914
 11
25727.599518531973
 21
3290.1100661295914
  0
LINE
  8
_0-0_
  6
CONTINUOUS
 62
    3
 10
25727.599518531973
 20
3290.1100661295914
 11
25727.599518531973
 21
3260.1093337077173
  0
LINE
  8
_0-0_
  6
CONTINUOUS
 62
    3
 10
25964.607331031981
 20
2525.1012770670914
 11
25964.607331031981
 21
3195.0990798014673
  0
LINE
  8
_0-0_
  6
CENTER2
 62
    3
 10
26023.716706031981
 20
2384.9032790202173
 11
26023.716706031981
 21
2603.4052321452164
  0
LINE
  8
_0-0_
  6
CENTER2
 62
    3
 10
26023.716706031981
 20
3105.6122633952173
 11
26023.716706031981
 21
3354.9025465983418
  0
LINE
  8
_0-0_
  6
CONTINUOUS
 62
    3
 10
23031.853424781977
 20
2525.1012770670914
 11
23031.853424781977
 21
3195.0990798014673
  0
LINE
  8
_0-0_
  6
CONTINUOUS
 62
    3
 10
20099.223541969477
 20
2525.1012770670914
 11
20099.223541969477
 21
3195.0990798014673
  0
LINE
  8
_0-0_
  6
CONTINUOUS
 62
    3
 10
25964.607331031981
 20
3195.0990798014673
 11
25475.728424781977
 21
2525.1012770670914
  0
LINE
  8
_0-0_
  6
CONTINUOUS
 62
    3
 10
25475.728424781977
 20
2525.1012770670914
 11
24986.972565406977
 21
3195.0990798014673
  0
LINE
  8
_0-0_
  6
CONTINUOUS
 62
    3
 10
24986.972565406977
 20
3195.0990798014673
 11
24498.230377906977
 21
2525.1012770670914
  0
LINE
  8
_0-0_
  6
CONTINUOUS
 62
    3
 10
24498.230377906977
 20
2525.1012770670914
 11
24009.475495094477
 21
3195.0990798014673
  0
LINE
  8
_0-0_
  6
CONTINUOUS
 62
    3
 10
24009.475495094477
 20
3195.0990798014673
 11
23520.608307594477
 21
2525.1012770670914
  0
LINE
  8
_0-0_
  6
CONTINUOUS
 62
    3
 10
23520.608307594477
 20
2525.1012770670914
 11
23031.853424781977
 21
3195.0990798014673
  0
LINE
  8
_0-0_
  6
CONTINUOUS
 62
    3
 10
23031.853424781977
 20
3195.0990798014673
 11
22543.098541969481
 21
2525.1012770670914
  0
LINE
  8
_0-0_
  6
CONTINUOUS
 62
    3
 10
22543.098541969481
 20
2525.1012770670914
 11
22054.355377906977
 21
3195.0990798014673
  0
LINE
  8
_0-0_
  6
CONTINUOUS
 62
    3
 10
22054.355377906977
 20
3195.0990798014673
 11
21565.476471656977
 21
2525.1012770670914
  0
LINE
  8
_0-0_
  6
CONTINUOUS
 62
    3
 10
21565.476471656977
 20
2525.1012770670914
 11
21076.733307594477
 21
3195.0990798014673
  0
LINE
  8
_0-0_
  6
CONTINUOUS
 62
    3
 10
21076.733307594477
 20
3195.0990798014673
 11
20587.978424781977
 21
2525.1012770670914
  0
LINE
  8
_0-0_
  6
CONTINUOUS
 62
    3
 10
20587.978424781977
 20
2525.1012770670914
 11
20099.223541969477
 21
3195.0990798014673
  0
LINE
  8
_0-0_
  6
CONTINUOUS
 62
    3
 10
25786.722565406977
 20
2555.1068923014668
 11
26142.232331031977
 21
2555.1068923014668
  0
LINE
  8
_0-0_
  6
CONTINUOUS
 62
    3
 10
26142.232331031977
 20
2555.1068923014668
 11
26142.232331031977
 21
2525.1012770670914
  0
LINE
  8
_0-0_
  6
CONTINUOUS
 62
    3
 10
26142.232331031977
 20
2525.1012770670914
 11
25786.722565406977
 21
2525.1012770670914
  0
LINE
  8
_0-0_
  6
CONTINUOUS
 62
    3
 10
25786.722565406977
 20
2525.1012770670914
 11
25786.722565406977
 21
2555.1068923014668
  0
LINE
  8
_0-0_
  6
CONTINUOUS
 62
    3
 10
25786.722565406977
 20
3165.1032301920923
 11
26142.232331031977
 21
3165.1032301920923
  0
LINE
  8
_0-0_
  6
CONTINUOUS
 62
    3
 10
26142.232331031977
 20
3165.1032301920923
 11
26142.232331031977
 21
3195.0990798014673
  0
LINE
  8
_0-0_
  6
CONTINUOUS
 62
    3
 10
26142.232331031977
 20
3195.0990798014673
 11
25786.722565406977
 21
3195.0990798014673
  0
LINE
  8
_0-0_
  6
CONTINUOUS
 62
    3
 10
25786.722565406977
 20
3195.0990798014673
 11
25786.722565406977
 21
3165.1032301920923
  0
LINE
  8
_0-0_
  6
CENTER2
 62
    3
 10
26023.716706031981
 20
2430.1049391764664
 11
26023.716706031981
 21
2581.8078200358414
  0
LINE
  8
_0-0_
  6
CENTER2
 62
    3
 10
26023.716706031981
 20
3290.1100661295914
 11
26023.716706031981
 21
3138.5016676920914
  0
LINE
  8
_0-0_
  6
CONTINUOUS
 62
    3
 10
26023.716706031981
 20
2460.1056715983418
 11
26142.232331031977
 21
2460.1056715983418
  0
LINE
  8
_0-0_
  6
CONTINUOUS
 62
    3
 10
26142.232331031977
 20
2460.1056715983418
 11
26142.232331031977
 21
2430.1049391764664
  0
LINE
  8
_0-0_
  6
CONTINUOUS
 62
    3
 10
26142.232331031977
 20
2430.1049391764664
 11
25786.722565406977
 21
2430.1049391764664
  0
LINE
  8
_0-0_
  6
CONTINUOUS
 62
    3
 10
25786.722565406977
 20
2430.1049391764664
 11
25786.722565406977
 21
2460.1056715983418
  0
LINE
  8
_0-0_
  6
CONTINUOUS
 62
    3
 10
26023.716706031981
 20
3260.1093337077173
 11
26142.232331031977
 21
3260.1093337077173
  0
LINE
  8
_0-0_
  6
CONTINUOUS
 62
    3
 10
26142.232331031977
 20
3260.1093337077173
 11
26142.232331031977
 21
3290.1100661295914
  0
LINE
  8
_0-0_
  6
CONTINUOUS
 62
    3
 10
26142.232331031977
 20
3290.1100661295914
 11
25786.722565406977
 21
3290.1100661295914
  0
LINE
  8
_0-0_
  6
CONTINUOUS
 62
    3
 10
25786.722565406977
 20
3290.1100661295914
 11
25786.722565406977
 21
3260.1093337077173
  0
LINE
  8
_0-0_
  6
CONTINUOUS
 62
    3
 10
26023.716706031981
 20
2525.1012770670914
 11
26023.716706031981
 21
3195.0990798014673
  0
LINE
  8
_0-0_
  6
CENTER2
 62
    3
 10
26082.974518531977
 20
2384.9032790202173
 11
26082.974518531977
 21
2603.4052321452164
  0
LINE
  8
_0-0_
  6
CENTER2
 62
    3
 10
26082.974518531977
 20
3105.6122633952173
 11
26082.974518531977
 21
3354.9025465983418
  0
LINE
  8
_0-0_
  6
CONTINUOUS
 62
    3
 10
26023.716706031981
 20
2525.1012770670914
 11
26023.716706031981
 21
3195.0990798014673
  0
LINE
  8
_0-0_
  6
CONTINUOUS
 62
    3
 10
29134.851471656977
 20
3195.0990798014673
 11
28800.609284156973
 21
2525.1012770670914
  0
LINE
  8
_0-0_
  6
CONTINUOUS
 62
    3
 10
28800.609284156973
 20
2525.1012770670914
 11
28466.476471656977
 21
3195.0990798014673
  0
LINE
  8
_0-0_
  6
CONTINUOUS
 62
    3
 10
28466.476471656977
 20
3195.0990798014673
 11
28132.234284156981
 21
2525.1012770670914
  0
LINE
  8
_0-0_
  6
CONTINUOUS
 62
    3
 10
28132.234284156981
 20
2525.1012770670914
 11
27798.101471656981
 21
3195.0990798014673
  0
LINE
  8
_0-0_
  6
CONTINUOUS
 62
    3
 10
27798.101471656981
 20
3195.0990798014673
 11
27463.859284156977
 21
2525.1012770670914
  0
LINE
  8
_0-0_
  6
CONTINUOUS
 62
    3
 10
27463.859284156977
 20
2525.1012770670914
 11
27129.726471656977
 21
3195.0990798014673
  0
LINE
  8
_0-0_
  6
CONTINUOUS
 62
    3
 10
33145.101471656977
 20
2525.1012770670914
 11
26023.716706031981
 21
2525.1012770670914
  0
LINE
  8
_0-0_
  6
CONTINUOUS
 62
    3
 10
26023.716706031981
 20
2525.1012770670914
 11
26023.716706031981
 21
2460.1056715983418
  0
LINE
  8
_0-0_
  6
CONTINUOUS
 62
    3
 10
26023.716706031981
 20
2460.1056715983418
 11
33310.972565406977
 21
2460.1056715983418
  0
LINE
  8
_0-0_
  6
CONTINUOUS
 62
    3
 10
33310.972565406977
 20
2460.1056715983418
 11
33310.972565406977
 21
2525.1012770670914
  0
LINE
  8
_0-0_
  6
CONTINUOUS
 62
    3
 10
27129.726471656977
 20
3195.0990798014673
 11
26665.609284156977
 21
2525.1012770670914
  0
LINE
  8
_0-0_
  6
CONTINUOUS
 62
    3
 10
27129.726471656977
 20
2525.1012770670914
 11
27129.726471656977
 21
3195.0990798014673
  0
LINE
  8
_0-0_
  6
CONTINUOUS
 62
    3
 10
33310.972565406977
 20
3195.0990798014673
 11
33310.972565406977
 21
3260.1093337077173
  0
LINE
  8
_0-0_
  6
CONTINUOUS
 62
    3
 10
33310.972565406977
 20
3260.1093337077173
 11
26023.716706031981
 21
3260.1093337077173
  0
LINE
  8
_0-0_
  6
CONTINUOUS
 62
    3
 10
26023.716706031981
 20
3260.1093337077173
 11
26023.716706031981
 21
3195.0990798014673
  0
LINE
  8
_0-0_
  6
CONTINUOUS
 62
    3
 10
26023.716706031981
 20
3195.0990798014673
 11
33145.101471656977
 21
3195.0990798014673
  0
LINE
  8
_0-0_
  6
CENTER2
 62
    3
 10
26023.716706031981
 20
2860.1076247233423
 11
33310.972565406977
 21
2860.1076247233423
  0
LINE
  8
_0-0_
  6
CONTINUOUS
 62
    3
 10
26665.609284156977
 20
2525.1012770670914
 11
26201.466706031977
 21
3195.0990798014673
  0
LINE
  8
_0-0_
  6
CONTINUOUS
 62
    3
 10
26201.466706031977
 20
2525.1012770670914
 11
26201.466706031977
 21
3195.0990798014673
  0
LINE
  8
_0-0_
  6
CONTINUOUS
 62
    3
 10
29134.851471656977
 20
2525.1012770670914
 11
29134.851471656977
 21
3195.0990798014673
  0
LINE
  8
_0-0_
  6
CONTINUOUS
 62
    3
 10
31139.976471656981
 20
3195.0990798014673
 11
30805.734284156977
 21
2525.1012770670914
  0
LINE
  8
_0-0_
  6
CONTINUOUS
 62
    3
 10
30805.734284156977
 20
2525.1012770670914
 11
30471.589752906981
 21
3195.0990798014673
  0
LINE
  8
_0-0_
  6
CONTINUOUS
 62
    3
 10
30471.589752906981
 20
3195.0990798014673
 11
30137.359284156981
 21
2525.1012770670914
  0
LINE
  8
_0-0_
  6
CONTINUOUS
 62
    3
 10
30137.359284156981
 20
2525.1012770670914
 11
29803.226471656977
 21
3195.0990798014673
  0
LINE
  8
_0-0_
  6
CONTINUOUS
 62
    3
 10
29803.226471656977
 20
3195.0990798014673
 11
29468.984284156977
 21
2525.1012770670914
  0
LINE
  8
_0-0_
  6
CONTINUOUS
 62
    3
 10
29468.984284156977
 20
2525.1012770670914
 11
29134.851471656977
 21
3195.0990798014673
  0
LINE
  8
_0-0_
  6
CONTINUOUS
 62
    3
 10
31139.976471656981
 20
2525.1012770670914
 11
31139.976471656981
 21
3195.0990798014673
  0
LINE
  8
_0-0_
  6
CONTINUOUS
 62
    3
 10
33145.101471656977
 20
3195.0990798014673
 11
32810.845612281977
 21
2525.1012770670914
  0
LINE
  8
_0-0_
  6
CONTINUOUS
 62
    3
 10
32810.845612281977
 20
2525.1012770670914
 11
32476.726471656981
 21
3195.0990798014673
  0
LINE
  8
_0-0_
  6
CONTINUOUS
 62
    3
 10
32476.726471656981
 20
3195.0990798014673
 11
32142.470612281977
 21
2525.1012770670914
  0
LINE
  8
_0-0_
  6
CONTINUOUS
 62
    3
 10
32142.470612281977
 20
2525.1012770670914
 11
31808.351471656977
 21
3195.0990798014673
  0
LINE
  8
_0-0_
  6
CONTINUOUS
 62
    3
 10
31808.351471656977
 20
3195.0990798014673
 11
31474.095612281973
 21
2525.1012770670914
  0
LINE
  8
_0-0_
  6
CONTINUOUS
 62
    3
 10
31474.095612281973
 20
2525.1012770670914
 11
31139.976471656981
 21
3195.0990798014673
  0
LINE
  8
_0-0_
  6
CONTINUOUS
 62
    3
 10
33310.972565406977
 20
2525.1012770670914
 11
33310.972565406977
 21
3195.0990798014673
  0
LINE
  8
_0-0_
  6
CONTINUOUS
 62
    3
 10
33145.101471656977
 20
2525.1012770670914
 11
33145.101471656977
 21
3195.0990798014673
  0
LINE
  8
_0-0_
  6
CONTINUOUS
 62
    3
 10
33145.101471656977
 20
3260.1093337077173
 11
33145.101471656977
 21
3313.1046950358409
  0
LINE
  8
_0-0_
  6
CONTINUOUS
 62
    3
 10
33145.101471656977
 20
3313.1046950358409
 11
33476.855377906977
 21
3313.1046950358409
  0
LINE
  8
_0-0_
  6
CONTINUOUS
 62
    3
 10
33476.855377906977
 20
3313.1046950358409
 11
33476.855377906977
 21
3260.1093337077173
  0
LINE
  8
_0-0_
  6
CONTINUOUS
 62
    3
 10
33476.855377906977
 20
3260.1093337077173
 11
33310.972565406977
 21
3260.1093337077173
  0
LINE
  8
_0-0_
  6
CONTINUOUS
 62
    3
 10
33526.105377906984
 20
3111.6076247233423
 11
33526.105377906984
 21
3191.6059157389668
  0
LINE
  8
_0-0_
  6
CONTINUOUS
 62
    3
 10
33526.105377906984
 20
3191.6059157389668
 11
33464.976471656977
 21
3191.6059157389668
  0
LINE
  8
_0-0_
  6
CONTINUOUS
 62
    3
 10
33514.238190406977
 20
3141.6032301920923
 11
33310.972565406977
 21
3141.6032301920923
  0
LINE
  8
_0-0_
  6
CONTINUOUS
 62
    3
 10
33514.238190406977
 20
3171.6088454264664
 11
33310.972565406977
 21
3171.6088454264664
  0
LINE
  8
_0-0_
  6
CONTINUOUS
 62
    3
 10
33464.976471656977
 20
3191.6059157389668
 11
33460.591706031977
 21
3191.9032790202168
  0
LINE
  8
_0-0_
  6
CONTINUOUS
 62
    3
 10
33460.591706031977
 20
3191.9032790202168
 11
33456.218659156977
 21
3192.6066481608414
  0
LINE
  8
_0-0_
  6
CONTINUOUS
 62
    3
 10
33456.218659156977
 20
3192.6066481608414
 11
33451.970612281977
 21
3193.7067458170914
  0
LINE
  8
_0-0_
  6
CONTINUOUS
 62
    3
 10
33451.970612281977
 20
3193.7067458170914
 11
33447.970612281977
 21
3195.3070876139664
  0
LINE
  8
_0-0_
  6
CONTINUOUS
 62
    3
 10
33447.970612281977
 20
3195.3070876139664
 11
33444.228424781977
 21
3197.3039137858423
  0
LINE
  8
_0-0_
  6
CONTINUOUS
 62
    3
 10
33444.228424781977
 20
3197.3039137858423
 11
33440.736237281977
 21
3199.7067458170918
  0
LINE
  8
_0-0_
  6
CONTINUOUS
 62
    3
 10
33440.736237281977
 20
3199.7067458170918
 11
33437.712799781977
 21
3202.5011794108423
  0
LINE
  8
_0-0_
  6
CONTINUOUS
 62
    3
 10
33437.712799781977
 20
3202.5011794108423
 11
33435.099518531977
 21
3205.5038649577173
  0
LINE
  8
_0-0_
  6
CONTINUOUS
 62
    3
 10
33435.099518531977
 20
3205.5038649577173
 11
33432.857331031977
 21
3208.8036696452164
  0
LINE
  8
_0-0_
  6
CONTINUOUS
 62
    3
 10
33432.857331031977
 20
3208.8036696452164
 11
33431.222565406977
 21
3212.3065993327173
  0
LINE
  8
_0-0_
  6
CONTINUOUS
 62
    3
 10
33431.222565406977
 20
3212.3065993327173
 11
33430.107331031977
 21
3215.9086501139668
  0
LINE
  8
_0-0_
  6
CONTINUOUS
 62
    3
 10
33430.107331031977
 20
3215.9086501139668
 11
33429.599518531977
 21
3219.6098219889664
  0
LINE
  8
_0-0_
  6
CONTINUOUS
 62
    3
 10
33429.599518531977
 20
3219.6098219889664
 11
33429.476471656977
 21
3221.6115309733409
  0
LINE
  8
_0-0_
  6
CONTINUOUS
 62
    3
 10
33429.476471656977
 20
3221.6115309733409
 11
33429.476471656977
 21
3260.1093337077173
  0
LINE
  8
_0-0_
  6
CONTINUOUS
 62
    3
 10
33543.843659156977
 20
3141.6032301920923
 11
33573.484284156977
 21
3141.6032301920923
  0
LINE
  8
_0-0_
  6
CONTINUOUS
 62
    3
 10
33145.101471656977
 20
2460.1056715983418
 11
33145.101471656977
 21
2407.1005446452164
  0
LINE
  8
_0-0_
  6
CONTINUOUS
 62
    3
 10
33145.101471656977
 20
2407.1005446452164
 11
33476.855377906977
 21
2407.1005446452164
  0
LINE
  8
_0-0_
  6
CONTINUOUS
 62
    3
 10
33476.855377906977
 20
2407.1005446452164
 11
33476.855377906977
 21
2460.1056715983418
  0
LINE
  8
_0-0_
  6
CONTINUOUS
 62
    3
 10
33476.855377906977
 20
2460.1056715983418
 11
33310.972565406977
 21
2460.1056715983418
  0
LINE
  8
_0-0_
  6
CONTINUOUS
 62
    3
 10
33514.238190406977
 20
2548.6064040202164
 11
33310.972565406977
 21
2548.6064040202164
  0
LINE
  8
_0-0_
  6
CONTINUOUS
 62
    3
 10
33514.238190406977
 20
2578.6020094889664
 11
33310.972565406977
 21
2578.6020094889664
  0
LINE
  8
_0-0_
  6
CONTINUOUS
 62
    3
 10
33784.988190406977
 20
2608.6076247233423
 11
33429.476471656977
 21
2608.6076247233423
  0
LINE
  8
_0-0_
  6
CONTINUOUS
 62
    3
 10
33429.476471656977
 20
2608.6076247233423
 11
33429.476471656977
 21
2835.1061598795923
  0
LINE
  8
_0-0_
  6
CONTINUOUS
 62
    3
 10
33429.476471656977
 20
2835.1061598795923
 11
33784.988190406977
 21
2835.1061598795923
  0
LINE
  8
_0-0_
  6
CONTINUOUS
 62
    3
 10
33784.988190406977
 20
2835.1061598795923
 11
33784.988190406977
 21
2608.6076247233423
  0
LINE
  8
_0-0_
  6
CONTINUOUS
 62
    3
 10
33784.988190406977
 20
2885.0990798014664
 11
33429.476471656977
 21
2885.0990798014664
  0
LINE
  8
_0-0_
  6
CONTINUOUS
 62
    3
 10
33429.476471656977
 20
2885.0990798014664
 11
33429.476471656977
 21
3111.6076247233423
  0
LINE
  8
_0-0_
  6
CONTINUOUS
 62
    3
 10
33429.476471656977
 20
3111.6076247233423
 11
33784.988190406977
 21
3111.6076247233423
  0
LINE
  8
_0-0_
  6
CONTINUOUS
 62
    3
 10
33784.988190406977
 20
3111.6076247233423
 11
33784.988190406977
 21
2885.0990798014664
  0
LINE
  8
_0-0_
  6
CONTINUOUS
 62
    3
 10
33514.238190406977
 20
2845.1046950358418
 11
33310.972565406977
 21
2845.1046950358418
  0
LINE
  8
_0-0_
  6
CONTINUOUS
 62
    3
 10
33514.238190406977
 20
2875.1054274577173
 11
33310.972565406977
 21
2875.1054274577173
  0
LINE
  8
_0-0_
  6
CONTINUOUS
 62
    3
 10
33573.484284156977
 20
2875.1054274577173
 11
33573.484284156977
 21
3141.6032301920923
  0
LINE
  8
_0-0_
  6
CONTINUOUS
 62
    3
 10
33543.843659156977
 20
2875.1054274577173
 11
33543.843659156977
 21
3141.6032301920923
  0
LINE
  8
_0-0_
  6
CONTINUOUS
 62
    3
 10
33664.230377906977
 20
2845.1046950358418
 11
33664.230377906977
 21
2875.1054274577173
  0
LINE
  8
_0-0_
  6
CONTINUOUS
 62
    3
 10
33664.230377906977
 20
2875.1054274577173
 11
33514.238190406977
 21
2875.1054274577173
  0
LINE
  8
_0-0_
  6
CONTINUOUS
 62
    3
 10
33514.238190406977
 20
2875.1054274577173
 11
33514.238190406977
 21
2845.1046950358418
  0
LINE
  8
_0-0_
  6
CONTINUOUS
 62
    3
 10
33514.238190406977
 20
2845.1046950358418
 11
33664.230377906977
 21
2845.1046950358418
  0
LINE
  8
_0-0_
  6
CONTINUOUS
 62
    3
 10
33664.230377906977
 20
3141.6032301920923
 11
33664.230377906977
 21
3171.6088454264664
  0
LINE
  8
_0-0_
  6
CONTINUOUS
 62
    3
 10
33664.230377906977
 20
3171.6088454264664
 11
33514.238190406977
 21
3171.6088454264664
  0
LINE
  8
_0-0_
  6
CONTINUOUS
 62
    3
 10
33514.238190406977
 20
3171.6088454264664
 11
33514.238190406977
 21
3141.6032301920923
  0
LINE
  8
_0-0_
  6
CONTINUOUS
 62
    3
 10
33514.238190406977
 20
3141.6032301920923
 11
33664.230377906977
 21
3141.6032301920923
  0
LINE
  8
_0-0_
  6
CONTINUOUS
 62
    3
 10
33543.843659156977
 20
2578.6020094889664
 11
33573.484284156977
 21
2578.6020094889664
  0
LINE
  8
_0-0_
  6
CONTINUOUS
 62
    3
 10
33429.476471656977
 20
2460.1056715983418
 11
33429.476471656977
 21
2498.6037184733418
  0
LINE
  8
_0-0_
  6
CONTINUOUS
 62
    3
 10
33429.476471656977
 20
2498.6037184733418
 11
33429.736237281977
 21
2502.4037673014659
  0
LINE
  8
_0-0_
  6
CONTINUOUS
 62
    3
 10
33429.736237281977
 20
2502.4037673014659
 11
33430.591706031977
 21
2506.1049391764668
  0
LINE
  8
_0-0_
  6
CONTINUOUS
 62
    3
 10
33430.591706031977
 20
2506.1049391764668
 11
33431.978424781977
 21
2509.7021071452164
  0
LINE
  8
_0-0_
  6
CONTINUOUS
 62
    3
 10
33431.978424781977
 20
2509.7021071452164
 11
33433.849518531977
 21
2513.1059157389673
  0
LINE
  8
_0-0_
  6
CONTINUOUS
 62
    3
 10
33433.849518531977
 20
2513.1059157389673
 11
33436.226471656977
 21
2516.2025954264664
  0
LINE
  8
_0-0_
  6
CONTINUOUS
 62
    3
 10
33436.226471656977
 20
2516.2025954264664
 11
33439.101471656977
 21
2519.1061598795914
  0
LINE
  8
_0-0_
  6
CONTINUOUS
 62
    3
 10
33439.101471656977
 20
2519.1061598795914
 11
33442.345612281977
 21
2521.7023512858418
  0
LINE
  8
_0-0_
  6
CONTINUOUS
 62
    3
 10
33442.345612281977
 20
2521.7023512858418
 11
33445.863190406977
 21
2523.9023024577164
  0
LINE
  8
_0-0_
  6
CONTINUOUS
 62
    3
 10
33445.863190406977
 20
2523.9023024577164
 11
33449.728424781977
 21
2525.8048903483414
  0
LINE
  8
_0-0_
  6
CONTINUOUS
 62
    3
 10
33449.728424781977
 20
2525.8048903483414
 11
33453.976471656977
 21
2527.2021071452173
  0
LINE
  8
_0-0_
  6
CONTINUOUS
 62
    3
 10
33453.976471656977
 20
2527.2021071452173
 11
33458.226471656977
 21
2528.1039626139673
  0
LINE
  8
_0-0_
  6
CONTINUOUS
 62
    3
 10
33458.226471656977
 20
2528.1039626139673
 11
33462.597565406977
 21
2528.6093337077164
  0
LINE
  8
_0-0_
  6
CONTINUOUS
 62
    3
 10
33462.597565406977
 20
2528.6093337077164
 11
33464.976471656977
 21
2528.6093337077164
  0
LINE
  8
_0-0_
  6
CONTINUOUS
 62
    3
 10
33464.976471656977
 20
2528.6093337077164
 11
33526.105377906984
 21
2528.6093337077164
  0
LINE
  8
_0-0_
  6
CONTINUOUS
 62
    3
 10
33526.105377906984
 20
2528.6093337077164
 11
33526.105377906984
 21
2608.6076247233423
  0
LINE
  8
_0-0_
  6
CONTINUOUS
 62
    3
 10
33664.230377906977
 20
2548.6064040202164
 11
33664.230377906977
 21
2578.6020094889664
  0
LINE
  8
_0-0_
  6
CONTINUOUS
 62
    3
 10
33664.230377906977
 20
2578.6020094889664
 11
33514.238190406977
 21
2578.6020094889664
  0
LINE
  8
_0-0_
  6
CONTINUOUS
 62
    3
 10
33514.238190406977
 20
2578.6020094889664
 11
33514.238190406977
 21
2548.6064040202164
  0
LINE
  8
_0-0_
  6
CONTINUOUS
 62
    3
 10
33514.238190406977
 20
2548.6064040202164
 11
33664.230377906977
 21
2548.6064040202164
  0
LINE
  8
_0-0_
  6
CONTINUOUS
 62
    3
 10
33573.484284156977
 20
2578.6020094889664
 11
33573.484284156977
 21
2845.1046950358418
  0
LINE
  8
_0-0_
  6
CONTINUOUS
 62
    3
 10
33543.843659156977
 20
2578.6020094889664
 11
33543.843659156977
 21
2845.1046950358418
  0
LINE
  8
_0-0_
  6
CENTER2
 62
    3
 10
14115.348053688229
 20
2860.1076247233423
 11
20099.223541969477
 21
2860.1076247233423
  0
LINE
  8
_0-0_
  6
CONTINUOUS
 62
    3
 10
19802.982331031977
 20
2555.1068923014668
 11
20158.468659156977
 21
2555.1068923014668
  0
LINE
  8
_0-0_
  6
CONTINUOUS
 62
    3
 10
20158.468659156977
 20
2555.1068923014668
 11
20158.468659156977
 21
2525.1012770670914
  0
LINE
  8
_0-0_
  6
CONTINUOUS
 62
    3
 10
20158.468659156977
 20
2525.1012770670914
 11
19802.982331031977
 21
2525.1012770670914
  0
LINE
  8
_0-0_
  6
CONTINUOUS
 62
    3
 10
19802.982331031977
 20
2525.1012770670914
 11
19802.982331031977
 21
2555.1068923014668
  0
LINE
  8
_0-0_
  6
CONTINUOUS
 62
    3
 10
19802.982331031977
 20
3165.1032301920923
 11
20158.468659156977
 21
3165.1032301920923
  0
LINE
  8
_0-0_
  6
CONTINUOUS
 62
    3
 10
20158.468659156977
 20
3165.1032301920923
 11
20158.468659156977
 21
3195.0990798014673
  0
LINE
  8
_0-0_
  6
CONTINUOUS
 62
    3
 10
20158.468659156977
 20
3195.0990798014673
 11
19802.982331031977
 21
3195.0990798014673
  0
LINE
  8
_0-0_
  6
CONTINUOUS
 62
    3
 10
19802.982331031977
 20
3195.0990798014673
 11
19802.982331031977
 21
3165.1032301920923
  0
LINE
  8
_0-0_
  6
CENTER2
 62
    3
 10
14174.605866188227
 20
2430.1049391764664
 11
14174.605866188227
 21
2581.8078200358414
  0
LINE
  8
_0-0_
  6
CENTER2
 62
    3
 10
14174.605866188227
 20
3290.1100661295914
 11
14174.605866188227
 21
3138.5016676920914
  0
LINE
  8
_0-0_
  6
CONTINUOUS
 62
    3
 10
14115.348053688229
 20
2460.1056715983418
 11
20039.977448219477
 21
2460.1056715983418
  0
LINE
  8
_0-0_
  6
CONTINUOUS
 62
    3
 10
20039.977448219477
 20
2460.1056715983418
 11
20039.977448219477
 21
2525.1012770670914
  0
LINE
  8
_0-0_
  6
CONTINUOUS
 62
    3
 10
20039.977448219477
 20
2525.1012770670914
 11
14115.348053688229
 21
2525.1012770670914
  0
LINE
  8
_0-0_
  6
CONTINUOUS
 62
    3
 10
14115.348053688229
 20
2525.1012770670914
 11
14115.348053688229
 21
2460.1056715983418
  0
LINE
  8
_0-0_
  6
CONTINUOUS
 62
    3
 10
14115.348053688229
 20
3195.0990798014673
 11
20039.977448219477
 21
3195.0990798014673
  0
LINE
  8
_0-0_
  6
CONTINUOUS
 62
    3
 10
20039.977448219477
 20
3195.0990798014673
 11
20039.977448219477
 21
3260.1093337077173
  0
LINE
  8
_0-0_
  6
CONTINUOUS
 62
    3
 10
20039.977448219477
 20
3260.1093337077173
 11
14115.348053688229
 21
3260.1093337077173
  0
LINE
  8
_0-0_
  6
CONTINUOUS
 62
    3
 10
14115.348053688229
 20
3260.1093337077173
 11
14115.348053688229
 21
3195.0990798014673
  0
LINE
  8
_0-0_
  6
CONTINUOUS
 62
    3
 10
20039.977448219477
 20
2460.1056715983418
 11
20158.468659156977
 21
2460.1056715983418
  0
LINE
  8
_0-0_
  6
CONTINUOUS
 62
    3
 10
20158.468659156977
 20
2460.1056715983418
 11
20158.468659156977
 21
2430.1049391764664
  0
LINE
  8
_0-0_
  6
CONTINUOUS
 62
    3
 10
20158.468659156977
 20
2430.1049391764664
 11
19802.982331031977
 21
2430.1049391764664
  0
LINE
  8
_0-0_
  6
CONTINUOUS
 62
    3
 10
19802.982331031977
 20
2430.1049391764664
 11
19802.982331031977
 21
2460.1056715983418
  0
LINE
  8
_0-0_
  6
CONTINUOUS
 62
    3
 10
20039.977448219477
 20
3260.1093337077173
 11
20158.468659156977
 21
3260.1093337077173
  0
LINE
  8
_0-0_
  6
CONTINUOUS
 62
    3
 10
20158.468659156977
 20
3260.1093337077173
 11
20158.468659156977
 21
3290.1100661295914
  0
LINE
  8
_0-0_
  6
CONTINUOUS
 62
    3
 10
20158.468659156977
 20
3290.1100661295914
 11
19802.982331031977
 21
3290.1100661295914
  0
LINE
  8
_0-0_
  6
CONTINUOUS
 62
    3
 10
19802.982331031977
 20
3290.1100661295914
 11
19802.982331031977
 21
3260.1093337077173
  0
LINE
  8
_0-0_
  6
CONTINUOUS
 62
    3
 10
20039.977448219477
 20
2525.1012770670914
 11
20039.977448219477
 21
3195.0990798014673
  0
LINE
  8
_0-0_
  6
CENTER2
 62
    3
 10
20099.223541969477
 20
2384.9032790202173
 11
20099.223541969477
 21
2603.4052321452164
  0
LINE
  8
_0-0_
  6
CENTER2
 62
    3
 10
20099.223541969477
 20
3105.6122633952173
 11
20099.223541969477
 21
3354.9025465983418
  0
LINE
  8
_0-0_
  6
CONTINUOUS
 62
    3
 10
17107.223541969477
 20
2525.1012770670914
 11
17107.223541969477
 21
3195.0990798014673
  0
LINE
  8
_0-0_
  6
CONTINUOUS
 62
    3
 10
14174.605866188227
 20
2525.1012770670914
 11
14174.605866188227
 21
3195.0990798014673
  0
LINE
  8
_0-0_
  6
CONTINUOUS
 62
    3
 10
20039.977448219477
 20
3195.0990798014673
 11
19551.235260719477
 21
2525.1012770670914
  0
LINE
  8
_0-0_
  6
CONTINUOUS
 62
    3
 10
19551.235260719477
 20
2525.1012770670914
 11
19062.355377906977
 21
3195.0990798014673
  0
LINE
  8
_0-0_
  6
CONTINUOUS
 62
    3
 10
19062.355377906977
 20
3195.0990798014673
 11
18573.600495094477
 21
2525.1012770670914
  0
LINE
  8
_0-0_
  6
CONTINUOUS
 62
    3
 10
18573.600495094477
 20
2525.1012770670914
 11
18084.845612281977
 21
3195.0990798014673
  0
LINE
  8
_0-0_
  6
CONTINUOUS
 62
    3
 10
18084.845612281977
 20
3195.0990798014673
 11
17596.102448219477
 21
2525.1012770670914
  0
LINE
  8
_0-0_
  6
CONTINUOUS
 62
    3
 10
17596.102448219477
 20
2525.1012770670914
 11
17107.223541969477
 21
3195.0990798014673
  0
LINE
  8
_0-0_
  6
CONTINUOUS
 62
    3
 10
17107.223541969477
 20
3195.0990798014673
 11
16618.474518531977
 21
2525.1012770670914
  0
LINE
  8
_0-0_
  6
CONTINUOUS
 62
    3
 10
16618.474518531977
 20
2525.1012770670914
 11
16129.725495094477
 21
3195.0990798014673
  0
LINE
  8
_0-0_
  6
CONTINUOUS
 62
    3
 10
16129.725495094477
 20
3195.0990798014673
 11
15640.976471656979
 21
2525.1012770670914
  0
LINE
  8
_0-0_
  6
CONTINUOUS
 62
    3
 10
15640.976471656979
 20
2525.1012770670914
 11
15152.227936500727
 21
3195.0990798014673
  0
LINE
  8
_0-0_
  6
CONTINUOUS
 62
    3
 10
15152.227936500727
 20
3195.0990798014673
 11
14663.348541969477
 21
2525.1012770670914
  0
LINE
  8
_0-0_
  6
CONTINUOUS
 62
    3
 10
14663.348541969477
 20
2525.1012770670914
 11
14174.605866188227
 21
3195.0990798014673
  0
LINE
  8
_0-0_
  6
CONTINUOUS
 62
    4
 10
4166.1083075944771
 20
3602.9757887858418
 11
4378.2401435319771
 21
3815.1076247233418
  0
LINE
  8
_0-0_
  6
CONTINUOUS
 62
    4
 10
4166.1083075944771
 20
1827.2392165202164
 11
4166.1083075944771
 21
3602.9757887858418
  0
LINE
  8
_0-0_
  6
CONTINUOUS
 62
    4
 10
4166.1083075944771
 20
1827.2392165202164
 11
4378.2401435319771
 21
1615.1073805827168
  0
LINE
  8
_0-0_
  6
CONTINUOUS
 62
    4
 10
9376.4205634538521
 20
3551.8959548014664
 11
9271.2003486101021
 21
3591.1073805827173
  0
LINE
  8
_0-0_
  6
CONTINUOUS
 62
    4
 10
9516.1093451921333
 20
3551.8959548014664
 11
9376.4205634538521
 21
3551.8959548014664
  0
LINE
  8
_0-0_
  6
CONTINUOUS
 62
    4
 10
6666.1079413835396
 20
3551.8959548014664
 11
6805.7972724382271
 21
3551.8959548014664
  0
LINE
  8
_0-0_
  6
CONTINUOUS
 62
    4
 10
6805.7972724382271
 20
3551.8959548014664
 11
6911.0174872819771
 21
3591.1073805827173
  0
LINE
  8
_0-0_
  6
CONTINUOUS
 62
    4
 10
6911.0174872819771
 20
3591.1073805827173
 11
9271.2003486101021
 21
3591.1073805827173
  0
LINE
  8
_0-0_
  6
CONTINUOUS
 62
    4
 10
9516.1093451921333
 20
1411.8183180827159
 11
9516.1093451921333
 21
3551.8959548014664
  0
LINE
  8
_0-0_
  6
CONTINUOUS
 62
    4
 10
9516.1093451921333
 20
1411.8183180827159
 11
9445.3985297624458
 21
1341.1073805827173
  0
LINE
  8
_0-0_
  6
CONTINUOUS
 62
    4
 10
6736.8187568132271
 20
1341.1073805827173
 11
9445.3985297624458
 21
1341.1073805827173
  0
LINE
  8
_0-0_
  6
CONTINUOUS
 62
    4
 10
6666.1079413835396
 20
1411.8183180827159
 11
6666.1079413835396
 21
3551.8959548014664
  0
LINE
  8
_0-0_
  6
CONTINUOUS
 62
    4
 10
6736.8187568132271
 20
1341.1073805827173
 11
6666.1079413835396
 21
1411.8183180827159
  0
LINE
  8
_0-0_
  6
CONTINUOUS
 62
    4
 10
4378.2401435319771
 20
1615.1073805827168
 11
6666.1079413835396
 21
1615.1073805827168
  0
LINE
  8
_0-0_
  6
CONTINUOUS
 62
    4
 10
4378.2401435319771
 20
3815.1076247233418
 11
6666.1079413835396
 21
3815.1076247233418
  0
LINE
  8
_0-0_
  6
CONTINUOUS
 62
    4
 10
6666.1079413835396
 20
3551.8959548014664
 11
6666.1079413835396
 21
3815.1076247233418
  0
LINE
  8
_0-0_
  6
CONTINUOUS
 62
    4
 10
6636.1079413835396
 20
1645.1073805827164
 11
6636.1079413835396
 21
3551.8959548014664
  0
LINE
  8
_0-0_
  6
CONTINUOUS
 62
    4
 10
6749.2457587663521
 20
1371.1073805827168
 11
6696.1079413835396
 21
1424.2450758952159
  0
LINE
  8
_0-0_
  6
CONTINUOUS
 62
    4
 10
6749.2457587663521
 20
1371.1073805827168
 11
9432.9721381608833
 21
1371.1073805827168
  0
LINE
  8
_0-0_
  6
CONTINUOUS
 62
    4
 10
9486.1099555436958
 20
1424.2460524577168
 11
9432.9721381608833
 21
1371.1073805827168
  0
LINE
  8
_0-0_
  6
CONTINUOUS
 62
    4
 10
9486.1099555436958
 20
1424.2460524577168
 11
9486.1099555436958
 21
3521.8959548014668
  0
LINE
  8
_0-0_
  6
CONTINUOUS
 62
    4
 10
9486.1099555436958
 20
3521.8959548014668
 11
9371.0125434343208
 21
3521.8959548014668
  0
LINE
  8
_0-0_
  6
CONTINUOUS
 62
    4
 10
9371.0125434343208
 20
3521.8959548014668
 11
9265.7923285905708
 21
3561.1073805827168
  0
LINE
  8
_0-0_
  6
CONTINUOUS
 62
    4
 10
6916.4261786882262
 20
3561.1073805827168
 11
9265.7923285905708
 21
3561.1073805827168
  0
LINE
  8
_0-0_
  6
CONTINUOUS
 62
    4
 10
6811.205963844478
 20
3521.8959548014668
 11
6916.4261786882262
 21
3561.1073805827168
  0
LINE
  8
_0-0_
  6
CONTINUOUS
 62
    4
 10
6696.1079413835396
 20
3521.8959548014668
 11
6811.205963844478
 21
3521.8959548014668
  0
LINE
  8
_0-0_
  6
CONTINUOUS
 62
    4
 10
6696.1079413835396
 20
1424.2450758952159
 11
6696.1079413835396
 21
3521.8959548014668
  0
LINE
  8
_0-0_
  6
CONTINUOUS
 62
    4
 10
6636.1079413835396
 20
3551.8959548014664
 11
6636.1079413835396
 21
3785.1076247233423
  0
LINE
  8
_0-0_
  6
CONTINUOUS
 62
    4
 10
4390.6669013444771
 20
3785.1076247233423
 11
6636.1079413835396
 21
3785.1076247233423
  0
LINE
  8
_0-0_
  6
CONTINUOUS
 62
    4
 10
4196.1083075944771
 20
3590.5487868327173
 11
4390.6669013444771
 21
3785.1076247233423
  0
LINE
  8
_0-0_
  6
CONTINUOUS
 62
    4
 10
4196.1083075944771
 20
1839.6659743327164
 11
4196.1083075944771
 21
3590.5487868327173
  0
LINE
  8
_0-0_
  6
CONTINUOUS
 62
    4
 10
4196.1083075944771
 20
1839.6659743327164
 11
4390.6669013444771
 21
1645.1073805827164
  0
LINE
  8
_0-0_
  6
CONTINUOUS
 62
    4
 10
4390.6669013444771
 20
1645.1073805827164
 11
6636.1079413835396
 21
1645.1073805827164
  0
LINE
  8
_0-0_
  6
CONTINUOUS
 62
    4
 10
5622.0375068132271
 20
1768.5810133952173
 11
5622.0375068132271
 21
1968.5810133952173
  0
LINE
  8
_0-0_
  6
CONTINUOUS
 62
    4
 10
5622.0375068132271
 20
1968.5810133952173
 11
6422.0375068132271
 21
1968.5810133952173
  0
LINE
  8
_0-0_
  6
CONTINUOUS
 62
    4
 10
6422.0375068132271
 20
1968.5810133952173
 11
6422.0375068132271
 21
1768.5810133952173
  0
LINE
  8
_0-0_
  6
CONTINUOUS
 62
    4
 10
6422.0375068132271
 20
1768.5810133952173
 11
5622.0375068132271
 21
1768.5810133952173
  0
LINE
  8
_0-0_
  6
CONTINUOUS
 62
    4
 10
6422.0375068132271
 20
1718.5810133952159
 11
5622.0375068132271
 21
1718.5810133952159
  0
LINE
  8
_0-0_
  6
CONTINUOUS
 62
    4
 10
5622.0375068132271
 20
2018.5810133952173
 11
6422.0375068132271
 21
2018.5810133952173
  0
LINE
  8
_0-0_
  6
CONTINUOUS
 62
    4
 10
5622.0375068132271
 20
2018.5810133952173
 11
5622.0375068132271
 21
1718.5810133952159
  0
LINE
  8
_0-0_
  6
CONTINUOUS
 62
    4
 10
6422.0375068132271
 20
2018.5810133952173
 11
6422.0375068132271
 21
1718.5810133952159
  0
LINE
  8
_0-0_
  6
CONTINUOUS
 62
    4
 10
7560.2710883561958
 20
1731.6415602702164
 11
7560.2710883561958
 21
2181.6410719889659
  0
LINE
  8
_0-0_
  6
CONTINUOUS
 62
    4
 10
7560.2710883561958
 20
2181.6410719889659
 11
8160.2714240495543
 21
2181.6410719889659
  0
LINE
  8
_0-0_
  6
CONTINUOUS
 62
    4
 10
8160.2714240495543
 20
2181.6410719889659
 11
8160.2714240495543
 21
1731.6415602702164
  0
LINE
  8
_0-0_
  6
CONTINUOUS
 62
    4
 10
8160.2714240495543
 20
1731.6415602702164
 11
7560.2710883561958
 21
1731.6415602702164
  0
LINE
  8
_0-0_
  6
CONTINUOUS
 62
    7
 10
8310.507462257563
 20
6511.0658804911636
 11
9021.7083136979927
 21
6511.0658804911636
  0
LINE
  8
_0-0_
  6
CONTINUOUS
 62
    7
 10
8243.608032936274
 20
6511.0658804911636
 11
8243.608032936274
 21
6536.0659957665475
  0
LINE
  8
_0-0_
  6
CONTINUOUS
 62
    7
 10
8243.608032936274
 20
6536.0659957665475
 11
9088.6077582780708
 21
6536.0659957665475
  0
LINE
  8
_0-0_
  6
CONTINUOUS
 62
    7
 10
9088.6077582780708
 20
6511.0658804911636
 11
9088.6077582780708
 21
6536.0659957665475
  0
LINE
  8
_0-0_
  6
CONTINUOUS
 62
    7
 10
8243.608032936274
 20
6511.0658804911636
 11
9088.6077582780708
 21
6511.0658804911636
  0
LINE
  8
_0-0_
  6
CONTINUOUS
 62
    7
 10
8243.608032936274
 20
6536.0659957665475
 11
8310.3885505143971
 21
6651.7331816691421
  0
LINE
  8
_0-0_
  6
CONTINUOUS
 62
    7
 10
8266.7018134538521
 20
6536.0659957665475
 11
8310.507462257563
 21
6611.9396101969742
  0
LINE
  8
_0-0_
  6
CONTINUOUS
 62
    7
 10
9065.5139472429146
 20
6536.0659957665475
 11
9021.7083136979927
 21
6611.9396101969742
  0
LINE
  8
_0-0_
  6
CONTINUOUS
 62
    7
 10
8556.5120456163277
 20
6652.5494658488296
 11
8556.5120456163277
 21
6537.0507399577164
  0
LINE
  8
_0-0_
  6
CONTINUOUS
 62
    7
 10
8546.5116279069771
 20
6651.7331816691421
 11
8546.5116279069771
 21
6537.0507399577164
  0
LINE
  8
_0-0_
  6
CONTINUOUS
 62
    7
 10
8546.5116279069771
 20
6651.7331816691421
 11
8566.5118453447212
 21
6651.7331816691421
  0
LINE
  8
_0-0_
  6
CONTINUOUS
 62
    7
 10
8566.5118453447212
 20
6651.7331816691421
 11
8566.5118453447212
 21
6537.0507399577164
  0
LINE
  8
_0-0_
  6
CONTINUOUS
 62
    7
 10
9088.6077582780708
 20
6536.0659957665475
 11
9021.7083136979927
 21
6651.9400374430688
  0
LINE
  8
_0-0_
  6
CONTINUOUS
 62
    7
 10
8775.7037208024849
 20
6652.5494658488296
 11
8775.7037208024849
 21
6537.0507399577164
  0
LINE
  8
_0-0_
  6
CONTINUOUS
 62
    7
 10
8785.7041327897896
 20
6651.7331816691421
 11
8785.7041327897896
 21
6537.0507399577164
  0
LINE
  8
_0-0_
  6
CONTINUOUS
 62
    7
 10
8785.7041327897896
 20
6651.7331816691421
 11
8765.7039191667427
 21
6651.7331816691421
  0
LINE
  8
_0-0_
  6
CONTINUOUS
 62
    7
 10
8765.7039191667427
 20
6651.7331816691421
 11
8765.7039191667427
 21
6537.0507399577164
  0
LINE
  8
_0-0_
  6
CENTER2
 62
    7
 10
8666.1078803483833
 20
12391.063923551466
 11
8666.1078803483833
 21
6513.0997797984146
  0
LINE
  8
_0-0_
  6
CONTINUOUS
 62
    7
 10
5301.9703681413521
 20
12562.565388395216
 11
9057.1083075944771
 21
12562.565388395216
  0
LINE
  8
_0-0_
  6
CONTINUOUS
 62
    7
 10
9516.1081244890083
 20
13062.565388395216
 11
9516.1081244890083
 21
12562.565388395216
  0
LINE
  8
_0-0_
  6
CONTINUOUS
 62
    7
 10
4166.1083075944771
 20
13062.565388395216
 11
9057.1083075944771
 21
13062.565388395216
  0
LINE
  8
_0-0_
  6
CONTINUOUS
 62
    7
 10
4166.1083075944771
 20
13062.565388395216
 11
4166.1083075944771
 21
12811.857868863968
  0
LINE
  8
_0-0_
  6
CONTINUOUS
 62
    7
 10
4166.1083075944771
 20
12811.857868863968
 11
5301.9703681413521
 21
12562.565388395216
  0
LINE
  8
_0-0_
  6
CONTINUOUS
 62
    7
 10
6946.5567939226021
 20
13060.786579801466
 11
6946.5567939226021
 21
13160.787068082715
  0
LINE
  8
_0-0_
  6
CONTINUOUS
 62
    7
 10
7046.5572822038521
 20
13060.786579801466
 11
7046.5572822038521
 21
13160.115681363965
  0
LINE
  8
_0-0_
  6
CONTINUOUS
 62
    7
 10
5301.9703681413521
 20
12582.564900113966
 11
9057.1083075944771
 21
12582.564900113966
  0
LINE
  8
_0-0_
  6
CONTINUOUS
 62
    7
 10
4186.1068427507271
 20
13042.563435270216
 11
9057.1083075944771
 21
13042.563435270216
  0
LINE
  8
_0-0_
  6
CONTINUOUS
 62
    7
 10
4186.1068427507271
 20
13042.563435270216
 11
4186.1068427507271
 21
12827.943318082716
  0
LINE
  8
_0-0_
  6
CONTINUOUS
 62
    7
 10
4186.1068427507271
 20
12827.943318082716
 11
5306.2572333757271
 21
12582.102009488968
  0
LINE
  8
_0-0_
  6
CONTINUOUS
 62
    7
 10
6666.1079413835396
 20
13062.565388395216
 11
6666.1079413835396
 21
12562.565388395216
  0
LINE
  8
_0-0_
  6
CONTINUOUS
 62
    7
 10
6646.1089179460405
 20
13062.565388395216
 11
6646.1089179460405
 21
12562.565388395216
  0
LINE
  8
_0-0_
  6
CONTINUOUS
 62
    7
 10
6686.1074531022896
 20
13062.565388395216
 11
6686.1074531022896
 21
12562.565388395216
  0
LINE
  8
_0-0_
  6
CONTINUOUS
 62
    7
 10
5096.7916572038521
 20
13472.106404020218
 11
5128.9122626726021
 21
13599.825642301465
  0
LINE
  8
_0-0_
  6
CONTINUOUS
 62
    7
 10
5723.5226142351021
 20
13472.106404020218
 11
5691.4024970476021
 21
13599.825642301465
  0
LINE
  8
_0-0_
  6
CONTINUOUS
 62
    7
 10
5460.1622626726012
 20
13067.106404020216
 11
5460.1622626726012
 21
13442.106892301468
  0
LINE
  8
_0-0_
  6
CONTINUOUS
 62
    7
 10
5490.1617743913521
 20
13067.106404020216
 11
5490.1617743913521
 21
13442.106892301468
  0
LINE
  8
_0-0_
  6
CONTINUOUS
 62
    7
 10
4810.1629950944771
 20
13067.106404020216
 11
4810.1629950944771
 21
13187.106404020216
  0
LINE
  8
_0-0_
  6
CONTINUOUS
 62
    7
 10
4510.1615302507271
 20
13187.106404020216
 11
4510.1615302507271
 21
13067.106404020216
  0
LINE
  8
_0-0_
  6
CONTINUOUS
 62
    7
 10
4466.5528876726012
 20
13383.956013395215
 11
4401.1078193132271
 21
13207.105915738966
  0
LINE
  8
_0-0_
  6
CONTINUOUS
 62
    7
 10
4853.7740790788521
 20
13383.956013395215
 11
4919.2120673601021
 21
13207.105915738966
  0
LINE
  8
_0-0_
  6
CONTINUOUS
 62
    7
 10
4690.1617743913521
 20
13067.106404020216
 11
4690.1617743913521
 21
13442.106892301468
  0
LINE
  8
_0-0_
  6
CONTINUOUS
 62
    7
 10
4720.1610419694771
 20
13067.106404020216
 11
4720.1610419694771
 21
13442.106892301468
  0
LINE
  8
_0-0_
  6
CONTINUOUS
 62
    7
 10
4380.1615302507262
 20
13207.105915738966
 11
4453.2086493913521
 21
13442.106892301468
  0
LINE
  8
_0-0_
  6
CONTINUOUS
 62
    7
 10
4462.5345771257262
 20
13472.106404020218
 11
4469.1756904069771
 21
13493.475544645218
  0
LINE
  8
_0-0_
  6
CONTINUOUS
 62
    7
 10
4940.1627509538512
 20
13207.105915738966
 11
4867.1158759538512
 21
13442.106892301468
  0
LINE
  8
_0-0_
  6
CONTINUOUS
 62
    7
 10
4360.1634833757271
 20
13067.106404020216
 11
4360.1634833757271
 21
13187.106404020216
  0
LINE
  8
_0-0_
  6
CONTINUOUS
 62
    7
 10
4360.1634833757271
 20
13187.106404020216
 11
4690.1617743913521
 21
13187.106404020216
  0
LINE
  8
_0-0_
  6
CONTINUOUS
 62
    7
 10
4360.1634833757271
 20
13187.106404020216
 11
4380.1615302507262
 21
13207.105915738966
  0
LINE
  8
_0-0_
  6
CONTINUOUS
 62
    7
 10
4380.1615302507262
 20
13207.105915738966
 11
4690.1617743913521
 21
13207.105915738966
  0
LINE
  8
_0-0_
  6
CONTINUOUS
 62
    7
 10
4720.1610419694771
 20
13207.105915738966
 11
4940.1627509538512
 21
13207.105915738966
  0
LINE
  8
_0-0_
  6
CONTINUOUS
 62
    7
 10
4940.1627509538512
 20
13207.105915738966
 11
4960.1629950944771
 21
13187.106404020216
  0
LINE
  8
_0-0_
  6
CONTINUOUS
 62
    7
 10
4720.1610419694771
 20
13187.106404020216
 11
4960.1629950944771
 21
13187.106404020216
  0
LINE
  8
_0-0_
  6
CONTINUOUS
 62
    7
 10
4960.1629950944771
 20
13187.106404020216
 11
4960.1629950944771
 21
13067.106404020216
  0
LINE
  8
_0-0_
  6
CONTINUOUS
 62
    7
 10
5210.1634833757271
 20
13187.106404020216
 11
5210.1634833757271
 21
13067.106404020216
  0
LINE
  8
_0-0_
  6
CONTINUOUS
 62
    7
 10
5610.1629950944771
 20
13067.106404020216
 11
5610.1629950944771
 21
13187.106404020216
  0
LINE
  8
_0-0_
  6
CONTINUOUS
 62
    7
 10
5689.8231513444771
 20
13442.106892301468
 11
5759.2228095476021
 21
13207.105915738966
  0
LINE
  8
_0-0_
  6
CONTINUOUS
 62
    7
 10
5460.1622626726012
 20
13187.106404020216
 11
5010.1632392351012
 21
13187.106404020216
  0
LINE
  8
_0-0_
  6
CONTINUOUS
 62
    7
 10
5010.1632392351012
 20
13187.106404020216
 11
5010.1632392351012
 21
13067.106404020216
  0
LINE
  8
_0-0_
  6
CONTINUOUS
 62
    7
 10
5010.1632392351012
 20
13067.106404020216
 11
5810.1632392351021
 21
13067.106404020216
  0
LINE
  8
_0-0_
  6
CONTINUOUS
 62
    7
 10
5810.1632392351021
 20
13067.106404020216
 11
5810.1632392351021
 21
13187.106404020216
  0
LINE
  8
_0-0_
  6
CONTINUOUS
 62
    7
 10
5810.1632392351021
 20
13187.106404020216
 11
5490.1617743913521
 21
13187.106404020216
  0
LINE
  8
_0-0_
  6
CONTINUOUS
 62
    7
 10
5010.1632392351012
 20
13187.106404020216
 11
5030.1610419694771
 21
13207.105915738966
  0
LINE
  8
_0-0_
  6
CONTINUOUS
 62
    7
 10
5030.1610419694771
 20
13207.105915738966
 11
5460.1622626726012
 21
13207.105915738966
  0
LINE
  8
_0-0_
  6
CONTINUOUS
 62
    7
 10
5490.1617743913521
 20
13207.105915738966
 11
5790.1629950944771
 21
13207.105915738966
  0
LINE
  8
_0-0_
  6
CONTINUOUS
 62
    7
 10
5790.1629950944771
 20
13207.105915738966
 11
5810.1632392351021
 21
13187.106404020216
  0
LINE
  8
_0-0_
  6
CONTINUOUS
 62
    7
 10
5030.1610419694771
 20
13207.105915738966
 11
5089.2525947038512
 21
13442.106892301468
  0
LINE
  8
_0-0_
  6
CONTINUOUS
 62
    7
 10
5790.1629950944771
 20
13207.105915738966
 11
5731.0616767351021
 21
13442.106892301468
  0
LINE
  8
_0-0_
  6
CONTINUOUS
 62
    7
 10
5061.0912177507271
 20
13207.105915738966
 11
5130.2630927507271
 21
13442.106892301468
  0
LINE
  8
_0-0_
  6
CONTINUOUS
 62
    4
 10
7310.5077216569771
 20
9457.3524977702164
 11
7310.5077216569771
 21
8578.5653883952164
  0
LINE
  8
_0-0_
  6
CONTINUOUS
 62
    4
 10
7331.7206122819771
 20
9478.5658766764664
 11
7310.5077216569771
 21
9457.3524977702164
  0
LINE
  8
_0-0_
  6
CONTINUOUS
 62
    4
 10
7310.5077216569771
 20
11363.601521207716
 11
7310.5077216569771
 21
10484.815876676466
  0
LINE
  8
_0-0_
  6
CONTINUOUS
 62
    4
 10
7331.7206122819771
 20
11384.814900113968
 11
7310.5077216569771
 21
11363.601521207716
  0
LINE
  8
_0-0_
  6
CONTINUOUS
 62
    4
 10
7340.5084540788521
 20
9427.3517653483432
 11
7340.5084540788521
 21
8578.5653883952164
  0
LINE
  8
_0-0_
  6
CONTINUOUS
 62
    4
 10
7361.7213447038521
 20
9448.5651442545914
 11
7340.5084540788521
 21
9427.3517653483432
  0
LINE
  8
_0-0_
  6
CONTINUOUS
 62
    4
 10
7340.5084540788521
 20
11333.602009488966
 11
7340.5084540788521
 21
10484.815876676466
  0
LINE
  8
_0-0_
  6
CONTINUOUS
 62
    4
 10
7361.7213447038521
 20
11354.815876676466
 11
7340.5084540788521
 21
11333.602009488966
  0
LINE
  8
_0-0_
  6
CONTINUOUS
 62
    4
 10
8652.6695334855904
 20
10584.816364957718
 11
7310.5077216569771
 21
10584.816364957718
  0
LINE
  8
_0-0_
  6
CONTINUOUS
 62
    4
 10
8666.1078803483833
 20
10484.815876676466
 11
7310.5077216569771
 21
10484.815876676466
  0
LINE
  8
_0-0_
  6
CONTINUOUS
 62
    4
 10
9150.4961249772896
 20
9478.5658766764664
 11
9171.7090156022896
 21
9457.3524977702164
  0
LINE
  8
_0-0_
  6
CONTINUOUS
 62
    4
 10
7310.5077216569771
 20
8578.5653883952164
 11
9171.7090156022896
 21
8578.5653883952164
  0
LINE
  8
_0-0_
  6
CONTINUOUS
 62
    4
 10
9171.7090156022896
 20
9457.3524977702164
 11
9171.7090156022896
 21
8578.5653883952164
  0
LINE
  8
_0-0_
  6
CONTINUOUS
 62
    7
 10
8310.507462257563
 20
8578.5653883952164
 11
8310.507462257563
 21
6536.0659957665475
  0
LINE
  8
_0-0_
  6
CONTINUOUS
 62
    7
 10
8389.6604621354927
 20
6536.0659957665475
 11
8389.6604621354927
 21
8578.5653883952164
  0
LINE
  8
_0-0_
  6
CONTINUOUS
 62
    7
 10
8439.6606910173286
 20
6536.0659957665475
 11
8439.6606910173286
 21
8578.5653883952164
  0
LINE
  8
_0-0_
  6
CONTINUOUS
 62
    7
 10
8892.5550849382271
 20
6536.0659957665475
 11
8892.5550849382271
 21
8578.5653883952164
  0
LINE
  8
_0-0_
  6
CONTINUOUS
 62
    7
 10
8942.555298561274
 20
6536.0659957665475
 11
8942.555298561274
 21
8578.5653883952164
  0
LINE
  8
_0-0_
  6
CONTINUOUS
 62
    7
 10
9021.7083136979927
 20
8578.5653883952164
 11
9021.7083136979927
 21
6536.0659957665475
  0
LINE
  8
_0-0_
  6
CONTINUOUS
 62
    4
 10
7331.7206122819771
 20
11384.814900113968
 11
8160.5067756120552
 21
11384.814900113968
  0
LINE
  8
_0-0_
  6
CONTINUOUS
 62
    4
 10
7361.7213447038521
 20
11354.815876676466
 11
8160.5067756120552
 21
11354.815876676466
  0
LINE
  8
_0-0_
  6
CONTINUOUS
 62
    4
 10
7340.5084540788521
 20
10954.814900113966
 11
8160.5067756120552
 21
10954.814900113966
  0
LINE
  8
_0-0_
  6
CONTINUOUS
 62
    4
 10
7340.5084540788521
 20
10924.815876676468
 11
8160.5067756120552
 21
10924.815876676468
  0
LINE
  8
_0-0_
  6
CONTINUOUS
 62
    4
 10
8160.5067756120552
 20
10484.815876676466
 11
8160.5067756120552
 21
9478.5658766764664
  0
LINE
  8
_0-0_
  6
CONTINUOUS
 62
    4
 10
8160.5067756120552
 20
9448.5651442545914
 11
8160.5067756120552
 21
8678.5658766764664
  0
LINE
  8
_0-0_
  6
CONTINUOUS
 62
    4
 10
9120.4967353288521
 20
9448.5651442545914
 11
7361.7213447038521
 21
9448.5651442545914
  0
LINE
  8
_0-0_
  6
CONTINUOUS
 62
    4
 10
9120.4967353288521
 20
9448.5651442545914
 11
9141.7096259538503
 21
9427.3517653483432
  0
LINE
  8
_0-0_
  6
CONTINUOUS
 62
    4
 10
9141.7096259538503
 20
9427.3517653483432
 11
9141.7096259538503
 21
8678.5658766764664
  0
LINE
  8
_0-0_
  6
CONTINUOUS
 62
    4
 10
7340.5084540788521
 20
8678.5658766764664
 11
9171.7090156022896
 21
8678.5658766764664
  0
LINE
  8
_0-0_
  6
CONTINUOUS
 62
    4
 10
7340.5084540788521
 20
9048.5646559733432
 11
9141.7096259538503
 21
9048.5646559733432
  0
LINE
  8
_0-0_
  6
CONTINUOUS
 62
    4
 10
7340.5084540788521
 20
9078.5653883952164
 11
9141.7096259538503
 21
9078.5653883952164
  0
LINE
  8
_0-0_
  6
CONTINUOUS
 62
    4
 10
7973.6549384538521
 20
12391.063923551466
 11
7973.6549384538521
 21
12559.410603238968
  0
LINE
  8
_0-0_
  6
CONTINUOUS
 62
    4
 10
8160.5067756120552
 20
12241.065876676466
 11
9171.7090156022896
 21
12241.065876676466
  0
LINE
  8
_0-0_
  6
CONTINUOUS
 62
    4
 10
9171.7090156022896
 20
12391.063923551466
 11
9171.7090156022896
 21
8578.5653883952164
  0
LINE
  8
_0-0_
  6
CONTINUOUS
 62
    4
 10
8160.5067756120552
 20
12391.063923551466
 11
8160.5067756120552
 21
10584.816364957718
  0
LINE
  8
_0-0_
  6
CONTINUOUS
 62
    4
 10
7973.6549384538521
 20
12391.063923551466
 11
9357.6559760515083
 21
12391.063923551466
  0
LINE
  8
_0-0_
  6
CONTINUOUS
 62
    4
 10
9357.6559760515083
 20
12391.063923551466
 11
9357.6559760515083
 21
12559.410603238968
  0
LINE
  8
_0-0_
  6
CONTINUOUS
 62
    4
 10
8023.6551825944771
 20
12391.063923551466
 11
8023.6551825944771
 21
12559.410603238968
  0
LINE
  8
_0-0_
  6
CONTINUOUS
 62
    4
 10
8073.6554267351012
 20
12391.063923551466
 11
8073.6554267351012
 21
12559.410603238968
  0
LINE
  8
_0-0_
  6
CONTINUOUS
 62
    4
 10
8123.6556708757262
 20
12391.063923551466
 11
8123.6556708757262
 21
12559.410603238968
  0
LINE
  8
_0-0_
  6
CONTINUOUS
 62
    4
 10
8173.655884498774
 20
12391.063923551466
 11
8173.655884498774
 21
12559.410603238968
  0
LINE
  8
_0-0_
  6
CONTINUOUS
 62
    4
 10
8223.6542670671333
 20
12391.063923551466
 11
8223.6542670671333
 21
12559.410603238968
  0
LINE
  8
_0-0_
  6
CONTINUOUS
 62
    4
 10
8273.6544806901802
 20
12391.063923551466
 11
8273.6544806901802
 21
12559.410603238968
  0
LINE
  8
_0-0_
  6
CONTINUOUS
 62
    4
 10
8323.6547248308052
 20
12391.063923551466
 11
8323.6547248308052
 21
12559.410603238968
  0
LINE
  8
_0-0_
  6
CONTINUOUS
 62
    4
 10
8373.6549537126411
 20
12391.063923551466
 11
8373.6549537126411
 21
12559.410603238968
  0
LINE
  8
_0-0_
  6
CONTINUOUS
 62
    4
 10
8423.6551902238716
 20
12391.063923551466
 11
8423.6551902238716
 21
12559.410603238968
  0
LINE
  8
_0-0_
  6
CONTINUOUS
 62
    4
 10
8473.6554191057076
 20
12391.063923551466
 11
8473.6554191057076
 21
12559.410603238968
  0
LINE
  8
_0-0_
  6
CONTINUOUS
 62
    4
 10
8523.6556537095894
 20
12391.063923551466
 11
8523.6556537095894
 21
12559.410603238968
  0
LINE
  8
_0-0_
  6
CONTINUOUS
 62
    4
 10
8573.6546466295113
 20
12391.063923551466
 11
8573.6546466295113
 21
12559.410603238968
  0
LINE
  8
_0-0_
  6
CONTINUOUS
 62
    4
 10
8623.6548774186958
 20
12391.063923551466
 11
8623.6548774186958
 21
12559.410603238968
  0
LINE
  8
_0-0_
  6
CONTINUOUS
 62
    4
 10
8673.6544883195747
 20
12391.063923551466
 11
8673.6544883195747
 21
12559.410603238968
  0
LINE
  8
_0-0_
  6
CONTINUOUS
 62
    4
 10
8723.6547248308052
 20
12391.063923551466
 11
8723.6547248308052
 21
12559.410603238968
  0
LINE
  8
_0-0_
  6
CONTINUOUS
 62
    4
 10
8773.6549537126411
 20
12391.063923551466
 11
8773.6549537126411
 21
12559.410603238968
  0
LINE
  8
_0-0_
  6
CONTINUOUS
 62
    4
 10
8823.6551825944771
 20
12391.063923551466
 11
8823.6551825944771
 21
12559.410603238968
  0
LINE
  8
_0-0_
  6
CONTINUOUS
 62
    4
 10
8873.6554267351003
 20
12391.063923551466
 11
8873.6554267351003
 21
12559.410603238968
  0
LINE
  8
_0-0_
  6
CONTINUOUS
 62
    4
 10
8923.655640358149
 20
12391.063923551466
 11
8923.655640358149
 21
12559.410603238968
  0
LINE
  8
_0-0_
  6
CONTINUOUS
 62
    4
 10
8973.6546332780708
 20
12391.063923551466
 11
8973.6546332780708
 21
12559.410603238968
  0
LINE
  8
_0-0_
  6
CONTINUOUS
 62
    4
 10
9023.6548774186958
 20
12391.063923551466
 11
9023.6548774186958
 21
12559.410603238968
  0
LINE
  8
_0-0_
  6
CONTINUOUS
 62
    4
 10
9073.6551215593208
 20
12391.063923551466
 11
9073.6551215593208
 21
12559.410603238968
  0
LINE
  8
_0-0_
  6
CONTINUOUS
 62
    4
 10
9123.6546943132271
 20
12391.063923551466
 11
9123.6546943132271
 21
12559.410603238968
  0
LINE
  8
_0-0_
  6
CONTINUOUS
 62
    4
 10
9173.6549384538521
 20
12391.063923551466
 11
9173.6549384538521
 21
12559.410603238968
  0
LINE
  8
_0-0_
  6
CONTINUOUS
 62
    4
 10
9223.6551825944771
 20
12391.063923551466
 11
9223.6551825944771
 21
12559.410603238968
  0
LINE
  8
_0-0_
  6
CONTINUOUS
 62
    4
 10
9273.6541449968208
 20
12391.063923551466
 11
9273.6541449968208
 21
12559.410603238968
  0
LINE
  8
_0-0_
  6
CONTINUOUS
 62
    4
 10
9323.6543891374458
 20
12391.063923551466
 11
9323.6543891374458
 21
12559.410603238968
  0
LINE
  8
_0-0_
  6
CONTINUOUS
 62
    7
 10
6905.4769599382271
 20
13060.786579801466
 11
6905.4769599382271
 21
13160.115681363965
  0
LINE
  8
_0-0_
  6
CONTINUOUS
 62
    3
 10
17193.219635719477
 20
16449.755818082718
 11
17138.565338844477
 21
16596.645466520215
  0
LINE
  8
_0-0_
  6
CONTINUOUS
 62
    3
 10
20197.827057594477
 20
16349.071247770218
 11
20556.753815406977
 21
16447.526325895218
  0
LINE
  8
_0-0_
  6
CONTINUOUS
 62
    3
 10
20556.753815406977
 20
16447.526325895218
 11
20521.526276344477
 21
16542.364216520218
  0
LINE
  8
_0-0_
  6
CONTINUOUS
 62
    3
 10
20521.526276344477
 20
16542.364216520218
 11
20162.472565406977
 21
16443.894489957718
  0
LINE
  8
_0-0_
  6
CONTINUOUS
 62
    3
 10
20162.472565406977
 20
16443.894489957718
 11
20197.827057594477
 21
16349.071247770218
  0
LINE
  8
_0-0_
  6
CENTER2
 62
    3
 10
20535.289948219477
 20
16493.834919645218
 11
20423.254791969477
 21
16463.158161832718
  0
LINE
  8
_0-0_
  6
CONTINUOUS
 62
    3
 10
19915.761627906977
 20
17107.441364957718
 11
20274.688385719477
 21
17205.796833707718
  0
LINE
  8
_0-0_
  6
CONTINUOUS
 62
    3
 10
20274.688385719477
 20
17205.796833707718
 11
20239.465729469477
 21
17300.634724332718
  0
LINE
  8
_0-0_
  6
CONTINUOUS
 62
    3
 10
20239.465729469477
 20
17300.634724332718
 11
19880.545807594477
 21
17202.177693082718
  0
LINE
  8
_0-0_
  6
CONTINUOUS
 62
    3
 10
19880.545807594477
 20
17202.177693082718
 11
19915.761627906977
 21
17107.441364957718
  0
LINE
  8
_0-0_
  6
CENTER2
 62
    3
 10
20253.353424781977
 20
17252.221638395218
 11
20141.330963844477
 21
17221.441364957718
  0
LINE
  8
_0-0_
  6
CONTINUOUS
 62
    3
 10
14261.379791969477
 20
15645.888630582715
 11
19885.810456031977
 21
17187.950154020218
  0
LINE
  8
_0-0_
  6
CONTINUOUS
 62
    3
 10
14286.071686500727
 20
15579.510700895218
 11
19910.498932594477
 21
17121.664021207715
  0
LINE
  8
_0-0_
  6
CONTINUOUS
 62
    3
 10
14568.103424781975
 20
14821.234333707718
 11
20192.435456031977
 21
16363.287068082718
  0
LINE
  8
_0-0_
  6
CONTINUOUS
 62
    3
 10
14543.426666969477
 20
14887.518513395218
 11
20167.855377906977
 21
16429.679646207718
  0
LINE
  8
_0-0_
  6
CONTINUOUS
 62
    3
 10
14405.739655250727
 20
15612.294880582715
 11
14663.091217750727
 21
14920.405232145216
  0
LINE
  8
_0-0_
  6
CONTINUOUS
 62
    3
 10
20035.367096656977
 20
17140.221638395218
 11
20282.200104469477
 21
16476.689411832718
  0
LINE
  8
_0-0_
  6
CONTINUOUS
 62
    3
 10
17217.918854469477
 20
16383.374958707716
 11
17475.284088844477
 21
15691.384724332715
  0
LINE
  8
_0-0_
  6
CONTINUOUS
 62
    3
 10
17535.142487281977
 20
15707.833943082716
 11
17696.574127906977
 21
16514.623005582718
  0
LINE
  8
_0-0_
  6
CONTINUOUS
 62
    3
 10
17732.495026344477
 20
16524.435505582715
 11
18408.636627906977
 21
15947.349568082716
  0
LINE
  8
_0-0_
  6
CONTINUOUS
 62
    3
 10
18444.565338844477
 20
15957.156208707715
 11
18606.119049781977
 21
16763.967732145215
  0
LINE
  8
_0-0_
  6
CONTINUOUS
 62
    3
 10
18641.903229469477
 20
16773.856404020218
 11
19318.190338844477
 21
16196.687458707716
  0
LINE
  8
_0-0_
  6
CONTINUOUS
 62
    3
 10
19354.102448219477
 20
16206.596638395218
 11
19515.525299781977
 21
17013.386677457718
  0
LINE
  8
_0-0_
  6
CONTINUOUS
 62
    3
 10
19551.443268531977
 20
17023.196247770215
 11
20213.786041969477
 21
16457.933552457718
  0
LINE
  8
_0-0_
  6
CONTINUOUS
 62
    3
 10
17415.413971656977
 20
15675.036091520218
 11
16739.263581031977
 21
16252.121052457716
  0
LINE
  8
_0-0_
  6
CONTINUOUS
 62
    3
 10
16703.339752906977
 20
16242.313435270216
 11
16541.891510719477
 21
15435.515583707718
  0
LINE
  8
_0-0_
  6
CONTINUOUS
 62
    3
 10
16505.996002906977
 20
15425.709919645215
 11
15829.798737281977
 21
16002.788044645218
  0
LINE
  8
_0-0_
  6
CONTINUOUS
 62
    3
 10
15793.900788063225
 20
15992.983357145215
 11
15632.407624000725
 21
15186.182575895216
  0
LINE
  8
_0-0_
  6
CONTINUOUS
 62
    3
 10
15596.514557594477
 20
15176.277302457716
 11
14920.313874000727
 21
15753.455036832716
  0
LINE
  8
_0-0_
  6
CONTINUOUS
 62
    3
 10
14884.419342750727
 20
15743.550739957715
 11
14726.241120094477
 21
14953.385700895216
  0
LINE
  8
_0-0_
  6
CENTER2
 62
    3
 10
14354.912018531977
 20
15217.121052457716
 11
20338.316315406977
 21
16857.640583707718
  0
LINE
  8
_0-0_
  6
CENTER2
 62
    3
 10
20463.917877906977
 20
16520.020466520218
 11
20494.763581031977
 21
16436.990193082715
  0
LINE
  8
_0-0_
  6
CENTER2
 62
    3
 10
20181.847565406977
 20
17278.387654020218
 11
20212.710846656977
 21
17195.262654020218
  0
LINE
  8
_0-0_
  6
CENTER2
 62
    3
 10
14171.003815406977
 20
15584.508747770218
 11
14255.607819313227
 21
15607.777302457716
  0
LINE
  8
_0-0_
  6
CENTER2
 62
    3
 10
14226.526276344475
 20
15562.289997770216
 11
14201.596588844479
 21
15629.349568082716
  0
LINE
  8
_0-0_
  6
CONTINUOUS
 62
    3
 10
13914.405670875727
 20
15461.914997770216
 11
14291.363190406977
 21
15565.281208707716
  0
LINE
  8
_0-0_
  6
CONTINUOUS
 62
    3
 10
14291.363190406977
 20
15565.281208707716
 11
14256.102936500727
 21
15660.115193082716
  0
LINE
  8
_0-0_
  6
CONTINUOUS
 62
    3
 10
14256.102936500727
 20
15660.115193082716
 11
13879.145416969475
 21
15556.748982145216
  0
LINE
  8
_0-0_
  6
CONTINUOUS
 62
    3
 10
13879.145416969475
 20
15556.748982145216
 11
13914.405670875727
 21
15461.914997770216
  0
LINE
  8
_0-0_
  6
CENTER2
 62
    3
 10
14453.034577125725
 20
14826.232380582718
 11
14537.654206031977
 21
14849.404255582715
  0
LINE
  8
_0-0_
  6
CENTER2
 62
    3
 10
14508.561920875727
 20
14804.015583707718
 11
14483.632233375727
 21
14871.076130582716
  0
LINE
  8
_0-0_
  6
CONTINUOUS
 62
    3
 10
14196.433991188227
 20
14703.639607145215
 11
14573.391510719477
 21
14807.007771207716
  0
LINE
  8
_0-0_
  6
CONTINUOUS
 62
    3
 10
14573.391510719477
 20
14807.007771207716
 11
14538.138581031979
 21
14901.743122770216
  0
LINE
  8
_0-0_
  6
CONTINUOUS
 62
    3
 10
14538.138581031979
 20
14901.743122770216
 11
14161.176178688225
 21
14798.473591520218
  0
LINE
  8
_0-0_
  6
CONTINUOUS
 62
    3
 10
14161.176178688225
 20
14798.473591520218
 11
14196.433991188227
 21
14703.639607145215
  0
LINE
  8
_0-0_
  6
CONTINUOUS
 62
    3
 10
13027.781647438227
 20
15239.716755582716
 11
13907.356354469477
 21
15480.878864957716
  0
LINE
  8
_0-0_
  6
CONTINUOUS
 62
    3
 10
13337.449616188227
 20
14594.048298551468
 11
13090.869538063225
 21
15257.007771207716
  0
LINE
  8
_0-0_
  6
CONTINUOUS
 62
    3
 10
12972.397858375729
 20
15221.028279020216
 11
13215.691803688227
 21
14566.873005582715
  0
LINE
  8
_0-0_
  6
CONTINUOUS
 62
    3
 10
10521.377106422602
 20
14400.633259488966
 11
11072.746002906975
 21
14088.253864957716
  0
LINE
  8
_0-0_
  6
CONTINUOUS
 62
    3
 10
11097.103180641352
 20
14093.629841520215
 11
11318.842682594477
 21
14667.550739957716
  0
LINE
  8
_0-0_
  6
CONTINUOUS
 62
    3
 10
11342.278473610102
 20
14675.446247770216
 11
11925.061188453852
 21
14278.590779020215
  0
LINE
  8
_0-0_
  6
CONTINUOUS
 62
    3
 10
11949.402252906977
 20
14284.064411832716
 11
12139.752838844477
 21
14942.365193082716
  0
LINE
  8
_0-0_
  6
CONTINUOUS
 62
    3
 10
12163.203278297602
 20
14950.159138395216
 11
12777.371491188227
 21
14468.921345426466
  0
LINE
  8
_0-0_
  6
CONTINUOUS
 62
    3
 10
12801.718659156979
 20
14474.397419645216
 11
12960.670319313227
 21
15217.079060270216
  0
LINE
  8
_0-0_
  6
CONTINUOUS
 62
    3
 10
14052.014557594475
 20
15499.702107145216
 11
14298.789948219477
 21
14836.165974332715
  0
LINE
  8
_0-0_
  6
CONTINUOUS
 62
    3
 10
13361.796784156977
 20
14599.526814176465
 11
13555.953522438227
 21
15384.520466520218
  0
LINE
  8
_0-0_
  6
CONTINUOUS
 62
    3
 10
13579.874909156975
 20
15391.158161832715
 11
14274.859284156977
 21
14829.628864957715
  0
LINE
  8
_0-0_
  6
CONTINUOUS
 62
    3
 10
9554.0448920671333
 20
13537.771931363966
 11
9554.3570868913521
 21
13536.171345426465
  0
LINE
  8
_0-0_
  6
CONTINUOUS
 62
    3
 10
8633.8664863054128
 20
13519.468220426466
 11
8646.0705039445747
 21
13534.069294645218
  0
LINE
  8
_0-0_
  6
CONTINUOUS
 62
    3
 10
10040.561798805415
 20
14239.689900113968
 11
10171.737213844477
 21
13886.972126676466
  0
LINE
  8
_0-0_
  6
CONTINUOUS
 62
    3
 10
10232.62161325854
 20
13900.611286832716
 11
10099.193146461665
 21
14259.326618863966
  0
LINE
  8
_0-0_
  6
CONTINUOUS
 62
    3
 10
10426.156647438227
 20
13943.776325895215
 11
14168.186920875727
 21
14779.601521207718
  0
LINE
  8
_0-0_
  6
CONTINUOUS
 62
    3
 10
14192.913483375727
 20
14713.121540738968
 11
10433.549103492915
 21
13873.463337613966
  0
LINE
  8
_0-0_
  6
CONTINUOUS
 62
    3
 10
10244.792755836665
 20
13903.298786832715
 11
10367.71731638354
 21
14141.048298551465
  0
LINE
  8
_0-0_
  6
CONTINUOUS
 62
    3
 10
9461.5284736101021
 20
13895.671345426468
 11
9619.3005683366628
 21
13939.470661832718
  0
LINE
  8
_0-0_
  6
CONTINUOUS
 62
    3
 10
10341.701569313227
 20
14340.520466520218
 11
13031.028229469479
 21
15240.661091520218
  0
LINE
  8
_0-0_
  6
CONTINUOUS
 62
    3
 10
8666.5284125749458
 20
13407.969196988966
 11
8716.5261695329536
 21
13415.167927457716
  0
LINE
  8
_0-0_
  6
CONTINUOUS
 62
    3
 10
8905.4676215593208
 20
13604.161091520216
 11
9001.0435492936958
 21
13716.966755582718
  0
LINE
  8
_0-0_
  6
CONTINUOUS
 62
    3
 10
8666.5284125749458
 20
13558.569294645218
 11
8716.5261695329536
 21
13618.270466520215
  0
LINE
  8
_0-0_
  6
CONTINUOUS
 62
    3
 10
8716.5261695329536
 20
13761.870075895218
 11
8666.5284125749458
 21
13747.969685270215
  0
LINE
  8
_0-0_
  6
CONTINUOUS
 62
    3
 10
26181.246002906977
 20
17989.595661832715
 11
26540.300690406981
 21
18088.068318082715
  0
LINE
  8
_0-0_
  6
CONTINUOUS
 62
    3
 10
26540.300690406981
 20
18088.068318082715
 11
26504.943268531973
 21
18182.888630582715
  0
LINE
  8
_0-0_
  6
CONTINUOUS
 62
    3
 10
26504.943268531973
 20
18182.888630582715
 11
26146.023346656977
 21
18084.431599332718
  0
LINE
  8
_0-0_
  6
CONTINUOUS
 62
    3
 10
26146.023346656977
 20
18084.431599332718
 11
26181.246002906977
 21
17989.595661832715
  0
LINE
  8
_0-0_
  6
CENTER2
 62
    3
 10
26518.824127906977
 20
18134.470661832718
 11
26406.802643531977
 21
18103.695271207715
  0
LINE
  8
_0-0_
  6
CONTINUOUS
 62
    3
 10
25899.181549781973
 20
18747.965779020218
 11
26258.232331031981
 21
18846.434529020218
  0
LINE
  8
_0-0_
  6
CONTINUOUS
 62
    3
 10
26258.232331031981
 20
18846.434529020218
 11
26223.013581031977
 21
18941.173786832718
  0
LINE
  8
_0-0_
  6
CONTINUOUS
 62
    3
 10
26223.013581031977
 20
18941.173786832718
 11
25863.962799781977
 21
18842.704060270218
  0
LINE
  8
_0-0_
  6
CONTINUOUS
 62
    3
 10
25863.962799781977
 20
18842.704060270218
 11
25899.181549781973
 21
18747.965779020218
  0
LINE
  8
_0-0_
  6
CENTER2
 62
    3
 10
26236.773346656981
 20
18892.746052457715
 11
26124.742096656981
 21
18862.067341520215
  0
LINE
  8
_0-0_
  6
CONTINUOUS
 62
    3
 10
20244.732331031977
 20
17286.404255582715
 11
25869.230377906977
 21
18828.479450895215
  0
LINE
  8
_0-0_
  6
CONTINUOUS
 62
    3
 10
20269.426666969477
 20
17220.024372770218
 11
25893.915924781981
 21
18762.193318082718
  0
LINE
  8
_0-0_
  6
CONTINUOUS
 62
    3
 10
20551.485260719477
 20
16461.755818082715
 11
26175.982331031981
 21
18003.826130582718
  0
LINE
  8
_0-0_
  6
CONTINUOUS
 62
    3
 10
20526.787995094477
 20
16528.136677457718
 11
26151.285065406977
 21
18070.204060270218
  0
LINE
  8
_0-0_
  6
CONTINUOUS
 62
    3
 10
20389.149323219477
 20
17252.920857145215
 11
20646.518463844477
 21
16560.928669645215
  0
LINE
  8
_0-0_
  6
CONTINUOUS
 62
    3
 10
26018.910065406977
 20
18780.757771207715
 11
26265.619049781981
 21
18117.211872770218
  0
LINE
  8
_0-0_
  6
CONTINUOUS
 62
    3
 10
23201.338776344477
 20
18023.894489957718
 11
23458.685456031977
 21
17332.007771207718
  0
LINE
  8
_0-0_
  6
CONTINUOUS
 62
    3
 10
23518.562409156981
 20
17348.355427457715
 11
23679.996002906977
 21
18155.149372770218
  0
LINE
  8
_0-0_
  6
CONTINUOUS
 62
    3
 10
23715.897370094477
 20
18165.058552457718
 11
24392.190338844477
 21
17587.889607145218
  0
LINE
  8
_0-0_
  6
CONTINUOUS
 62
    3
 10
24427.985260719477
 20
17597.680622770218
 11
24589.540924781977
 21
18404.489216520215
  0
LINE
  8
_0-0_
  6
CONTINUOUS
 62
    3
 10
24625.454987281977
 20
18414.398396207718
 11
25301.603424781977
 21
17837.214802457718
  0
LINE
  8
_0-0_
  6
CONTINUOUS
 62
    3
 10
25337.527252906977
 20
17847.119099332718
 11
25498.943268531977
 21
18653.913044645215
  0
LINE
  8
_0-0_
  6
CONTINUOUS
 62
    3
 10
25534.872956031977
 20
18663.723591520215
 11
26197.204987281977
 21
18098.462849332718
  0
LINE
  8
_0-0_
  6
CONTINUOUS
 62
    3
 10
23398.839752906977
 20
17315.562458707718
 11
22722.686432594477
 21
17892.645466520218
  0
LINE
  8
_0-0_
  6
CONTINUOUS
 62
    3
 10
22686.772370094477
 20
17882.834919645218
 11
22525.340729469477
 21
17076.042927457718
  0
LINE
  8
_0-0_
  6
CONTINUOUS
 62
    3
 10
22489.416901344477
 20
17066.233357145218
 11
21813.144440406977
 21
17643.307575895215
  0
LINE
  8
_0-0_
  6
CONTINUOUS
 62
    3
 10
21777.338776344477
 20
17633.509724332718
 11
21615.798737281977
 21
16826.703083707718
  0
LINE
  8
_0-0_
  6
CONTINUOUS
 62
    3
 10
21579.887604469477
 20
16816.796833707718
 11
20903.720612281977
 21
17393.980427457718
  0
LINE
  8
_0-0_
  6
CONTINUOUS
 62
    3
 10
20867.809479469477
 20
17384.076130582718
 11
20709.661041969477
 21
16593.910114957718
  0
LINE
  8
_0-0_
  6
CENTER2
 62
    3
 10
20338.316315406977
 20
16857.640583707718
 11
26321.718659156977
 21
18498.263630582715
  0
LINE
  8
_0-0_
  6
CENTER2
 62
    3
 10
26447.318268531977
 20
18160.644489957718
 11
26478.181549781981
 21
18077.511677457715
  0
LINE
  8
_0-0_
  6
CENTER2
 62
    3
 10
26165.275299781977
 20
18918.919880582718
 11
26196.259674781981
 21
18835.799763395215
  0
LINE
  8
_0-0_
  6
CONTINUOUS
 62
    3
 10
27363.281159156973
 20
19243.416950895215
 11
26226.521393531981
 21
18931.687458707718
  0
LINE
  8
_0-0_
  6
CONTINUOUS
 62
    3
 10
27387.990143531977
 20
19177.039021207715
 11
26251.220612281973
 21
18865.309529020218
  0
LINE
  8
_0-0_
  6
CONTINUOUS
 62
    3
 10
26633.767487281977
 20
18191.303669645218
 11
26370.808502906981
 21
18898.184529020215
  0
LINE
  8
_0-0_
  6
CONTINUOUS
 62
    3
 10
27573.583893531973
 20
18491.080036832715
 11
27324.941315406977
 21
19159.751911832718
  0
LINE
  8
_0-0_
  6
CONTINUOUS
 62
    3
 10
27445.587799781981
 20
19189.827107145218
 11
27691.538971656981
 21
18528.715779020218
  0
LINE
  8
_0-0_
  6
CONTINUOUS
 62
    3
 10
26657.361237281977
 20
18198.805622770215
 11
26823.929596656977
 21
19022.432575895215
  0
LINE
  8
_0-0_
  6
CONTINUOUS
 62
    3
 10
26871.826081031973
 20
19035.513630582715
 11
27549.984284156977
 21
18483.571247770215
  0
LINE
  8
_0-0_
  6
CONTINUOUS
 62
    3
 10
27703.341706031977
 20
18532.468708707718
 11
27741.150299781977
 21
19256.190388395218
  0
LINE
  8
_0-0_
  6
CONTINUOUS
 62
    3
 10
27765.458893531981
 20
19261.660114957715
 11
28275.646393531973
 21
18714.989216520218
  0
LINE
  8
_0-0_
  6
CONTINUOUS
 62
    3
 10
28299.242096656973
 20
18722.500935270215
 11
28356.462799781981
 21
19394.262654020218
  0
LINE
  8
_0-0_
  6
CONTINUOUS
 62
    3
 10
28380.771393531977
 20
19399.729450895218
 11
28871.652252906977
 21
18905.135700895215
  0
LINE
  8
_0-0_
  6
CONTINUOUS
 62
    3
 10
28895.255768531977
 20
18912.641560270218
 11
28971.761627906977
 21
19532.436482145215
  0
LINE
  8
_0-0_
  6
CONTINUOUS
 62
    3
 10
28996.087799781981
 20
19537.809529020218
 11
29467.691315406977
 21
19095.177693082718
  0
LINE
  8
_0-0_
  6
CONTINUOUS
 62
    3
 10
29491.275299781977
 20
19102.683552457718
 11
29587.083893531973
 21
19670.508747770218
  0
LINE
  8
_0-0_
  6
CONTINUOUS
 62
    3
 10
29587.083893531973
 20
19670.508747770218
 11
29765.626862281977
 21
19190.243122770215
  0
LINE
  8
_0-0_
  6
CONTINUOUS
 62
    3
 10
29789.220612281973
 20
19197.749958707715
 11
29611.380768531977
 21
19675.981404020218
  0
LINE
  8
_0-0_
  6
CONTINUOUS
 62
    3
 10
29611.380768531977
 20
19675.981404020218
 11
30063.570221656977
 21
19285.303669645218
  0
LINE
  8
_0-0_
  6
CONTINUOUS
 62
    3
 10
30087.169831031973
 20
19292.810505582715
 11
30202.386627906981
 21
19808.582966520215
  0
LINE
  8
_0-0_
  6
CONTINUOUS
 62
    3
 10
30226.699127906977
 20
19814.053669645215
 11
30659.605377906981
 21
19475.353474332718
  0
LINE
  8
_0-0_
  6
CONTINUOUS
 62
    3
 10
30683.195221656977
 20
19482.857380582715
 11
30817.699127906973
 21
19946.655232145218
  0
LINE
  8
_0-0_
  6
CONTINUOUS
 62
    3
 10
30842.011627906981
 20
19952.125935270215
 11
31255.615143531973
 21
19665.492146207715
  0
LINE
  8
_0-0_
  6
CONTINUOUS
 62
    3
 10
31279.208893531977
 20
19672.998005582718
 11
31433.007721656973
 21
20084.829060270215
  0
LINE
  8
_0-0_
  6
CONTINUOUS
 62
    3
 10
31457.314362281977
 20
20090.301716520218
 11
31851.515534156977
 21
19855.524372770218
  0
LINE
  8
_0-0_
  6
CONTINUOUS
 62
    3
 10
31875.113190406977
 20
19863.028279020215
 11
32048.320221656981
 21
20222.904255582718
  0
LINE
  8
_0-0_
  6
CONTINUOUS
 62
    3
 10
32072.626862281981
 20
20228.372029020218
 11
32447.533112281973
 21
20045.660114957718
  0
LINE
  8
_0-0_
  6
CONTINUOUS
 62
    3
 10
32471.122956031981
 20
20053.171833707718
 11
32663.626862281977
 21
20360.976521207718
  0
LINE
  8
_0-0_
  6
CONTINUOUS
 62
    3
 10
32687.941315406977
 20
20366.446247770218
 11
33043.558502906977
 21
20235.709919645218
  0
LINE
  8
_0-0_
  6
CONTINUOUS
 62
    7
 10
33778.070221656977
 20
17632.556599332715
 11
33778.074127906977
 21
16872.556599332718
  0
LINE
  8
_0-0_
  6
CONTINUOUS
 62
    7
 10
33778.074127906977
 20
16872.556599332718
 11
33798.066315406984
 21
16872.556599332718
  0
LINE
  8
_0-0_
  6
CONTINUOUS
 62
    7
 10
33798.066315406984
 20
16872.556599332718
 11
33798.062409156977
 21
17632.556599332715
  0
LINE
  8
_0-0_
  6
CONTINUOUS
 62
    7
 10
33798.062409156977
 20
17632.556599332715
 11
33778.070221656977
 21
17632.556599332715
  0
LINE
  8
_0-0_
  6
CONTINUOUS
 62
    7
 10
33530.574127906984
 20
16872.556599332718
 11
33530.572174781977
 21
17632.553669645215
  0
LINE
  8
_0-0_
  6
CONTINUOUS
 62
    7
 10
33530.572174781977
 20
17632.553669645215
 11
33510.570221656977
 21
17632.553669645215
  0
LINE
  8
_0-0_
  6
CONTINUOUS
 62
    7
 10
33510.570221656977
 20
17632.553669645215
 11
33510.564362281977
 21
16872.556599332718
  0
LINE
  8
_0-0_
  6
CONTINUOUS
 62
    7
 10
33510.564362281977
 20
16872.556599332718
 11
33530.574127906984
 21
16872.556599332718
  0
LINE
  8
_0-0_
  6
CONTINUOUS
 62
    7
 10
33530.572174781977
 20
17199.355427457715
 11
33778.070221656977
 21
17199.355427457715
  0
LINE
  8
_0-0_
  6
CONTINUOUS
 62
    7
 10
33530.572174781977
 20
17572.557575895218
 11
33584.312409156977
 21
17572.557575895218
  0
LINE
  8
_0-0_
  6
CONTINUOUS
 62
    7
 10
33584.312409156977
 20
17522.554646207715
 11
33584.320221656977
 21
17637.552693082718
  0
LINE
  8
_0-0_
  6
CONTINUOUS
 62
    7
 10
33584.320221656977
 20
17637.552693082718
 11
33591.816315406984
 21
17637.555622770215
  0
LINE
  8
_0-0_
  6
CONTINUOUS
 62
    7
 10
33591.822174781977
 20
17522.557575895218
 11
33591.824127906977
 21
17798.057575895218
  0
LINE
  8
_0-0_
  6
CONTINUOUS
 62
    7
 10
33594.322174781977
 20
17800.059529020218
 11
33626.318268531977
 21
17800.059529020218
  0
LINE
  8
_0-0_
  6
CONTINUOUS
 62
    7
 10
33714.322174781977
 20
17800.059529020218
 11
33682.316315406977
 21
17800.056599332718
  0
LINE
  8
_0-0_
  6
CONTINUOUS
 62
    7
 10
33716.826081031977
 20
17522.557575895218
 11
33716.826081031977
 21
17798.060505582718
  0
LINE
  8
_0-0_
  6
CONTINUOUS
 62
    7
 10
33778.074127906977
 20
17572.557575895218
 11
33724.312409156977
 21
17572.557575895218
  0
LINE
  8
_0-0_
  6
CONTINUOUS
 62
    7
 10
33724.318268531977
 20
17522.554646207715
 11
33724.318268531977
 21
17637.557575895215
  0
LINE
  8
_0-0_
  6
CONTINUOUS
 62
    7
 10
33724.318268531977
 20
17637.557575895215
 11
33716.826081031977
 21
17637.555622770215
  0
LINE
  8
_0-0_
  6
CONTINUOUS
 62
    7
 10
33798.066315406984
 20
17565.061482145218
 11
33835.568268531977
 21
17565.058552457718
  0
LINE
  8
_0-0_
  6
CONTINUOUS
 62
    7
 10
33835.568268531977
 20
17565.058552457718
 11
33835.568268531977
 21
17480.058552457718
  0
LINE
  8
_0-0_
  6
CONTINUOUS
 62
    7
 10
33835.568268531977
 20
17480.058552457718
 11
33798.068268531977
 21
17480.055622770215
  0
LINE
  8
_0-0_
  6
CONTINUOUS
 62
    7
 10
33510.570221656977
 20
17565.058552457718
 11
33473.064362281977
 21
17565.061482145218
  0
LINE
  8
_0-0_
  6
CONTINUOUS
 62
    7
 10
33473.064362281977
 20
17565.061482145218
 11
33473.062409156977
 21
17480.058552457718
  0
LINE
  8
_0-0_
  6
CONTINUOUS
 62
    7
 10
33473.062409156977
 20
17480.058552457718
 11
33510.568268531977
 21
17480.058552457718
  0
LINE
  8
_0-0_
  6
CONTINUOUS
 62
    7
 10
33741.820221656977
 20
17025.054646207718
 11
33741.822174781977
 21
17144.056599332718
  0
LINE
  8
_0-0_
  6
CONTINUOUS
 62
    7
 10
33741.822174781977
 20
17144.056599332718
 11
33566.820221656977
 21
17144.056599332718
  0
LINE
  8
_0-0_
  6
CONTINUOUS
 62
    7
 10
33566.820221656977
 20
17144.056599332718
 11
33566.818268531977
 21
17025.054646207718
  0
LINE
  8
_0-0_
  6
CONTINUOUS
 62
    7
 10
33566.818268531977
 20
17025.054646207718
 11
33741.820221656977
 21
17025.054646207718
  0
LINE
  8
_0-0_
  6
CONTINUOUS
 62
    7
 10
33606.826081031977
 20
17144.056599332718
 11
33606.829987281977
 21
17158.955036832718
  0
LINE
  8
_0-0_
  6
CONTINUOUS
 62
    7
 10
33701.824127906977
 20
17144.053669645218
 11
33701.820221656977
 21
17158.955036832718
  0
LINE
  8
_0-0_
  6
CONTINUOUS
 62
    7
 10
33530.572174781977
 20
16922.556599332718
 11
33778.068268531977
 21
16922.556599332718
  0
LINE
  8
_0-0_
  6
CONTINUOUS
 62
    7
 10
33530.576081031977
 20
17022.554646207715
 11
33778.066315406977
 21
17022.557575895218
  0
LINE
  8
_0-0_
  6
CONTINUOUS
 62
    7
 10
33835.568268531977
 20
16925.056599332718
 11
33835.564362281977
 21
17010.059529020218
  0
LINE
  8
_0-0_
  6
CONTINUOUS
 62
    7
 10
33835.564362281977
 20
17010.059529020218
 11
33810.570221656977
 21
17010.059529020218
  0
LINE
  8
_0-0_
  6
CONTINUOUS
 62
    7
 10
33810.570221656977
 20
17010.059529020218
 11
33810.574127906977
 21
16925.053669645218
  0
LINE
  8
_0-0_
  6
CONTINUOUS
 62
    7
 10
33810.574127906977
 20
16925.053669645218
 11
33835.568268531977
 21
16925.056599332718
  0
LINE
  8
_0-0_
  6
CONTINUOUS
 62
    7
 10
33810.570221656977
 20
17000.058552457715
 11
33798.066315406984
 21
17000.058552457715
  0
LINE
  8
_0-0_
  6
CONTINUOUS
 62
    7
 10
33810.574127906977
 20
16945.058552457715
 11
33798.062409156977
 21
16945.056599332715
  0
LINE
  8
_0-0_
  6
CONTINUOUS
 62
    7
 10
33473.060456031977
 20
16925.059529020218
 11
33473.064362281977
 21
17010.056599332718
  0
LINE
  8
_0-0_
  6
CONTINUOUS
 62
    7
 10
33473.064362281977
 20
17010.056599332718
 11
33498.076081031977
 21
17010.059529020218
  0
LINE
  8
_0-0_
  6
CONTINUOUS
 62
    7
 10
33498.076081031977
 20
17010.059529020218
 11
33498.074127906977
 21
16925.056599332718
  0
LINE
  8
_0-0_
  6
CONTINUOUS
 62
    7
 10
33498.074127906977
 20
16925.056599332718
 11
33473.060456031977
 21
16925.059529020218
  0
LINE
  8
_0-0_
  6
CONTINUOUS
 62
    7
 10
33498.076081031977
 20
17000.058552457715
 11
33510.564362281977
 21
17000.058552457715
  0
LINE
  8
_0-0_
  6
CONTINUOUS
 62
    7
 10
33498.074127906977
 20
16945.058552457715
 11
33510.570221656977
 21
16945.058552457715
  0
LINE
  8
_0-0_
  6
CONTINUOUS
 62
    7
 10
33597.074127906977
 20
16893.755818082718
 11
33597.070221656977
 21
16919.559529020218
  0
LINE
  8
_0-0_
  6
CONTINUOUS
 62
    7
 10
33711.568268531977
 20
16893.755818082718
 11
33711.576081031977
 21
16919.556599332718
  0
LINE
  8
_0-0_
  6
CONTINUOUS
 62
    7
 10
33597.074127906977
 20
16893.755818082718
 11
33711.568268531977
 21
16893.755818082718
  0
LINE
  8
_0-0_
  6
CONTINUOUS
 62
    7
 10
33704.322174781977
 20
16919.556599332718
 11
33704.320221656977
 21
16922.559529020218
  0
LINE
  8
_0-0_
  6
CONTINUOUS
 62
    7
 10
33604.320221656977
 20
16919.559529020218
 11
33604.322174781977
 21
16922.556599332718
  0
LINE
  8
_0-0_
  6
CONTINUOUS
 62
    7
 10
33711.576081031977
 20
16919.556599332718
 11
33585.945221656984
 21
16919.559529020218
  0
LINE
  8
_0-0_
  6
CONTINUOUS
 62
    7
 10
33561.447174781977
 20
16662.059529020218
 11
33561.447174781977
 21
16893.755818082718
  0
LINE
  8
_0-0_
  6
CONTINUOUS
 62
    7
 10
33585.945221656984
 20
16919.559529020218
 11
33561.447174781977
 21
16893.755818082718
  0
LINE
  8
_0-0_
  6
CONTINUOUS
 62
    7
 10
33779.191315406977
 20
16738.757771207715
 11
33596.328034156977
 21
16886.456989957715
  0
LINE
  8
_0-0_
  6
CONTINUOUS
 62
    7
 10
33561.447174781977
 20
16662.059529020218
 11
33786.447174781977
 21
16720.956013395215
  0
LINE
  8
_0-0_
  6
CONTINUOUS
 62
    7
 10
33786.447174781977
 20
16720.956013395215
 11
33779.191315406977
 21
16738.757771207715
  0
LINE
  8
_0-0_
  6
CONTINUOUS
 62
    7
 10
33604.322174781977
 20
16879.954060270218
 11
33604.322174781977
 21
16893.757771207718
  0
LINE
  8
_0-0_
  6
CONTINUOUS
 62
    7
 10
33604.322174781977
 20
16922.556599332718
 11
33604.320221656977
 21
16919.559529020218
  0
LINE
  8
_0-0_
  6
CONTINUOUS
 62
    7
 10
33604.322174781977
 20
16893.757771207718
 11
33604.322174781977
 21
16879.954060270218
  0
LINE
  8
_0-0_
  6
CONTINUOUS
 62
    7
 10
33628.070221656977
 20
17799.456989957718
 11
33628.070221656977
 21
17522.557575895218
  0
LINE
  8
_0-0_
  6
CONTINUOUS
 62
    7
 10
33680.564362281977
 20
17799.461872770218
 11
33680.564362281977
 21
17522.557575895218
  0
LINE
  8
_0-0_
  6
CONTINUOUS
 62
    7
 10
33679.937409156977
 20
17798.758747770218
 11
33668.322174781977
 21
17770.754841520215
  0
LINE
  8
_0-0_
  6
CONTINUOUS
 62
    7
 10
33628.701081031977
 20
17798.753864957718
 11
33640.318268531977
 21
17770.754841520215
  0
LINE
  8
_0-0_
  6
CENTER2
 62
    7
 10
33866.576081031977
 20
16972.559529020218
 11
33435.197174781977
 21
16972.559529020218
  0
LINE
  8
_0-0_
  6
CENTER2
 62
    7
 10
33443.941315406977
 20
17522.557575895218
 11
33877.199127906977
 21
17522.554646207715
  0
LINE
  8
_0-0_
  6
CENTER2
 62
    7
 10
33447.693268531977
 20
16642.557575895218
 11
33926.566315406977
 21
16642.557575895218
  0
LINE
  8
_0-0_
  6
CENTER2
 62
    7
 10
33654.320221656977
 20
17968.456989957718
 11
33654.322174781977
 21
16425.158161832718
  0
LINE
  8
_0-0_
  6
CONTINUOUS
 62
    7
 10
33668.324127906977
 20
20406.056599332718
 11
33668.320221656977
 21
17522.557575895218
  0
LINE
  8
_0-0_
  6
CONTINUOUS
 62
    7
 10
33640.320221656977
 20
20406.056599332718
 11
33640.320221656977
 21
17522.554646207715
  0
LINE
  8
_0-0_
  6
CONTINUOUS
 62
    3
 10
9521.8592841569771
 20
13985.108357145216
 11
9132.8091132585396
 21
13877.269489957718
  0
LINE
  8
_0-0_
  6
CONTINUOUS
 62
    3
 10
9618.3716132585396
 20
14173.267536832716
 11
9143.0263373796333
 21
14014.136677457716
  0
LINE
  8
_0-0_
  6
CONTINUOUS
 62
    3
 10
9150.6242988054146
 20
13941.837849332716
 11
9656.3393866960396
 21
14111.164509488966
  0
LINE
  8
_0-0_
  6
CONTINUOUS
 62
    3
 10
9656.3567206804146
 20
14111.126911832718
 11
10341.733795875727
 21
14340.455036832716
  0
LINE
  8
_0-0_
  6
CONTINUOUS
 62
    3
 10
10367.782990211665
 20
14141.027302457718
 11
10497.92532419604
 21
14392.835896207716
  0
LINE
  8
_0-0_
  6
CONTINUOUS
 62
    3
 10
9919.9895331804146
 20
13758.822712613966
 11
9187.0734565202583
 21
13595.044392301466
  0
LINE
  8
_0-0_
  6
CONTINUOUS
 62
    3
 10
10433.537873024165
 20
13873.495564176466
 11
10065.12844919604
 21
13791.203083707716
  0
LINE
  8
_0-0_
  6
CONTINUOUS
 62
    3
 10
10057.738434547602
 20
13861.513630582715
 11
10426.14798044604
 21
13943.807087613965
  0
LINE
  8
_0-0_
  6
CONTINUOUS
 62
    3
 10
9461.5235297624458
 20
13452.115193082716
 11
9341.0800483171333
 21
13434.669880582715
  0
LINE
  8
_0-0_
  6
CONTINUOUS
 62
    3
 10
9187.0660712663521
 20
13595.060505582716
 11
9088.8220527116646
 21
13573.157185270216
  0
LINE
  8
_0-0_
  6
CONTINUOUS
 62
    3
 10
9001.0565497819771
 20
13716.964314176465
 11
9207.9178779069771
 21
13961.028767301468
  0
LINE
  8
_0-0_
  6
CONTINUOUS
 62
    3
 10
9231.3807685319771
 20
13968.826130582715
 11
9755.7254950944771
 21
13781.105427457715
  0
LINE
  8
_0-0_
  6
CONTINUOUS
 62
    3
 10
9750.5243232194771
 20
13782.797321988966
 11
10032.947663063227
 21
14242.488239957716
  0
LINE
  8
_0-0_
  6
CONTINUOUS
 62
    3
 10
9143.0120551530708
 20
14014.150349332715
 11
8681.6482551042427
 21
13859.664509488965
  0
LINE
  8
_0-0_
  6
CONTINUOUS
 62
    3
 10
8809.252533668694
 20
13827.414509488966
 11
9114.1937568132271
 21
13929.658161832716
  0
LINE
  8
_0-0_
  6
CONTINUOUS
 62
    3
 10
9044.5785224382271
 20
13635.299763395216
 11
10057.74710153979
 21
13861.478962613966
  0
LINE
  8
_0-0_
  6
CONTINUOUS
 62
    3
 10
8523.2314078752388
 20
13387.303181363966
 11
8636.5290152971138
 21
13403.668415738968
  0
LINE
  8
_0-0_
  6
CONTINUOUS
 62
    3
 10
8905.4601752702583
 20
13604.172321988966
 11
9051.8495185319771
 21
13636.838337613966
  0
LINE
  8
_0-0_
  6
CONTINUOUS
 62
    7
 10
6805.4714667741646
 20
13062.565388395216
 11
6805.4714667741646
 21
13160.787068082715
  0
LINE
  8
_0-0_
  6
CONTINUOUS
 62
    3
 10
12868.275299781977
 20
15273.334919645216
 11
12568.289948219477
 21
15937.465779020215
  0
LINE
  8
_0-0_
  6
CONTINUOUS
 62
    3
 10
12903.525299781979
 20
15284.757771207716
 11
12640.302643531975
 21
15867.501911832716
  0
LINE
  8
_0-0_
  6
CONTINUOUS
 62
    3
 10
13003.094635719477
 20
15306.101521207716
 11
13882.669342750727
 21
15547.261677457715
  0
LINE
  8
_0-0_
  6
CONTINUOUS
 62
    3
 10
12568.289948219477
 20
15937.465779020215
 11
13568.752838844477
 21
15461.194294645216
  0
LINE
  8
_0-0_
  6
CONTINUOUS
 62
    3
 10
12640.302643531975
 20
15867.501911832716
 11
13521.194245094477
 21
15448.153279020215
  0
LINE
  8
_0-0_
  6
CONTINUOUS
 62
    4
 10
7760.5092475358833
 20
10234.814655973341
 11
7370.5078437272905
 21
10234.814655973341
  0
LINE
  8
_0-0_
  6
CONTINUOUS
 62
    4
 10
7760.5092475358833
 20
10204.815388395216
 11
7370.5078437272905
 21
10204.815388395216
  0
LINE
  8
_0-0_
  6
CONTINUOUS
 62
    4
 10
7760.5092475358833
 20
9984.8149001139682
 11
7370.5078437272905
 21
9984.8149001139682
  0
LINE
  8
_0-0_
  6
CONTINUOUS
 62
    4
 10
7760.5092475358833
 20
9954.8141676920914
 11
7370.5078437272905
 21
9954.8141676920914
  0
LINE
  8
_0-0_
  6
CONTINUOUS
 62
    4
 10
7760.5092475358833
 20
9734.8161208170914
 11
7370.5078437272905
 21
9734.8161208170914
  0
LINE
  8
_0-0_
  6
CONTINUOUS
 62
    4
 10
9150.4961249772896
 20
9478.5658766764664
 11
7331.7206122819771
 21
9478.5658766764664
  0
LINE
  8
_0-0_
  6
CONTINUOUS
 62
    4
 10
7340.5084540788521
 20
10484.815876676466
 11
7340.5084540788521
 21
9704.8156325358414
  0
LINE
  8
_0-0_
  6
CONTINUOUS
 62
    4
 10
7790.5086371843199
 20
9704.8156325358414
 11
7340.5084540788521
 21
9704.8156325358414
  0
LINE
  8
_0-0_
  6
CONTINUOUS
 62
    4
 10
7790.5086371843199
 20
10484.815876676466
 11
7790.5086371843199
 21
9704.8156325358414
  0
LINE
  8
_0-0_
  6
CONTINUOUS
 62
    4
 10
7760.5092475358833
 20
10484.815876676466
 11
7760.5092475358833
 21
9704.8156325358414
  0
LINE
  8
_0-0_
  6
CONTINUOUS
 62
    4
 10
7370.5078437272905
 20
10484.815876676466
 11
7370.5078437272905
 21
9704.8156325358414
  0
LINE
  8
_0-0_
  6
CONTINUOUS
 62
    4
 10
8096.2748115007271
 20
12013.997517301466
 11
8096.2748115007271
 21
9674.5993239420932
  0
LINE
  8
_0-0_
  6
CONTINUOUS
 62
    4
 10
7946.2747504655708
 20
12013.997517301466
 11
7946.2747504655708
 21
9674.5993239420932
  0
LINE
  8
_0-0_
  6
CONTINUOUS
 62
    4
 10
7946.2747504655708
 20
12013.997517301466
 11
8096.2748115007271
 21
12013.997517301466
  0
LINE
  8
_0-0_
  6
CONTINUOUS
 62
    4
 10
7946.2747504655708
 20
9674.5993239420932
 11
8096.2748115007271
 21
9674.5993239420932
  0
LINE
  8
_0-0_
  6
CONTINUOUS
 62
    4
 10
8096.2748115007271
 20
12013.997517301466
 11
8149.6640632097115
 21
12013.997517301466
  0
LINE
  8
_0-0_
  6
CONTINUOUS
 62
    4
 10
7946.2747504655708
 20
12013.997517301466
 11
7910.0912787858833
 21
12013.997517301466
  0
LINE
  8
_0-0_
  6
CONTINUOUS
 62
    4
 10
7910.0912787858833
 20
12013.997517301466
 11
7910.0912787858833
 21
12055.448200895216
  0
LINE
  8
_0-0_
  6
CONTINUOUS
 62
    4
 10
7910.0912787858833
 20
12055.448200895216
 11
8160.5067756120552
 21
12241.065876676466
  0
LINE
  8
_0-0_
  6
CONTINUOUS
 62
    4
 10
8096.2748115007271
 20
9674.5993239420932
 11
8158.0473945085405
 21
9674.5993239420932
  0
LINE
  8
_0-0_
  6
CONTINUOUS
 62
    4
 10
7946.2747504655708
 20
9674.5993239420932
 11
7899.9316718522896
 21
9674.5993239420932
  0
LINE
  8
_0-0_
  6
CONTINUOUS
 62
    4
 10
7899.9316718522896
 20
9674.5993239420932
 11
7899.9316718522896
 21
9640.3922926920932
  0
LINE
  8
_0-0_
  6
CONTINUOUS
 62
    4
 10
7899.9316718522896
 20
9640.3922926920932
 11
8160.5067756120552
 21
9478.5658766764664
  0
LINE
  8
_0-0_
  6
CONTINUOUS
 62
    7
 10
9517.8038642351021
 20
13062.881306363965
 11
9517.8038642351021
 21
13162.208943082715
  0
LINE
  8
_0-0_
  6
CONTINUOUS
 62
    7
 10
9417.7984321061958
 20
13064.661091520216
 11
9417.7984321061958
 21
13162.881794645216
  0
LINE
  8
_0-0_
  6
CENTER2
 62
    7
 10
8666.1078803483833
 20
13162.565876676468
 11
8666.1078803483833
 21
12404.284138395216
  0
LINE
  8
_0-0_
  6
CONTINUOUS
 62
    7
 10
8872.5505073015083
 20
13949.501423551465
 11
8872.5505073015083
 21
13064.623982145218
  0
LINE
  8
_0-0_
  6
CONTINUOUS
 62
    7
 10
8851.3376471940865
 20
13970.714802457718
 11
8872.5505073015083
 21
13949.501423551465
  0
LINE
  8
_0-0_
  6
CONTINUOUS
 62
    7
 10
8821.3382575456471
 20
13940.714314176466
 11
8842.5511176530708
 21
13919.501911832716
  0
LINE
  8
_0-0_
  6
CONTINUOUS
 62
    7
 10
7956.4653022233824
 20
13940.714314176466
 11
8821.3382575456471
 21
13940.714314176466
  0
LINE
  8
_0-0_
  6
CONTINUOUS
 62
    7
 10
7956.4653022233824
 20
13940.714314176466
 11
7935.2524115983824
 21
13919.501911832716
  0
LINE
  8
_0-0_
  6
CONTINUOUS
 62
    7
 10
7884.0395209733824
 20
13940.714314176466
 11
7905.2524115983833
 21
13919.501911832716
  0
LINE
  8
_0-0_
  6
CONTINUOUS
 62
    7
 10
6772.3562323991646
 20
13973.380818082716
 11
6751.1433417741646
 21
13952.166950895218
  0
LINE
  8
_0-0_
  6
CONTINUOUS
 62
    7
 10
6802.3556220476021
 20
13943.379841520215
 11
6781.1427314226021
 21
13922.167927457718
  0
LINE
  8
_0-0_
  6
CONTINUOUS
 62
    7
 10
7905.2524115983833
 20
13545.068806363966
 11
7905.2524115983833
 21
13919.501911832716
  0
LINE
  8
_0-0_
  6
CONTINUOUS
 62
    7
 10
7905.2524115983833
 20
13545.068806363966
 11
7884.0395209733824
 21
13523.855427457715
  0
LINE
  8
_0-0_
  6
CONTINUOUS
 62
    7
 10
7935.2524115983824
 20
13545.068806363966
 11
7935.2524115983824
 21
13919.501911832716
  0
LINE
  8
_0-0_
  6
CONTINUOUS
 62
    7
 10
7935.2524115983824
 20
13545.068806363966
 11
7956.4653022233824
 21
13523.855427457715
  0
LINE
  8
_0-0_
  6
CONTINUOUS
 62
    7
 10
7935.2524115983824
 20
13472.642536832716
 11
7935.2524115983824
 21
13064.082478238966
  0
LINE
  8
_0-0_
  6
CONTINUOUS
 62
    7
 10
7956.4653022233824
 20
13493.855915738965
 11
7935.2524115983824
 21
13472.642536832716
  0
LINE
  8
_0-0_
  6
CONTINUOUS
 62
    7
 10
7905.2524115983833
 20
13472.642536832716
 11
7905.2524115983833
 21
13064.082478238966
  0
LINE
  8
_0-0_
  6
CONTINUOUS
 62
    7
 10
7884.0395209733824
 20
13493.855915738965
 11
7905.2524115983833
 21
13472.642536832716
  0
LINE
  8
_0-0_
  6
CONTINUOUS
 62
    7
 10
8821.3382575456471
 20
13523.855427457715
 11
7956.4653022233824
 21
13523.855427457715
  0
LINE
  8
_0-0_
  6
CONTINUOUS
 62
    7
 10
8842.5511176530708
 20
13545.068806363966
 11
8842.5511176530708
 21
13919.501911832716
  0
LINE
  8
_0-0_
  6
CONTINUOUS
 62
    7
 10
8821.3382575456471
 20
13523.855427457715
 11
8842.5511176530708
 21
13545.068806363966
  0
LINE
  8
_0-0_
  6
CONTINUOUS
 62
    7
 10
8821.3382575456471
 20
13493.855915738965
 11
7956.4653022233824
 21
13493.855915738965
  0
LINE
  8
_0-0_
  6
CONTINUOUS
 62
    7
 10
8842.5511176530708
 20
13472.642536832716
 11
8842.5511176530708
 21
13064.623982145218
  0
LINE
  8
_0-0_
  6
CONTINUOUS
 62
    7
 10
8821.3382575456471
 20
13493.855915738965
 11
8842.5511176530708
 21
13472.642536832716
  0
LINE
  8
_0-0_
  6
CONTINUOUS
 62
    7
 10
6781.1427314226021
 20
13547.734333707718
 11
6781.1427314226021
 21
13922.167927457718
  0
LINE
  8
_0-0_
  6
CONTINUOUS
 62
    7
 10
6781.1427314226021
 20
13547.734333707718
 11
6802.3556220476021
 21
13526.520954801466
  0
LINE
  8
_0-0_
  6
CONTINUOUS
 62
    7
 10
6802.3556220476021
 20
13496.521443082716
 11
6781.1427314226021
 21
13475.308064176465
  0
LINE
  8
_0-0_
  6
CONTINUOUS
 62
    7
 10
6751.1433417741646
 20
13952.166950895218
 11
6751.1433417741646
 21
13065.230915738965
  0
LINE
  8
_0-0_
  6
CONTINUOUS
 62
    7
 10
6781.1427314226021
 20
13475.308064176465
 11
6781.1427314226021
 21
13065.230915738965
  0
LINE
  8
_0-0_
  6
CENTER2
 62
    7
 10
6611.7115790788521
 20
13162.565876676468
 11
7005.1089179460387
 21
13162.565876676468
  0
LINE
  8
_0-0_
  6
CENTER2
 62
    7
 10
7035.1083075944771
 20
13162.565876676468
 11
9473.6551215593208
 21
13162.565876676468
  0
LINE
  8
_0-0_
  6
CONTINUOUS
 62
    3
 10
6869.7555243913512
 20
13065.364704801465
 11
7005.1089179460387
 21
13085.847614957716
  0
LINE
  8
_0-0_
  6
CONTINUOUS
 62
    3
 10
7086.5243232194771
 20
13114.461872770215
 11
9088.8220527116646
 21
13573.157185270216
  0
LINE
  8
_0-0_
  6
CENTER2
 62
    3
 10
6879.8995673601012
 20
13165.805134488966
 11
7005.1150214616637
 21
13191.528279020218
  0
LINE
  8
_0-0_
  6
CENTER2
 62
    3
 10
7075.3155829851012
 20
13221.178669645218
 11
14354.912018531977
 21
15217.121052457716
  0
LINE
  8
_0-0_
  6
CENTER2
 62
    3
 10
6853.7809150163521
 20
13160.472614957718
 11
7005.1089179460387
 21
13191.558064176468
  0
LINE
  8
_0-0_
  6
CENTER2
 62
    3
 10
7075.305084938228
 20
13221.208454801468
 11
10406.119904274165
 21
14134.427693082716
  0
LINE
  8
_0-0_
  6
CONTINUOUS
 62
    3
 10
6826.9122626726021
 20
13260.559529020216
 11
7005.1089179460387
 21
13309.241657926466
  0
LINE
  8
_0-0_
  6
CONTINUOUS
 62
    3
 10
7062.7906806413521
 20
13340.269489957716
 11
12931.697663063227
 21
15284.415974332716
  0
LINE
  8
_0-0_
  6
CONTINUOUS
 62
    7
 10
7041.3214423601021
 20
13195.554157926466
 11
7040.7584540788521
 21
13198.878864957715
  0
LINE
  8
_0-0_
  6
CONTINUOUS
 62
    7
 10
6942.7219550554146
 20
13178.878864957716
 11
6905.1084296647896
 21
13401.303669645216
  0
LINE
  8
_0-0_
  6
CENTER2
 62
    7
 10
6996.1898505632262
 20
13162.565876676468
 11
6905.1084296647896
 21
13701.172321988966
  0
LINE
  8
_0-0_
  6
CONTINUOUS
 62
    7
 10
6875.1090400163521
 20
13578.703571988968
 11
6815.2694404069762
 21
13932.566364957716
  0
LINE
  8
_0-0_
  6
CONTINUOUS
 62
    7
 10
6547.6506659929146
 20
13931.353474332718
 11
6568.8634345476021
 21
13910.141560270216
  0
LINE
  8
_0-0_
  6
CONTINUOUS
 62
    7
 10
6598.8628241960387
 20
13940.141071988966
 11
6598.8628241960387
 21
13069.501911832716
  0
LINE
  8
_0-0_
  6
CONTINUOUS
 62
    7
 10
6577.6500556413512
 20
13961.354450895215
 11
6598.8628241960387
 21
13940.141071988966
  0
LINE
  8
_0-0_
  6
CENTER2
 62
    7
 10
6568.8634345476021
 20
13877.359821988966
 11
6562.1926581804146
 21
13916.811482145215
  0
LINE
  8
_0-0_
  6
CONTINUOUS
 62
    7
 10
6568.8634345476021
 20
13543.856404020215
 11
6568.8634345476021
 21
13910.141560270216
  0
LINE
  8
_0-0_
  6
CONTINUOUS
 62
    7
 10
6547.6506659929146
 20
13522.642536832716
 11
6568.8634345476021
 21
13543.856404020215
  0
LINE
  8
_0-0_
  6
CONTINUOUS
 62
    7
 10
6568.8634345476021
 20
13471.429646207718
 11
6568.8634345476021
 21
13069.501911832716
  0
LINE
  8
_0-0_
  6
CONTINUOUS
 62
    7
 10
6547.6506659929146
 20
13492.643513395216
 11
6568.8634345476021
 21
13471.429646207718
  0
LINE
  8
_0-0_
  6
CONTINUOUS
 62
    7
 10
5330.9254462663521
 20
13911.353962613966
 11
5330.9254462663521
 21
13063.437458707716
  0
LINE
  8
_0-0_
  6
CONTINUOUS
 62
    7
 10
5309.7125556413521
 20
13932.566364957716
 11
5330.9254462663521
 21
13911.353962613966
  0
LINE
  8
_0-0_
  6
CONTINUOUS
 62
    7
 10
5360.9254462663512
 20
13911.353962613966
 11
5360.9254462663512
 21
13063.437458707716
  0
LINE
  8
_0-0_
  6
CONTINUOUS
 62
    7
 10
5360.9254462663512
 20
13911.353962613966
 11
5382.1383368913512
 21
13932.566364957716
  0
LINE
  8
_0-0_
  6
CONTINUOUS
 62
    7
 10
4217.3202216569771
 20
13932.566364957716
 11
5309.7125556413521
 21
13932.566364957716
  0
LINE
  8
_0-0_
  6
CONTINUOUS
 62
    7
 10
4217.3202216569771
 20
13932.566364957716
 11
4196.1073310319771
 21
13911.353962613966
  0
LINE
  8
_0-0_
  6
CONTINUOUS
 62
    7
 10
4166.1083075944771
 20
13941.353474332715
 11
4166.1083075944771
 21
13062.565388395216
  0
LINE
  8
_0-0_
  6
CONTINUOUS
 62
    7
 10
4187.3211982194771
 20
13962.566853238968
 11
4166.1083075944771
 21
13941.353474332715
  0
LINE
  8
_0-0_
  6
CONTINUOUS
 62
    7
 10
4196.1073310319771
 20
13545.068806363966
 11
4196.1073310319771
 21
13911.353962613966
  0
LINE
  8
_0-0_
  6
CONTINUOUS
 62
    7
 10
4196.1073310319771
 20
13545.068806363966
 11
4217.3202216569771
 21
13523.855427457715
  0
LINE
  8
_0-0_
  6
CONTINUOUS
 62
    7
 10
4196.1073310319771
 20
13472.642536832716
 11
4196.1073310319771
 21
13062.565388395216
  0
LINE
  8
_0-0_
  6
CONTINUOUS
 62
    7
 10
4217.3202216569771
 20
13493.855915738965
 11
4196.1073310319771
 21
13472.642536832716
  0
LINE
  8
_0-0_
  6
CONTINUOUS
 62
    7
 10
4857.7899482194771
 20
13472.106404020218
 11
4867.6070868913521
 21
13440.516560270216
  0
LINE
  8
_0-0_
  6
CONTINUOUS
 62
    7
 10
6636.2168281022887
 20
12510.589314176466
 11
6567.4129950944771
 21
12561.901325895216
  0
LINE
  8
_0-0_
  6
CONTINUOUS
 62
    7
 10
6695.9989325944771
 20
12510.589314176466
 11
6764.8027656022887
 21
12561.901325895216
  0
LINE
  8
_0-0_
  6
CONTINUOUS
 62
    7
 10
7035.1083075944771
 20
13388.930622770215
 11
7070.2035224382271
 21
13174.689900113966
  0
LINE
  8
_0-0_
  6
CENTER2
 62
    7
 10
6907.8849189226021
 20
13701.626911832716
 11
6996.1898505632262
 21
13162.565876676468
  0
LINE
  8
_0-0_
  6
CONTINUOUS
 62
    7
 10
4217.3202216569771
 20
13523.855427457715
 11
6547.6506659929146
 21
13523.855427457715
  0
LINE
  8
_0-0_
  6
CONTINUOUS
 62
    7
 10
4217.3202216569771
 20
13493.855915738965
 11
6547.6506659929146
 21
13493.855915738965
  0
LINE
  8
_0-0_
  6
CONTINUOUS
 62
    7
 10
4187.3211982194771
 20
13962.566853238968
 11
6577.6500556413512
 21
13962.566853238968
  0
LINE
  8
_0-0_
  6
CONTINUOUS
 62
    7
 10
5382.1383368913512
 20
13932.566364957716
 11
6547.6506659929146
 21
13932.566364957716
  0
LINE
  8
_0-0_
  6
CONTINUOUS
 62
    7
 10
6772.3562323991646
 20
13970.714802457718
 11
8851.3376471940865
 21
13970.714802457718
  0
LINE
  8
_0-0_
  6
CONTINUOUS
 62
    7
 10
6802.3556220476021
 20
13940.714314176466
 11
7884.0395209733824
 21
13940.714314176466
  0
LINE
  8
_0-0_
  6
CONTINUOUS
 62
    7
 10
6802.3556220476021
 20
13523.855427457715
 11
7884.0395209733824
 21
13523.855427457715
  0
LINE
  8
_0-0_
  6
CONTINUOUS
 62
    7
 10
6802.3556220476021
 20
13493.855915738965
 11
7884.0395209733824
 21
13493.855915738965
  0
LINE
  8
_0-0_
  6
CONTINUOUS
 62
    7
 10
5862.3077704851012
 20
13137.103474332718
 11
5862.3077704851012
 21
14337.104450895216
  0
LINE
  8
_0-0_
  6
CONTINUOUS
 62
    7
 10
5862.3077704851012
 20
14337.104450895216
 11
6662.3076484147905
 21
14337.104450895216
  0
LINE
  8
_0-0_
  6
CONTINUOUS
 62
    7
 10
6662.3076484147905
 20
14337.104450895216
 11
6662.3076484147905
 21
13137.103474332718
  0
LINE
  8
_0-0_
  6
CONTINUOUS
 62
    7
 10
6662.3076484147905
 20
13137.103474332718
 11
5862.3077704851012
 21
13137.103474332718
  0
LINE
  8
_0-0_
  6
DASHED1
 62
    7
 10
5862.3077704851012
 20
14337.104450895216
 11
6662.3076484147905
 21
13137.103474332718
  0
LINE
  8
_0-0_
  6
DASHED1
 62
    7
 10
5862.3077704851012
 20
13137.103474332718
 11
6662.3076484147905
 21
14337.104450895216
  0
LINE
  8
_0-0_
  6
CONTINUOUS
 62
    7
 10
5912.3080146257262
 20
14287.103962613966
 11
6612.3074042741646
 21
14287.103962613966
  0
LINE
  8
_0-0_
  6
CONTINUOUS
 62
    7
 10
5912.3080146257262
 20
13187.103962613966
 11
5912.3080146257262
 21
14287.103962613966
  0
LINE
  8
_0-0_
  6
CONTINUOUS
 62
    7
 10
6612.3074042741646
 20
13187.103962613966
 11
5912.3080146257262
 21
13187.103962613966
  0
LINE
  8
_0-0_
  6
CONTINUOUS
 62
    7
 10
6612.3074042741646
 20
14287.103962613966
 11
6612.3074042741646
 21
13187.103962613966
  0
LINE
  8
_0-0_
  6
CONTINUOUS
 62
    7
 10
5913.9627997819771
 20
18926.636677457718
 11
4529.5790107194771
 21
13598.051716520218
  0
LINE
  8
_0-0_
  6
CONTINUOUS
 62
    7
 10
5207.8981025163512
 20
13769.893025113966
 11
5912.2452704851012
 21
18866.875935270218
  0
LINE
  8
_0-0_
  6
CONTINUOUS
 62
    7
 10
5726.9815986101021
 20
18469.066364957718
 11
5699.5956122819762
 21
13628.493611051465
  0
LINE
  8
_0-0_
  6
CONTINUOUS
 62
    7
 10
6004.9010322038521
 20
18749.982380582715
 11
6922.1760566179146
 21
13150.441853238965
  0
LINE
  8
_0-0_
  6
CONTINUOUS
 62
    7
 10
6199.3031318132271
 20
18856.012654020215
 11
9559.573090309319
 21
13213.733845426466
  0
LINE
  8
_0-0_
  6
CONTINUOUS
 62
    3
 10
6283.8858954851021
 20
18311.021443082718
 11
6436.6817939226021
 21
18459.998982145218
  0
LINE
  8
_0-0_
  6
CONTINUOUS
 62
    7
 10
6288.4449775163521
 20
18315.468708707715
 11
9387.7370917741646
 21
13111.397419645215
  0
LINE
  8
_0-0_
  6
CENTER2
 62
    7
 10
6362.0782782976021
 20
18387.261677457718
 11
9473.6551215593208
 21
13162.565876676468
  0
LINE
  8
_0-0_
  6
CONTINUOUS
 62
    3
 10
6288.4449775163521
 20
18315.468708707715
 11
6089.0719306413512
 21
18315.468708707715
  0
LINE
  8
_0-0_
  6
CONTINUOUS
 62
    7
 10
6228.0794990007262
 20
18315.468708707715
 11
7005.1089179460387
 21
13572.063435270218
  0
LINE
  8
_0-0_
  6
CENTER2
 62
    7
 10
6152.0794990007271
 20
18315.468708707715
 11
6878.7995917741637
 21
13879.177204801465
  0
LINE
  8
_0-0_
  6
CENTER2
 62
    3
 10
34056.054596656977
 20
20618.837849332718
 11
26321.718659156977
 21
18498.263630582715
  0
LINE
  8
_0-0_
  6
CONTINUOUS
 62
    3
 10
22064.936432594477
 20
19769.867146207718
 11
33278.361237281977
 21
20598.261677457718
  0
LINE
  8
_0-0_
  6
CONTINUOUS
 62
    3
 10
27363.281159156973
 20
19243.416950895215
 11
33263.394440406977
 21
20567.623982145218
  0
LINE
  8
_0-0_
  6
CONTINUOUS
 62
    3
 10
27387.999909156973
 20
19176.939411832718
 11
33245.650299781977
 21
20491.701130582718
  0
LINE
  8
_0-0_
  6
CONTINUOUS
 62
    3
 10
33067.148346656977
 20
20243.213825895218
 11
33245.423737281977
 21
20458.655232145218
  0
LINE
  8
_0-0_
  6
CONTINUOUS
 62
    3
 10
26515.806549781981
 20
18153.663044645218
 11
33299.636627906977
 21
20317.454060270218
  0
LINE
  8
_0-0_
  6
CONTINUOUS
 62
    3
 10
26544.761627906981
 20
18088.635700895215
 11
33360.687409156977
 21
20262.598591520218
  0
LINE
  8
_0-0_
  6
CONTINUOUS
 62
    3
 10
6063.8797919694771
 20
19068.516560270218
 11
22076.396393531977
 21
19912.104450895215
  0
LINE
  8
_0-0_
  6
CONTINUOUS
 62
    3
 10
22038.785065406977
 20
19611.215779020215
 11
6240.9269111101021
 21
18791.212849332715
  0
LINE
  8
_0-0_
  6
CONTINUOUS
 62
    7
 10
19643.863190406977
 20
6365.8117720622085
 11
21623.760651344477
 21
6365.8117720622085
  0
LINE
  8
_0-0_
  6
CONTINUOUS
 62
    7
 10
19643.863190406977
 20
6755.8212630290054
 11
21623.760651344477
 21
6755.8212630290054
  0
LINE
  8
_0-0_
  6
CONTINUOUS
 62
    7
 10
19643.863190406977
 20
6755.8212630290054
 11
21623.760651344477
 21
6755.8212630290054
  0
LINE
  8
_0-0_
  6
CONTINUOUS
 62
    7
 10
19643.863190406977
 20
6365.8117720622085
 11
21623.760651344477
 21
6365.8117720622085
  0
LINE
  8
_0-0_
  6
CONTINUOUS
 62
    7
 10
19643.863190406977
 20
6755.8212630290054
 11
21623.760651344477
 21
6755.8212630290054
  0
LINE
  8
_0-0_
  6
CONTINUOUS
 62
    7
 10
19643.863190406977
 20
6365.8117720622085
 11
21623.760651344477
 21
6365.8117720622085
  0
LINE
  8
_0-0_
  6
CONTINUOUS
 62
    7
 10
19643.863190406977
 20
6755.8212630290054
 11
21623.760651344477
 21
6755.8212630290054
  0
LINE
  8
_0-0_
  6
CONTINUOUS
 62
    7
 10
19643.863190406977
 20
6377.3710677165054
 11
19643.863190406977
 21
6365.8117720622085
  0
LINE
  8
_0-0_
  6
CONTINUOUS
 62
    7
 10
19643.863190406977
 20
6365.8117720622085
 11
19855.995026344477
 21
6365.8117720622085
  0
LINE
  8
_0-0_
  6
CONTINUOUS
 62
    7
 10
19855.995026344477
 20
6377.3710677165054
 11
19855.995026344477
 21
6365.8117720622085
  0
LINE
  8
_0-0_
  6
CONTINUOUS
 62
    7
 10
20921.681549781977
 20
6755.8212630290054
 11
20921.681549781977
 21
6365.8117720622085
  0
LINE
  8
_0-0_
  6
CENTER2
 62
    7
 10
19749.927643531977
 20
6755.8212630290054
 11
19749.927643531977
 21
6365.8117720622085
  0
LINE
  8
_0-0_
  6
CONTINUOUS
 62
    7
 10
19855.995026344477
 20
6377.3710677165054
 11
19855.995026344477
 21
6365.8117720622085
  0
LINE
  8
_0-0_
  6
CONTINUOUS
 62
    7
 10
19643.863190406977
 20
6755.8212630290054
 11
19643.863190406977
 21
6365.9344069499039
  0
LINE
  8
_0-0_
  6
CONTINUOUS
 62
    7
 10
19855.995026344477
 20
6755.8212630290054
 11
19855.995026344477
 21
6741.4353224772485
  0
LINE
  8
_0-0_
  6
CONTINUOUS
 62
    7
 10
19855.995026344477
 20
6741.4353224772485
 11
19855.995026344477
 21
6377.3710677165054
  0
LINE
  8
_0-0_
  6
CONTINUOUS
 62
    7
 10
19862.394440406977
 20
6744.2607314127954
 11
20633.811432594477
 21
6744.2607314127954
  0
LINE
  8
_0-0_
  6
CONTINUOUS
 62
    7
 10
19862.394440406977
 20
6755.8212630290054
 11
19862.394440406977
 21
6365.8117720622085
  0
LINE
  8
_0-0_
  6
CONTINUOUS
 62
    7
 10
19862.394440406977
 20
6377.3710677165054
 11
20633.811432594477
 21
6377.3710677165054
  0
LINE
  8
_0-0_
  6
CONTINUOUS
 62
    7
 10
20021.829010719477
 20
6741.4353224772485
 11
20021.829010719477
 21
6380.1964766520523
  0
LINE
  8
_0-0_
  6
CONTINUOUS
 62
    7
 10
20015.429596656977
 20
6741.4353224772485
 11
20015.429596656977
 21
6380.1964766520523
  0
LINE
  8
_0-0_
  6
CONTINUOUS
 62
    7
 10
19916.964752906977
 20
6741.4353224772485
 11
20633.811432594477
 21
6741.4353224772485
  0
LINE
  8
_0-0_
  6
CONTINUOUS
 62
    7
 10
19916.964752906977
 20
6741.4353224772485
 11
19913.427643531977
 21
6738.6099135417016
  0
LINE
  8
_0-0_
  6
CONTINUOUS
 62
    7
 10
19916.964752906977
 20
6741.4353224772485
 11
19862.394440406977
 21
6741.4353224772485
  0
LINE
  8
_0-0_
  6
CONTINUOUS
 62
    7
 10
19913.427643531977
 20
6383.0231215495132
 11
19913.427643531977
 21
6738.6099135417016
  0
LINE
  8
_0-0_
  6
CONTINUOUS
 62
    7
 10
19916.964752906977
 20
6380.1964766520523
 11
20633.811432594477
 21
6380.1964766520523
  0
LINE
  8
_0-0_
  6
CONTINUOUS
 62
    7
 10
19913.427643531977
 20
6383.0231215495132
 11
19916.964752906977
 21
6380.1964766520523
  0
LINE
  8
_0-0_
  6
CONTINUOUS
 62
    7
 10
19862.394440406977
 20
6380.1964766520523
 11
19916.964752906977
 21
6380.1964766520523
  0
LINE
  8
_0-0_
  6
CONTINUOUS
 62
    7
 10
20345.944245094477
 20
6741.4353224772485
 11
20345.944245094477
 21
6380.1964766520523
  0
LINE
  8
_0-0_
  6
CONTINUOUS
 62
    7
 10
21623.760651344477
 20
6377.3710677165054
 11
21623.760651344477
 21
6365.8117720622085
  0
LINE
  8
_0-0_
  6
CONTINUOUS
 62
    7
 10
21623.760651344477
 20
6365.8117720622085
 11
21411.628815406977
 21
6365.8117720622085
  0
LINE
  8
_0-0_
  6
CONTINUOUS
 62
    7
 10
21411.628815406977
 20
6377.3710677165054
 11
21411.628815406977
 21
6365.8117720622085
  0
LINE
  8
_0-0_
  6
CENTER2
 62
    7
 10
21517.696198219477
 20
6755.8212630290054
 11
21517.696198219477
 21
6365.8117720622085
  0
LINE
  8
_0-0_
  6
CONTINUOUS
 62
    7
 10
21411.628815406977
 20
6377.3710677165054
 11
21411.628815406977
 21
6365.8117720622085
  0
LINE
  8
_0-0_
  6
CONTINUOUS
 62
    7
 10
21623.760651344477
 20
6755.8212630290054
 11
21623.760651344477
 21
6365.9344069499039
  0
LINE
  8
_0-0_
  6
CONTINUOUS
 62
    7
 10
21411.628815406977
 20
6755.8212630290054
 11
21411.628815406977
 21
6741.4353224772485
  0
LINE
  8
_0-0_
  6
CONTINUOUS
 62
    7
 10
21411.628815406977
 20
6741.4353224772485
 11
21411.628815406977
 21
6377.3710677165054
  0
LINE
  8
_0-0_
  6
CONTINUOUS
 62
    7
 10
21405.229401344477
 20
6744.2607314127954
 11
20633.811432594477
 21
6744.2607314127954
  0
LINE
  8
_0-0_
  6
CONTINUOUS
 62
    7
 10
21405.229401344477
 20
6755.8212630290054
 11
21405.229401344477
 21
6365.8117720622085
  0
LINE
  8
_0-0_
  6
CONTINUOUS
 62
    7
 10
21405.229401344477
 20
6377.3710677165054
 11
20633.811432594477
 21
6377.3710677165054
  0
LINE
  8
_0-0_
  6
CONTINUOUS
 62
    7
 10
21245.794831031977
 20
6741.4353224772485
 11
21245.794831031977
 21
6380.1964766520523
  0
LINE
  8
_0-0_
  6
CONTINUOUS
 62
    7
 10
21252.194245094477
 20
6741.4353224772485
 11
21252.194245094477
 21
6380.1964766520523
  0
LINE
  8
_0-0_
  6
CONTINUOUS
 62
    7
 10
21350.661041969477
 20
6741.4353224772485
 11
20633.811432594477
 21
6741.4353224772485
  0
LINE
  8
_0-0_
  6
CONTINUOUS
 62
    7
 10
21350.661041969477
 20
6741.4353224772485
 11
21354.196198219477
 21
6738.6099135417016
  0
LINE
  8
_0-0_
  6
CONTINUOUS
 62
    7
 10
21350.661041969477
 20
6741.4353224772485
 11
21405.229401344477
 21
6741.4353224772485
  0
LINE
  8
_0-0_
  6
CONTINUOUS
 62
    7
 10
21354.196198219477
 20
6383.0231215495132
 11
21354.196198219477
 21
6738.6099135417016
  0
LINE
  8
_0-0_
  6
CONTINUOUS
 62
    7
 10
21350.661041969477
 20
6380.1964766520523
 11
20633.811432594477
 21
6380.1964766520523
  0
LINE
  8
_0-0_
  6
CONTINUOUS
 62
    7
 10
21354.196198219477
 20
6383.0231215495132
 11
21350.661041969477
 21
6380.1964766520523
  0
LINE
  8
_0-0_
  6
CONTINUOUS
 62
    7
 10
21405.229401344477
 20
6380.1964766520523
 11
21350.661041969477
 21
6380.1964766520523
  0
LINE
  8
_0-0_
  6
CONTINUOUS
 62
    7
 10
20921.679596656977
 20
6741.4353224772485
 11
20921.679596656977
 21
6380.1964766520523
  0
LINE
  8
_0-0_
  6
CENTER2
 62
    7
 10
20633.811432594477
 20
6763.0142256754907
 11
20633.811432594477
 21
6365.8117720622085
  0
LINE
  8
_0-0_
  6
CONTINUOUS
 62
    7
 10
20211.313385719477
 20
6763.0142256754907
 11
20211.313385719477
 21
6755.6032607096695
  0
LINE
  8
_0-0_
  6
CONTINUOUS
 62
    7
 10
21056.313385719477
 20
6763.0142256754907
 11
21056.313385719477
 21
6755.8621413249039
  0
LINE
  8
_0-0_
  6
CONTINUOUS
 62
    7
 10
20211.313385719477
 20
6763.0142256754907
 11
21056.313385719477
 21
6763.0142256754907
  0
LINE
  8
_0-0_
  6
CONTINUOUS
 62
    7
 10
21249.466706031977
 20
10178.046345426466
 11
21461.598541969477
 21
9965.9128005045914
  0
LINE
  8
_0-0_
  6
CONTINUOUS
 62
    7
 10
20137.602448219477
 20
9066.1798903483414
 11
20259.517487281977
 21
9188.0961501139664
  0
LINE
  8
_0-0_
  6
CONTINUOUS
 62
    7
 10
20349.735260719477
 20
8854.0485426920932
 11
20471.650299781977
 21
8975.9635817545914
  0
LINE
  8
_0-0_
  6
CONTINUOUS
 62
    7
 10
20137.602448219477
 20
9310.0111891764664
 11
20259.517487281977
 21
9188.0961501139664
  0
LINE
  8
_0-0_
  6
CONTINUOUS
 62
    7
 10
20349.735260719477
 20
9522.1435133952164
 11
20471.650299781977
 21
9400.2284743327164
  0
LINE
  8
_0-0_
  6
CONTINUOUS
 62
    7
 10
20471.650299781977
 20
9400.2284743327164
 11
20593.565338844477
 21
9522.1435133952164
  0
LINE
  8
_0-0_
  6
CONTINUOUS
 62
    7
 10
20683.782135719477
 20
9188.0961501139664
 11
20805.697174781977
 21
9310.0111891764664
  0
LINE
  8
_0-0_
  6
CONTINUOUS
 62
    7
 10
20683.782135719477
 20
9188.0961501139664
 11
20805.697174781977
 21
9066.1798903483414
  0
LINE
  8
_0-0_
  6
CONTINUOUS
 62
    7
 10
20471.650299781977
 20
8975.9635817545914
 11
20593.565338844477
 21
8854.0485426920932
  0
LINE
  8
_0-0_
  6
DASHED2
 62
    3
 10
20974.600495094477
 20
10170.071736051468
 11
21436.620026344477
 21
9708.0522048014664
  0
LINE
  8
_0-0_
  6
DASHED2
 62
    2
 10
21015.992096656977
 20
10227.675007535841
 11
21490.169831031977
 21
9753.4965407389664
  0
LINE
  8
_0-0_
  6
DASHED2
 62
    2
 10
20916.995026344477
 20
10128.679157926468
 11
21391.172760719481
 21
9654.5019118327164
  0
LINE
  8
_0-0_
  6
DASHED2
 62
    2
 10
20992.585846656977
 20
9984.8012282389682
 11
21049.324127906977
 21
10041.542195035841
  0
LINE
  8
_0-0_
  6
DASHED2
 62
    2
 10
21268.356354469477
 20
9709.0307204264664
 11
21325.094635719477
 21
9765.7704665202182
  0
LINE
  8
_0-0_
  6
DASHED2
 62
    2
 10
21093.907135719477
 20
10086.123249723341
 11
21158.750885719477
 21
10150.967732145218
  0
LINE
  8
_0-0_
  6
DASHED2
 62
    2
 10
21369.676666969477
 20
9810.3515212077164
 11
21434.521393531977
 21
9875.1947829264664
  0
LINE
  8
_0-0_
  6
CONTINUOUS
 62
    7
 10
20027.330963844477
 20
8955.9093825358414
 11
20086.293854469477
 21
9014.8715407389682
  0
LINE
  8
_0-0_
  6
CONTINUOUS
 62
    7
 10
19481.701081031977
 20
8410.2794997233414
 11
19971.650299781977
 21
8900.2287184733414
  0
LINE
  8
_0-0_
  6
CONTINUOUS
 62
    7
 10
19481.701081031977
 20
9965.9128005045914
 11
19971.650299781977
 21
9475.9633376139682
  0
LINE
  8
_0-0_
  6
CONTINUOUS
 62
    7
 10
19971.650299781977
 20
9475.9633376139682
 11
19971.650299781977
 21
8900.2287184733414
  0
LINE
  8
_0-0_
  6
CONTINUOUS
 62
    7
 10
19693.832916969477
 20
10178.046345426466
 11
20183.782135719477
 21
9688.0946852702164
  0
LINE
  8
_0-0_
  6
CONTINUOUS
 62
    7
 10
20183.782135719477
 20
9688.0946852702164
 11
20378.969635719477
 21
9688.0946852702164
  0
LINE
  8
_0-0_
  6
CONTINUOUS
 62
    7
 10
20378.969635719477
 20
9688.0946852702164
 11
20759.517487281977
 21
9688.0959059733414
  0
LINE
  8
_0-0_
  6
CONTINUOUS
 62
    7
 10
20759.517487281977
 20
9688.0959059733414
 11
21249.466706031977
 21
10178.046345426466
  0
LINE
  8
_0-0_
  6
CONTINUOUS
 62
    7
 10
20971.649323219477
 20
9475.9633376139682
 11
20971.649323219477
 21
9176.8874098795914
  0
LINE
  8
_0-0_
  6
CONTINUOUS
 62
    7
 10
20971.649323219477
 20
9475.9633376139682
 11
21461.598541969477
 21
9965.9128005045914
  0
LINE
  8
_0-0_
  6
CONTINUOUS
 62
    7
 10
20971.649323219477
 20
9176.8874098795914
 11
20971.649323219477
 21
8900.2287184733414
  0
LINE
  8
_0-0_
  6
CONTINUOUS
 62
    7
 10
20971.649323219477
 20
8900.2287184733414
 11
21461.598541969477
 21
8410.2794997233414
  0
LINE
  8
_0-0_
  6
CONTINUOUS
 62
    7
 10
19693.832916969477
 20
8198.1469313639664
 11
20183.782135719477
 21
8688.0961501139664
  0
LINE
  8
_0-0_
  6
CONTINUOUS
 62
    7
 10
20183.782135719477
 20
8688.0961501139664
 11
20759.517487281977
 21
8688.0961501139664
  0
LINE
  8
_0-0_
  6
CONTINUOUS
 62
    7
 10
20759.517487281977
 20
8688.0961501139664
 11
21249.466706031977
 21
8198.1469313639664
  0
LINE
  8
_0-0_
  6
CENTER2
 62
    4
 10
19587.765534156977
 20
8304.2119948405289
 11
20534.683502906977
 21
9251.1295973795914
  0
LINE
  8
_0-0_
  6
CENTER2
 62
    4
 10
20534.683502906977
 20
9251.1295973795914
 11
21355.534088844477
 21
10071.980183317091
  0
LINE
  8
_0-0_
  6
CONTINUOUS
 62
    7
 10
21314.040924781977
 20
9092.1112868327164
 11
21314.040924781977
 21
9042.1110426920914
  0
LINE
  8
_0-0_
  6
CONTINUOUS
 62
    7
 10
21314.040924781977
 20
9042.1110426920914
 11
21364.040924781977
 21
9042.1110426920914
  0
LINE
  8
_0-0_
  6
CONTINUOUS
 62
    7
 10
21314.040924781977
 20
9092.1112868327164
 11
21364.040924781977
 21
9042.1110426920914
  0
LINE
  8
_0-0_
  6
CONTINUOUS
 62
    7
 10
20195.203034156977
 20
8961.6496169108414
 11
20195.203034156977
 21
8911.6493727702164
  0
LINE
  8
_0-0_
  6
CONTINUOUS
 62
    7
 10
20195.203034156977
 20
8911.6493727702164
 11
20245.203034156977
 21
8911.6493727702164
  0
LINE
  8
_0-0_
  6
CONTINUOUS
 62
    7
 10
20698.096588844477
 20
9464.5429274577164
 11
20748.096588844477
 21
9464.5429274577164
  0
LINE
  8
_0-0_
  6
CONTINUOUS
 62
    7
 10
20748.096588844477
 20
9464.5429274577164
 11
20748.096588844477
 21
9414.5426833170914
  0
LINE
  8
_0-0_
  6
CONTINUOUS
 62
    7
 10
20698.096588844477
 20
8911.6493727702164
 11
20748.096588844477
 21
8911.6493727702164
  0
LINE
  8
_0-0_
  6
CONTINUOUS
 62
    7
 10
20748.096588844477
 20
8911.6493727702164
 11
20748.096588844477
 21
8961.6496169108414
  0
LINE
  8
_0-0_
  6
CONTINUOUS
 62
    7
 10
20195.203034156977
 20
9414.5426833170914
 11
20195.203034156977
 21
9464.5429274577164
  0
LINE
  8
_0-0_
  6
CONTINUOUS
 62
    7
 10
20195.203034156977
 20
9464.5429274577164
 11
20245.203034156977
 21
9464.5429274577164
  0
LINE
  8
_0-0_
  6
CENTER2
 62
    4
 10
19587.765534156977
 20
10071.980183317091
 11
20747.987213844477
 21
8911.7570387858414
  0
LINE
  8
_0-0_
  6
CENTER2
 62
    4
 10
20747.987213844477
 20
8911.7570387858414
 11
21355.534088844477
 21
8304.2119948405289
  0
LINE
  8
ADD_LINE
  6
DOT
 62
    3
 10
21456.007721656977
 20
9896.6820876139664
 11
21237.273346656977
 21
9677.9474684733414
  0
LINE
  8
ADD_LINE
  6
DOT
 62
    3
 10
21180.234284156977
 20
10172.452595426466
 11
20961.502838844477
 21
9953.7191969889664
  0
LINE
  8
_0-0_
  6
CONTINUOUS
 62
    7
 10
19481.699127906977
 20
8410.2757155436539
 11
19693.832916969477
 21
8198.1432692545932
  0
LINE
  8
_0-0_
  6
DASHED2
 62
    3
 10
19489.672760719477
 20
8685.1420485514664
 11
19951.695221656977
 21
8223.1236159342789
  0
LINE
  8
_0-0_
  6
DASHED2
 62
    2
 10
19432.069245094477
 20
8643.7504469889664
 11
19906.250885719477
 21
8169.5733229655289
  0
LINE
  8
_0-0_
  6
DASHED2
 62
    2
 10
19531.065338844477
 20
8742.7477614420932
 11
20005.245026344477
 21
8268.5703932780289
  0
LINE
  8
_0-0_
  6
DASHED2
 62
    2
 10
19674.943268531977
 20
8667.1564528483414
 11
19618.202057594477
 21
8610.4179274577164
  0
LINE
  8
_0-0_
  6
DASHED2
 62
    2
 10
19950.713776344477
 20
8391.3872878092789
 11
19893.975495094477
 21
8334.6486403483432
  0
LINE
  8
_0-0_
  6
DASHED2
 62
    2
 10
19573.622956031977
 20
8565.8356520670914
 11
19508.778229469477
 21
8500.9911696452164
  0
LINE
  8
_0-0_
  6
DASHED2
 62
    2
 10
19849.395416969477
 20
8290.0663649577164
 11
19784.550690406977
 21
8225.2206618327164
  0
LINE
  8
ADD_LINE
  6
DOT
 62
    3
 10
19763.065338844477
 20
8203.7345778483414
 11
19981.796784156977
 21
8422.4704176920932
  0
LINE
  8
ADD_LINE
  6
DOT
 62
    3
 10
19487.293854469477
 20
8479.5076491374039
 11
19706.027252906977
 21
8698.2397048014664
  0
LINE
  8
_0-0_
  6
CONTINUOUS
 62
    7
 10
19481.699127906977
 20
9965.9128005045914
 11
19693.832916969477
 21
10178.045124723341
  0
LINE
  8
_0-0_
  6
DASHED2
 62
    3
 10
19489.673737281977
 20
9691.0463454264664
 11
19951.692291969477
 21
10153.066120817091
  0
LINE
  8
_0-0_
  6
DASHED2
 62
    2
 10
19432.071198219477
 20
9732.4379469889664
 11
19906.247956031977
 21
10206.616413785841
  0
LINE
  8
_0-0_
  6
DASHED2
 62
    2
 10
19531.067291969477
 20
9633.4408766764664
 11
20005.243073219477
 21
10107.619343473341
  0
LINE
  8
_0-0_
  6
DASHED2
 62
    2
 10
19674.943268531977
 20
9709.0319411295932
 11
19618.202057594477
 21
9765.7704665202182
  0
LINE
  8
_0-0_
  6
DASHED2
 62
    2
 10
19950.716706031977
 20
9984.8024489420914
 11
19893.975495094477
 21
10041.540974332718
  0
LINE
  8
_0-0_
  6
DASHED2
 62
    2
 10
19573.622956031977
 20
9810.3527419108414
 11
19508.778229469477
 21
9875.1972243327182
  0
LINE
  8
_0-0_
  6
DASHED2
 62
    2
 10
19849.393463844477
 20
10086.123249723341
 11
19784.550690406977
 21
10150.967732145218
  0
LINE
  8
ADD_LINE
  6
DOT
 62
    3
 10
19763.062409156977
 20
10172.453816129593
 11
19981.796784156977
 21
9953.7191969889664
  0
LINE
  8
ADD_LINE
  6
DOT
 62
    3
 10
19487.293854469477
 20
9896.6808669108414
 11
19706.027252906977
 21
9677.9486891764664
  0
LINE
  8
_0-0_
  6
CONTINUOUS
 62
    7
 10
21461.598541969477
 20
8410.2794997233414
 11
21249.466706031977
 21
8198.1469313639664
  0
LINE
  8
_0-0_
  6
DASHED2
 62
    3
 10
21453.626862281981
 20
8685.1457106608414
 11
20991.607331031977
 21
8223.1260573405289
  0
LINE
  8
_0-0_
  6
DASHED2
 62
    2
 10
21511.230377906977
 20
8643.7543532389664
 11
21037.051666969477
 21
8169.5757643717798
  0
LINE
  8
_0-0_
  6
DASHED2
 62
    2
 10
21412.233307594477
 20
8742.7514235514664
 11
20938.056549781977
 21
8268.5729567545914
  0
LINE
  8
_0-0_
  6
DASHED2
 62
    2
 10
21268.356354469477
 20
8667.1601149577164
 11
21325.097565406977
 21
8610.4215895670914
  0
LINE
  8
_0-0_
  6
DASHED2
 62
    2
 10
20992.582916969477
 20
8391.3897292155307
 11
21049.324127906977
 21
8334.6510817545914
  0
LINE
  8
_0-0_
  6
DASHED2
 62
    2
 10
21369.676666969477
 20
8565.8393141764664
 11
21434.521393531977
 21
8500.9948317545914
  0
LINE
  8
_0-0_
  6
DASHED2
 62
    2
 10
21093.907135719477
 20
8290.0688063639664
 11
21158.748932594477
 21
8225.2243239420914
  0
LINE
  8
ADD_LINE
  6
DOT
 62
    3
 10
21180.237213844477
 20
8203.7383620280289
 11
20961.502838844477
 21
8422.4729811686539
  0
LINE
  8
ADD_LINE
  6
DOT
 62
    3
 10
21456.004791969477
 20
8479.5113112467789
 11
21237.273346656977
 21
8698.2433669108414
  0
LINE
  8
_0-0_
  6
CONTINUOUS
 62
    4
 10
20168.368073219477
 20
7907.4715163249039
 11
20267.363190406977
 21
8006.4699294108423
  0
LINE
  8
_0-0_
  6
CONTINUOUS
 62
    4
 10
19906.412018531977
 20
8169.4147536295914
 11
20168.368073219477
 21
7907.4715163249039
  0
LINE
  8
_0-0_
  6
CONTINUOUS
 62
    4
 10
20005.406159156977
 20
8268.4131667155307
 11
20267.360260719477
 21
8006.4699294108423
  0
LINE
  8
_0-0_
  6
CONTINUOUS
 62
    4
 10
20267.363190406977
 20
8006.4699294108423
 11
21653.255768531977
 21
9392.4335524577182
  0
LINE
  8
_0-0_
  6
CONTINUOUS
 62
    4
 10
21391.301666969477
 20
9654.3769118327164
 11
21653.255768531977
 21
9392.4335524577182
  0
LINE
  8
_0-0_
  6
CONTINUOUS
 62
    4
 10
21653.255768531977
 20
9392.4335524577182
 11
21752.250885719477
 21
9491.4333083170914
  0
LINE
  8
_0-0_
  6
CONTINUOUS
 62
    4
 10
21490.293854469481
 20
9753.3752028483414
 11
21752.250885719477
 21
9491.4333083170914
  0
LINE
  8
_0-0_
  6
CONTINUOUS
 62
    4
 10
21589.330963844477
 20
7794.6681715983414
 11
21865.093659156977
 21
8070.4461256999039
  0
LINE
  8
_0-0_
  6
CONTINUOUS
 62
    4
 10
21293.347565406977
 20
8090.6352126139664
 11
21589.330963844477
 21
7794.6681715983414
  0
LINE
  8
_0-0_
  6
CONTINUOUS
 62
    4
 10
21569.113190406977
 20
8366.4131667155289
 11
21865.093659156977
 21
8070.4461256999039
  0
LINE
  8
_0-0_
  6
CONTINUOUS
 62
    4
 10
21632.907135719477
 20
8963.4257399577164
 11
21731.904206031977
 21
8864.4286696452164
  0
LINE
  8
_0-0_
  6
CONTINUOUS
 62
    4
 10
21449.784088844477
 20
8780.3029372233432
 11
21632.907135719477
 21
8963.4257399577164
  0
LINE
  8
_0-0_
  6
CONTINUOUS
 62
    4
 10
21548.782135719477
 20
8681.3058669108414
 11
21731.904206031977
 21
8864.4286696452164
  0
LINE
  8
_0-0_
  6
CONTINUOUS
 62
    7
 10
15535.314362281977
 20
5782.501362516311
 11
16246.515045875727
 21
5782.501362516311
  0
LINE
  8
_0-0_
  6
CONTINUOUS
 62
    7
 10
15468.414948219479
 20
5782.501362516311
 11
15468.414948219479
 21
5807.5014235514673
  0
LINE
  8
_0-0_
  6
CONTINUOUS
 62
    7
 10
15468.414948219479
 20
5807.5014235514673
 11
16313.414459938227
 21
5807.5014235514673
  0
LINE
  8
_0-0_
  6
CONTINUOUS
 62
    7
 10
16313.414459938227
 20
5782.501362516311
 11
16313.414459938227
 21
5807.5014235514673
  0
LINE
  8
_0-0_
  6
CONTINUOUS
 62
    7
 10
15468.414948219479
 20
5782.501362516311
 11
16313.414459938227
 21
5782.501362516311
  0
LINE
  8
_0-0_
  6
CONTINUOUS
 62
    7
 10
15468.414948219479
 20
5807.5014235514673
 11
15535.195221656977
 21
5923.1698805827164
  0
LINE
  8
_0-0_
  6
CONTINUOUS
 62
    7
 10
15491.508698219477
 20
5807.5014235514673
 11
15535.314362281977
 21
5883.3763014811539
  0
LINE
  8
_0-0_
  6
CONTINUOUS
 62
    7
 10
16290.320709938225
 20
5807.5014235514673
 11
16246.515045875727
 21
5883.3763014811539
  0
LINE
  8
_0-0_
  6
CONTINUOUS
 62
    7
 10
15781.318268531975
 20
5923.9849440592789
 11
15781.318268531975
 21
5808.4862257975601
  0
LINE
  8
_0-0_
  6
CONTINUOUS
 62
    7
 10
15771.318268531977
 20
5923.1698805827164
 11
15771.318268531977
 21
5808.4862257975601
  0
LINE
  8
_0-0_
  6
CONTINUOUS
 62
    7
 10
15771.318268531977
 20
5923.1698805827164
 11
15791.319245094477
 21
5923.1698805827164
  0
LINE
  8
_0-0_
  6
CONTINUOUS
 62
    7
 10
15791.319245094477
 20
5923.1698805827164
 11
15791.319245094477
 21
5808.4862257975601
  0
LINE
  8
_0-0_
  6
CONTINUOUS
 62
    7
 10
16313.414459938227
 20
5807.5014235514673
 11
16246.515045875727
 21
5923.3755080241235
  0
LINE
  8
_0-0_
  6
CONTINUOUS
 62
    7
 10
16000.511139625727
 20
5923.9849440592789
 11
16000.511139625727
 21
5808.4862257975601
  0
LINE
  8
_0-0_
  6
CONTINUOUS
 62
    7
 10
16010.511139625725
 20
5923.1698805827164
 11
16010.511139625725
 21
5808.4862257975601
  0
LINE
  8
_0-0_
  6
CONTINUOUS
 62
    7
 10
16010.511139625725
 20
5923.1698805827164
 11
15990.510163063225
 21
5923.1698805827164
  0
LINE
  8
_0-0_
  6
CONTINUOUS
 62
    7
 10
15990.510163063225
 20
5923.1698805827164
 11
15990.510163063225
 21
5808.4862257975601
  0
LINE
  8
_0-0_
  6
CONTINUOUS
 62
    7
 10
15535.314362281977
 20
11662.500446988968
 11
16246.515045875727
 21
11662.500446988968
  0
LINE
  8
_0-0_
  6
CONTINUOUS
 62
    7
 10
15468.414948219479
 20
11662.500446988968
 11
15468.414948219479
 21
11637.501911832718
  0
LINE
  8
_0-0_
  6
CONTINUOUS
 62
    7
 10
15468.414948219479
 20
11637.501911832718
 11
16313.414459938227
 21
11637.501911832718
  0
LINE
  8
_0-0_
  6
CONTINUOUS
 62
    7
 10
16313.414459938227
 20
11662.500446988968
 11
16313.414459938227
 21
11637.501911832718
  0
LINE
  8
_0-0_
  6
CONTINUOUS
 62
    7
 10
15468.414948219479
 20
11662.500446988968
 11
16313.414459938227
 21
11662.500446988968
  0
LINE
  8
_0-0_
  6
CONTINUOUS
 62
    7
 10
15468.414948219479
 20
11637.501911832718
 11
15535.195221656977
 21
11521.833454801466
  0
LINE
  8
_0-0_
  6
CONTINUOUS
 62
    7
 10
15491.508698219477
 20
11637.501911832718
 11
15535.314362281977
 21
11561.626911832716
  0
LINE
  8
_0-0_
  6
CONTINUOUS
 62
    7
 10
16290.320709938225
 20
11637.501911832718
 11
16246.515045875727
 21
11561.626911832716
  0
LINE
  8
_0-0_
  6
CONTINUOUS
 62
    7
 10
15781.318268531975
 20
11521.015583707716
 11
15781.318268531975
 21
11636.517048551466
  0
LINE
  8
_0-0_
  6
CONTINUOUS
 62
    7
 10
15771.318268531977
 20
11521.833454801466
 11
15771.318268531977
 21
11636.517048551466
  0
LINE
  8
_0-0_
  6
CONTINUOUS
 62
    7
 10
15771.318268531977
 20
11521.833454801466
 11
15791.319245094477
 21
11521.833454801466
  0
LINE
  8
_0-0_
  6
CONTINUOUS
 62
    7
 10
15791.319245094477
 20
11521.833454801466
 11
15791.319245094477
 21
11636.517048551466
  0
LINE
  8
_0-0_
  6
CONTINUOUS
 62
    7
 10
16313.414459938227
 20
11637.501911832718
 11
16246.515045875727
 21
11521.627888395216
  0
LINE
  8
_0-0_
  6
CONTINUOUS
 62
    7
 10
16000.511139625727
 20
11521.015583707716
 11
16000.511139625727
 21
11636.517048551466
  0
LINE
  8
_0-0_
  6
CONTINUOUS
 62
    7
 10
16010.511139625725
 20
11521.833454801466
 11
16010.511139625725
 21
11636.517048551466
  0
LINE
  8
_0-0_
  6
CONTINUOUS
 62
    7
 10
16010.511139625725
 20
11521.833454801466
 11
15990.510163063225
 21
11521.833454801466
  0
LINE
  8
_0-0_
  6
CONTINUOUS
 62
    7
 10
15990.510163063225
 20
11521.833454801466
 11
15990.510163063225
 21
11636.517048551466
  0
LINE
  8
_0-0_
  6
CONTINUOUS
 62
    7
 10
15535.314362281977
 20
11637.501911832718
 11
15535.314362281977
 21
5807.5014235514673
  0
LINE
  8
_0-0_
  6
CONTINUOUS
 62
    7
 10
15614.467682594477
 20
5807.5014235514673
 11
15614.467682594477
 21
11637.501911832718
  0
LINE
  8
_0-0_
  6
CONTINUOUS
 62
    7
 10
15664.468170875727
 20
5807.5014235514673
 11
15664.468170875727
 21
11637.501911832718
  0
LINE
  8
_0-0_
  6
CENTER2
 62
    7
 10
15890.914459938227
 20
11662.500446988968
 11
15890.914459938227
 21
5581.4209181803735
  0
LINE
  8
_0-0_
  6
CONTINUOUS
 62
    7
 10
16117.361237281977
 20
5807.5014235514673
 11
16117.361237281977
 21
11637.501911832718
  0
LINE
  8
_0-0_
  6
CONTINUOUS
 62
    7
 10
16167.361725563227
 20
5807.5014235514673
 11
16167.361725563227
 21
11637.501911832718
  0
LINE
  8
_0-0_
  6
CONTINUOUS
 62
    7
 10
16246.515045875727
 20
11637.501911832718
 11
16246.515045875727
 21
5807.5014235514673
  0
LINE
  8
_0-0_
  6
CENTER2
 62
    7
 10
15890.914459938227
 20
5782.501362516311
 11
15890.914459938227
 21
6136.3316847819351
  0
CIRCLE
  8
_0-0_
  6
CONTINUOUS
 62
    7
 10
8666.1078803483833
 20
2860.1076247233423
 40
356.00006103515625
  0
CIRCLE
  8
_0-0_
  6
CONTINUOUS
 62
    7
 10
8666.1078803483833
 20
2354.1049391764673
 40
150.00001525878906
  0
CIRCLE
  8
_0-0_
  6
CONTINUOUS
 62
    7
 10
8666.1078803483833
 20
2354.1049391764673
 40
130.00001525878906
  0
CIRCLE
  8
_0-0_
  6
CONTINUOUS
 62
    7
 10
8666.1078803483833
 20
2354.1049391764673
 40
175.00003051757812
  0
CIRCLE
  8
_0-0_
  6
CONTINUOUS
 62
    7
 10
8666.1078803483833
 20
2354.1049391764673
 40
165
  0
CIRCLE
  8
_0-0_
  6
CONTINUOUS
 62
    7
 10
8666.1078803483833
 20
2354.1049391764673
 40
125.00000762939453
  0
CIRCLE
  8
_0-0_
  6
CONTINUOUS
 62
    7
 10
8666.1078803483833
 20
2354.1049391764673
 40
105.00000762939455
  0
CIRCLE
  8
_0-0_
  6
CONTINUOUS
 62
    7
 10
8666.1078803483833
 20
2354.1049391764673
 40
80.000007629394531
  0
CIRCLE
  8
_0-0_
  6
CONTINUOUS
 62
    7
 10
8666.1078803483833
 20
2354.1049391764673
 40
60
  0
CIRCLE
  8
_0-0_
  6
CONTINUOUS
 62
    7
 10
8666.1078803483833
 20
2354.1049391764673
 40
25
  0
CIRCLE
  8
_0-0_
  6
CONTINUOUS
 62
    7
 10
6056.1778876726021
 20
18900.904255582718
 40
150.00001525878906
  0
CIRCLE
  8
_0-0_
  6
CONTINUOUS
 62
    7
 10
6056.1778876726021
 20
18900.904255582718
 40
140
  0
CIRCLE
  8
_0-0_
  6
CONTINUOUS
 62
    7
 10
6056.1778876726021
 20
18900.904255582718
 40
120
  0
ARC
  8
_0-0_
  6
CONTINUOUS
 62
    7
 10
4660.1622626726021
 20
13434.107380582716
 40
150.00001525878906
 50
78.462997436523438
 51
165.32499694824219
  0
ARC
  8
_0-0_
  6
CONTINUOUS
 62
    7
 10
4660.1622626726021
 20
13434.107380582716
 40
200
 50
81.37298583984375
 51
169.04699707031247
  0
ARC
  8
_0-0_
  6
CONTINUOUS
 62
    7
 10
4660.1622626726021
 20
13434.107380582716
 40
200
 50
10.95269775390625
 51
72.244293212890625
  0
ARC
  8
_0-0_
  6
CONTINUOUS
 62
    7
 10
5410.1620185319771
 20
13529.105915738966
 40
290
 50
348.66398620605474
 51
73.986587524414105
  0
ARC
  8
_0-0_
  6
CONTINUOUS
 62
    7
 10
5410.1620185319771
 20
13529.105915738966
 40
230.00000000000003
 50
345.65098571777344
 51
69.645492553710966
  0
ARC
  8
_0-0_
  6
CONTINUOUS
 62
    7
 10
5410.1620185319771
 20
13529.105915738966
 40
230.00000000000003
 50
77.444091796875
 51
194.34799194335937
  0
ARC
  8
_0-0_
  6
CONTINUOUS
 62
    7
 10
5410.1620185319771
 20
13529.105915738966
 40
189.99998474121094
 50
342.5419921875
 51
65.098892211914091
  0
ARC
  8
_0-0_
  6
CONTINUOUS
 62
    7
 10
5410.1620185319771
 20
13529.105915738966
 40
189.99998474121094
 50
74.742385864257813
 51
197.45698547363284
  0
ARC
  8
_0-0_
  6
CONTINUOUS
 62
    7
 10
4660.1622626726021
 20
13434.107380582716
 40
110.00000000000001
 50
175.82899475097656
 51
285.82598876953131
  0
ARC
  8
_0-0_
  6
CONTINUOUS
 62
    7
 10
4660.1622626726021
 20
13434.107380582716
 40
150.00001525878906
 50
176.94198608398437
 51
281.53599548339849
  0
ARC
  8
_0-0_
  6
CONTINUOUS
 62
    7
 10
4660.1622626726021
 20
13434.107380582716
 40
200
 50
177.70698547363284
 51
278.62599182128912
  0
ARC
  8
_0-0_
  6
CONTINUOUS
 62
    7
 10
4660.1622626726021
 20
13434.107380582716
 40
110.00000000000001
 50
303.47299194335937
 51
4.170639038085949
  0
ARC
  8
_0-0_
  6
CONTINUOUS
 62
    7
 10
4660.1622626726021
 20
13434.107380582716
 40
150.00001525878906
 50
293.72599792480469
 51
3.0572052001952863
  0
ARC
  8
_0-0_
  6
CONTINUOUS
 62
    7
 10
5410.1620185319771
 20
13529.105915738966
 40
290
 50
286.01298522949219
 51
342.5419921875
  0
ARC
  8
_0-0_
  6
CONTINUOUS
 62
    7
 10
5410.1620185319771
 20
13529.105915738966
 40
290
 50
197.45698547363281
 51
279.92799377441406
  0
ARC
  8
_0-0_
  6
CONTINUOUS
 62
    7
 10
5410.1620185319771
 20
13529.105915738966
 40
230.00000000000003
 50
290.35398864746094
 51
337.77398681640625
  0
ARC
  8
_0-0_
  6
CONTINUOUS
 62
    7
 10
5410.1620185319771
 20
13529.105915738966
 40
230.00000000000003
 50
202.22499084472656
 51
282.55499267578125
  0
ARC
  8
_0-0_
  6
CONTINUOUS
 62
    7
 10
5410.1620185319771
 20
13529.105915738966
 40
189.99998474121094
 50
294.90098571777344
 51
332.74798583984375
  0
ARC
  8
_0-0_
  6
CONTINUOUS
 62
    7
 10
5410.1620185319771
 20
13529.105915738966
 40
189.99998474121094
 50
207.25099182128906
 51
285.25698852539062
  0
CIRCLE
  8
_0-0_
  6
CONTINUOUS
 62
    7
 10
6855.4741523210396
 20
13160.787068082715
 40
25
  0
ARC
  8
_0-0_
  6
CONTINUOUS
 62
    7
 10
6855.4741523210396
 20
13160.787068082715
 40
50
 50
0
 51
180
  0
LINE
  8
_0-0_
  6
CONTINUOUS
 62
    3
 10
20510.420515262234
 20
16481.769402872331
 11
20510.420515262234
 21
16481.769402872331
  0
LINE
  8
_0-0_
  6
CONTINUOUS
 62
    3
 10
20510.420515262234
 20
16481.769402872331
 11
20509.494578887305
 21
16486.037200047122
  0
LINE
  8
_0-0_
  6
CONTINUOUS
 62
    3
 10
20509.494578887305
 20
16486.037200047122
 11
20507.652462728754
 21
16490.076070974912
  0
LINE
  8
_0-0_
  6
CONTINUOUS
 62
    3
 10
20507.652462728754
 20
16490.076070974912
 11
20504.950138553904
 21
16493.763296606332
  0
LINE
  8
_0-0_
  6
CONTINUOUS
 62
    3
 10
20504.950138553904
 20
16493.763296606332
 11
20501.46971511537
 21
16496.986842456397
  0
LINE
  8
_0-0_
  6
CONTINUOUS
 62
    3
 10
20501.46971511537
 20
16496.986842456397
 11
20497.31694331815
 21
16499.648762715646
  0
LINE
  8
_0-0_
  6
CONTINUOUS
 62
    3
 10
20497.31694331815
 20
16499.648762715646
 11
20492.618003031897
 21
16501.668176283994
  0
LINE
  8
_0-0_
  6
CONTINUOUS
 62
    3
 10
20492.618003031897
 20
16501.668176283994
 11
20487.515669179433
 21
16502.983724302045
  0
LINE
  8
_0-0_
  6
CONTINUOUS
 62
    3
 10
20487.515669179433
 20
16502.983724302045
 11
20482.16497359296
 21
16503.555434508969
  0
LINE
  8
_0-0_
  6
CONTINUOUS
 62
    3
 10
20482.16497359296
 20
16503.555434508969
 11
20476.728494450286
 21
16503.365935779424
  0
LINE
  8
_0-0_
  6
CONTINUOUS
 62
    3
 10
20476.728494450286
 20
16503.365935779424
 11
20471.371416419173
 21
16502.42098593642
  0
LINE
  8
_0-0_
  6
CONTINUOUS
 62
    3
 10
20471.371416419173
 20
16502.42098593642
 11
20466.256511604784
 21
16500.749296802769
  0
LINE
  8
_0-0_
  6
CONTINUOUS
 62
    3
 10
20466.256511604784
 20
16500.749296802769
 11
20461.53919380164
 21
16498.401661806882
  0
LINE
  8
_0-0_
  6
CONTINUOUS
 62
    3
 10
20461.53919380164
 20
16498.401661806882
 11
20457.362796324105
 21
16495.449412650141
  0
LINE
  8
_0-0_
  6
CONTINUOUS
 62
    3
 10
20457.362796324105
 20
16495.449412650141
 11
20453.854216896183
 21
16491.982251929276
  0
LINE
  8
_0-0_
  6
CONTINUOUS
 62
    3
 10
20453.854216896183
 20
16491.982251929276
 11
20451.120061928355
 21
16488.10552756831
  0
LINE
  8
_0-0_
  6
CONTINUOUS
 62
    3
 10
20451.120061928355
 20
16488.10552756831
 11
20449.24340733578
 21
16483.937031875244
  0
LINE
  8
_0-0_
  6
CONTINUOUS
 62
    3
 10
20449.24340733578
 20
16483.937031875244
 11
20448.281274318611
 21
16479.603422482345
  0
LINE
  8
_0-0_
  6
CONTINUOUS
 62
    3
 10
20448.281274318611
 20
16479.603422482345
 11
20448.26289680172
 21
16475.236373918106
  0
LINE
  8
_0-0_
  6
CONTINUOUS
 62
    3
 10
20448.26289680172
 20
16475.236373918106
 11
20449.188833176649
 21
16470.968576743315
  0
LINE
  8
_0-0_
  6
CONTINUOUS
 62
    3
 10
20449.188833176649
 20
16470.968576743315
 11
20451.0309493352
 21
16466.929705815524
  0
LINE
  8
_0-0_
  6
CONTINUOUS
 62
    3
 10
20451.0309493352
 20
16466.929705815524
 11
20453.73327351005
 21
16463.242480184104
  0
LINE
  8
_0-0_
  6
CONTINUOUS
 62
    3
 10
20453.73327351005
 20
16463.242480184104
 11
20457.213696948584
 21
16460.018934334039
  0
LINE
  8
_0-0_
  6
CONTINUOUS
 62
    3
 10
20457.213696948584
 20
16460.018934334039
 11
20461.366468745804
 21
16457.357014074791
  0
LINE
  8
_0-0_
  6
CONTINUOUS
 62
    3
 10
20461.366468745804
 20
16457.357014074791
 11
20466.065409032057
 21
16455.337600506442
  0
LINE
  8
_0-0_
  6
CONTINUOUS
 62
    3
 10
20466.065409032057
 20
16455.337600506442
 11
20471.167742884521
 21
16454.022052488392
  0
LINE
  8
_0-0_
  6
CONTINUOUS
 62
    3
 10
20471.167742884521
 20
16454.022052488392
 11
20476.518438470994
 21
16453.450342281467
  0
LINE
  8
_0-0_
  6
CONTINUOUS
 62
    3
 10
20476.518438470994
 20
16453.450342281467
 11
20481.954917613668
 21
16453.639841011012
  0
LINE
  8
_0-0_
  6
CONTINUOUS
 62
    3
 10
20481.954917613668
 20
16453.639841011012
 11
20487.311995644781
 21
16454.584790854016
  0
LINE
  8
_0-0_
  6
CONTINUOUS
 62
    3
 10
20487.311995644781
 20
16454.584790854016
 11
20492.42690045917
 21
16456.256479987667
  0
LINE
  8
_0-0_
  6
CONTINUOUS
 62
    3
 10
20492.42690045917
 20
16456.256479987667
 11
20497.144218262314
 21
16458.604114983555
  0
LINE
  8
_0-0_
  6
CONTINUOUS
 62
    3
 10
20497.144218262314
 20
16458.604114983555
 11
20501.320615739849
 21
16461.556364140295
  0
LINE
  8
_0-0_
  6
CONTINUOUS
 62
    3
 10
20501.320615739849
 20
16461.556364140295
 11
20504.829195167771
 21
16465.023524861161
  0
LINE
  8
_0-0_
  6
CONTINUOUS
 62
    3
 10
20504.829195167771
 20
16465.023524861161
 11
20507.563350135595
 21
16468.900249222126
  0
LINE
  8
_0-0_
  6
CONTINUOUS
 62
    3
 10
20507.563350135595
 20
16468.900249222126
 11
20509.440004728174
 21
16473.068744915192
  0
LINE
  8
_0-0_
  6
CONTINUOUS
 62
    3
 10
20509.440004728174
 20
16473.068744915192
 11
20510.402137745343
 21
16477.402354308091
  0
LINE
  8
_0-0_
  6
CONTINUOUS
 62
    3
 10
20510.402137745343
 20
16477.402354308091
 11
20510.420515262234
 21
16481.769402872331
  0
LINE
  8
_0-0_
  6
CONTINUOUS
 62
    3
 10
20510.420515262234
 20
16481.769402872331
 11
20510.420515262234
 21
16481.769402872331
  0
LINE
  8
_0-0_
  6
CONTINUOUS
 62
    3
 10
20228.353132449734
 20
17240.143426309831
 11
20228.353132449734
 21
17240.143426309831
  0
LINE
  8
_0-0_
  6
CONTINUOUS
 62
    3
 10
20228.353132449734
 20
17240.143426309831
 11
20227.427196074805
 21
17244.411223484622
  0
LINE
  8
_0-0_
  6
CONTINUOUS
 62
    3
 10
20227.427196074805
 20
17244.411223484622
 11
20225.585079916254
 21
17248.450094412412
  0
LINE
  8
_0-0_
  6
CONTINUOUS
 62
    3
 10
20225.585079916254
 20
17248.450094412412
 11
20222.882755741404
 21
17252.137320043832
  0
LINE
  8
_0-0_
  6
CONTINUOUS
 62
    3
 10
20222.882755741404
 20
17252.137320043832
 11
20219.40233230287
 21
17255.360865893897
  0
LINE
  8
_0-0_
  6
CONTINUOUS
 62
    3
 10
20219.40233230287
 20
17255.360865893897
 11
20215.24956050565
 21
17258.022786153146
  0
LINE
  8
_0-0_
  6
CONTINUOUS
 62
    3
 10
20215.24956050565
 20
17258.022786153146
 11
20210.550620219397
 21
17260.042199721494
  0
LINE
  8
_0-0_
  6
CONTINUOUS
 62
    3
 10
20210.550620219397
 20
17260.042199721494
 11
20205.448286366933
 21
17261.357747739545
  0
LINE
  8
_0-0_
  6
CONTINUOUS
 62
    3
 10
20205.448286366933
 20
17261.357747739545
 11
20200.09759078046
 21
17261.929457946469
  0
LINE
  8
_0-0_
  6
CONTINUOUS
 62
    3
 10
20200.09759078046
 20
17261.929457946469
 11
20194.661111637786
 21
17261.739959216924
  0
LINE
  8
_0-0_
  6
CONTINUOUS
 62
    3
 10
20194.661111637786
 20
17261.739959216924
 11
20189.304033606673
 21
17260.79500937392
  0
LINE
  8
_0-0_
  6
CONTINUOUS
 62
    3
 10
20189.304033606673
 20
17260.79500937392
 11
20184.189128792284
 21
17259.123320240269
  0
LINE
  8
_0-0_
  6
CONTINUOUS
 62
    3
 10
20184.189128792284
 20
17259.123320240269
 11
20179.47181098914
 21
17256.775685244382
  0
LINE
  8
_0-0_
  6
CONTINUOUS
 62
    3
 10
20179.47181098914
 20
17256.775685244382
 11
20175.295413511605
 21
17253.823436087641
  0
LINE
  8
_0-0_
  6
CONTINUOUS
 62
    3
 10
20175.295413511605
 20
17253.823436087641
 11
20171.786834083683
 21
17250.356275366776
  0
LINE
  8
_0-0_
  6
CONTINUOUS
 62
    3
 10
20171.786834083683
 20
17250.356275366776
 11
20169.052679115855
 21
17246.47955100581
  0
LINE
  8
_0-0_
  6
CONTINUOUS
 62
    3
 10
20169.052679115855
 20
17246.47955100581
 11
20167.17602452328
 21
17242.311055312744
  0
LINE
  8
_0-0_
  6
CONTINUOUS
 62
    3
 10
20167.17602452328
 20
17242.311055312744
 11
20166.213891506111
 21
17237.977445919845
  0
LINE
  8
_0-0_
  6
CONTINUOUS
 62
    3
 10
20166.213891506111
 20
17237.977445919845
 11
20166.19551398922
 21
17233.610397355606
  0
LINE
  8
_0-0_
  6
CONTINUOUS
 62
    3
 10
20166.19551398922
 20
17233.610397355606
 11
20167.121450364149
 21
17229.342600180815
  0
LINE
  8
_0-0_
  6
CONTINUOUS
 62
    3
 10
20167.121450364149
 20
17229.342600180815
 11
20168.9635665227
 21
17225.303729253024
  0
LINE
  8
_0-0_
  6
CONTINUOUS
 62
    3
 10
20168.9635665227
 20
17225.303729253024
 11
20171.66589069755
 21
17221.616503621604
  0
LINE
  8
_0-0_
  6
CONTINUOUS
 62
    3
 10
20171.66589069755
 20
17221.616503621604
 11
20175.146314136084
 21
17218.392957771539
  0
LINE
  8
_0-0_
  6
CONTINUOUS
 62
    3
 10
20175.146314136084
 20
17218.392957771539
 11
20179.299085933304
 21
17215.731037512291
  0
LINE
  8
_0-0_
  6
CONTINUOUS
 62
    3
 10
20179.299085933304
 20
17215.731037512291
 11
20183.998026219557
 21
17213.711623943942
  0
LINE
  8
_0-0_
  6
CONTINUOUS
 62
    3
 10
20183.998026219557
 20
17213.711623943942
 11
20189.100360072021
 21
17212.396075925892
  0
LINE
  8
_0-0_
  6
CONTINUOUS
 62
    3
 10
20189.100360072021
 20
17212.396075925892
 11
20194.451055658494
 21
17211.824365718967
  0
LINE
  8
_0-0_
  6
CONTINUOUS
 62
    3
 10
20194.451055658494
 20
17211.824365718967
 11
20199.887534801168
 21
17212.013864448512
  0
LINE
  8
_0-0_
  6
CONTINUOUS
 62
    3
 10
20199.887534801168
 20
17212.013864448512
 11
20205.244612832281
 21
17212.958814291516
  0
LINE
  8
_0-0_
  6
CONTINUOUS
 62
    3
 10
20205.244612832281
 20
17212.958814291516
 11
20210.35951764667
 21
17214.630503425167
  0
LINE
  8
_0-0_
  6
CONTINUOUS
 62
    3
 10
20210.35951764667
 20
17214.630503425167
 11
20215.076835449814
 21
17216.978138421055
  0
LINE
  8
_0-0_
  6
CONTINUOUS
 62
    3
 10
20215.076835449814
 20
17216.978138421055
 11
20219.253232927349
 21
17219.930387577795
  0
LINE
  8
_0-0_
  6
CONTINUOUS
 62
    3
 10
20219.253232927349
 20
17219.930387577795
 11
20222.761812355271
 21
17223.397548298661
  0
LINE
  8
_0-0_
  6
CONTINUOUS
 62
    3
 10
20222.761812355271
 20
17223.397548298661
 11
20225.495967323095
 21
17227.274272659626
  0
LINE
  8
_0-0_
  6
CONTINUOUS
 62
    3
 10
20225.495967323095
 20
17227.274272659626
 11
20227.372621915674
 21
17231.442768352692
  0
LINE
  8
_0-0_
  6
CONTINUOUS
 62
    3
 10
20227.372621915674
 20
17231.442768352692
 11
20228.334754932843
 21
17235.776377745591
  0
LINE
  8
_0-0_
  6
CONTINUOUS
 62
    3
 10
20228.334754932843
 20
17235.776377745591
 11
20228.353132449734
 21
17240.143426309831
  0
LINE
  8
_0-0_
  6
CONTINUOUS
 62
    3
 10
20228.353132449734
 20
17240.143426309831
 11
20228.353132449734
 21
17240.143426309831
  0
LINE
  8
_0-0_
  6
CONTINUOUS
 62
    3
 10
14244.980573855988
 20
15599.519402872331
 11
14244.980573855988
 21
15599.519402872331
  0
LINE
  8
_0-0_
  6
CONTINUOUS
 62
    3
 10
14244.980573855988
 20
15599.519402872331
 11
14244.054637481056
 21
15603.78720004712
  0
LINE
  8
_0-0_
  6
CONTINUOUS
 62
    3
 10
14244.054637481056
 20
15603.78720004712
 11
14242.212521322506
 21
15607.82607097491
  0
LINE
  8
_0-0_
  6
CONTINUOUS
 62
    3
 10
14242.212521322506
 20
15607.82607097491
 11
14239.510197147658
 21
15611.51329660633
  0
LINE
  8
_0-0_
  6
CONTINUOUS
 62
    3
 10
14239.510197147658
 20
15611.51329660633
 11
14236.029773709122
 21
15614.736842456396
  0
LINE
  8
_0-0_
  6
CONTINUOUS
 62
    3
 10
14236.029773709122
 20
15614.736842456396
 11
14231.877001911902
 21
15617.398762715642
  0
LINE
  8
_0-0_
  6
CONTINUOUS
 62
    3
 10
14231.877001911902
 20
15617.398762715642
 11
14227.178061625649
 21
15619.418176283993
  0
LINE
  8
_0-0_
  6
CONTINUOUS
 62
    3
 10
14227.178061625649
 20
15619.418176283993
 11
14222.075727773185
 21
15620.733724302045
  0
LINE
  8
_0-0_
  6
CONTINUOUS
 62
    3
 10
14222.075727773185
 20
15620.733724302045
 11
14216.72503218671
 21
15621.305434508966
  0
LINE
  8
_0-0_
  6
CONTINUOUS
 62
    3
 10
14216.72503218671
 20
15621.305434508966
 11
14211.288553044038
 21
15621.115935779424
  0
LINE
  8
_0-0_
  6
CONTINUOUS
 62
    3
 10
14211.288553044038
 20
15621.115935779424
 11
14205.931475012925
 21
15620.17098593642
  0
LINE
  8
_0-0_
  6
CONTINUOUS
 62
    3
 10
14205.931475012925
 20
15620.17098593642
 11
14200.816570198536
 21
15618.499296802767
  0
LINE
  8
_0-0_
  6
CONTINUOUS
 62
    3
 10
14200.816570198536
 20
15618.499296802767
 11
14196.099252395392
 21
15616.151661806878
  0
LINE
  8
_0-0_
  6
CONTINUOUS
 62
    3
 10
14196.099252395392
 20
15616.151661806878
 11
14191.922854917859
 21
15613.199412650141
  0
LINE
  8
_0-0_
  6
CONTINUOUS
 62
    3
 10
14191.922854917859
 20
15613.199412650141
 11
14188.414275489935
 21
15609.732251929272
  0
LINE
  8
_0-0_
  6
CONTINUOUS
 62
    3
 10
14188.414275489935
 20
15609.732251929272
 11
14185.680120522109
 21
15605.855527568308
  0
LINE
  8
_0-0_
  6
CONTINUOUS
 62
    3
 10
14185.680120522109
 20
15605.855527568308
 11
14183.803465929532
 21
15601.687031875241
  0
LINE
  8
_0-0_
  6
CONTINUOUS
 62
    3
 10
14183.803465929532
 20
15601.687031875241
 11
14182.841332912363
 21
15597.353422482342
  0
LINE
  8
_0-0_
  6
CONTINUOUS
 62
    3
 10
14182.841332912363
 20
15597.353422482342
 11
14182.82295539547
 21
15592.986373918102
  0
LINE
  8
_0-0_
  6
CONTINUOUS
 62
    3
 10
14182.82295539547
 20
15592.986373918102
 11
14183.748891770401
 21
15588.718576743313
  0
LINE
  8
_0-0_
  6
CONTINUOUS
 62
    3
 10
14183.748891770401
 20
15588.718576743313
 11
14185.591007928952
 21
15584.679705815523
  0
LINE
  8
_0-0_
  6
CONTINUOUS
 62
    3
 10
14185.591007928952
 20
15584.679705815523
 11
14188.2933321038
 21
15580.992480184103
  0
LINE
  8
_0-0_
  6
CONTINUOUS
 62
    3
 10
14188.2933321038
 20
15580.992480184103
 11
14191.773755542335
 21
15577.768934334037
  0
LINE
  8
_0-0_
  6
CONTINUOUS
 62
    3
 10
14191.773755542335
 20
15577.768934334037
 11
14195.926527339556
 21
15575.107014074791
  0
LINE
  8
_0-0_
  6
CONTINUOUS
 62
    3
 10
14195.926527339556
 20
15575.107014074791
 11
14200.625467625809
 21
15573.08760050644
  0
LINE
  8
_0-0_
  6
CONTINUOUS
 62
    3
 10
14200.625467625809
 20
15573.08760050644
 11
14205.727801478271
 21
15571.772052488388
  0
LINE
  8
_0-0_
  6
CONTINUOUS
 62
    3
 10
14205.727801478271
 20
15571.772052488388
 11
14211.078497064747
 21
15571.200342281467
  0
LINE
  8
_0-0_
  6
CONTINUOUS
 62
    3
 10
14211.078497064747
 20
15571.200342281467
 11
14216.51497620742
 21
15571.389841011009
  0
LINE
  8
_0-0_
  6
CONTINUOUS
 62
    3
 10
14216.51497620742
 20
15571.389841011009
 11
14221.872054238533
 21
15572.334790854013
  0
LINE
  8
_0-0_
  6
CONTINUOUS
 62
    3
 10
14221.872054238533
 20
15572.334790854013
 11
14226.98695905292
 21
15574.006479987665
  0
LINE
  8
_0-0_
  6
CONTINUOUS
 62
    3
 10
14226.98695905292
 20
15574.006479987665
 11
14231.704276856066
 21
15576.354114983555
  0
LINE
  8
_0-0_
  6
CONTINUOUS
 62
    3
 10
14231.704276856066
 20
15576.354114983555
 11
14235.880674333599
 21
15579.306364140291
  0
LINE
  8
_0-0_
  6
CONTINUOUS
 62
    3
 10
14235.880674333599
 20
15579.306364140291
 11
14239.389253761523
 21
15582.773524861161
  0
LINE
  8
_0-0_
  6
CONTINUOUS
 62
    3
 10
14239.389253761523
 20
15582.773524861161
 11
14242.123408729349
 21
15586.650249222123
  0
LINE
  8
_0-0_
  6
CONTINUOUS
 62
    3
 10
14242.123408729349
 20
15586.650249222123
 11
14244.000063321926
 21
15590.818744915192
  0
LINE
  8
_0-0_
  6
CONTINUOUS
 62
    3
 10
14244.000063321926
 20
15590.818744915192
 11
14244.962196339095
 21
15595.152354308091
  0
LINE
  8
_0-0_
  6
CONTINUOUS
 62
    3
 10
14244.962196339095
 20
15595.152354308091
 11
14244.980573855988
 21
15599.519402872331
  0
LINE
  8
_0-0_
  6
CONTINUOUS
 62
    3
 10
14244.980573855988
 20
15599.519402872331
 11
14244.980573855988
 21
15599.519402872331
  0
LINE
  8
_0-0_
  6
CONTINUOUS
 62
    3
 10
14527.008405887234
 20
14841.249871622331
 11
14527.008405887234
 21
14841.249871622331
  0
LINE
  8
_0-0_
  6
CONTINUOUS
 62
    3
 10
14527.008405887234
 20
14841.249871622331
 11
14526.082469512303
 21
14845.51766879712
  0
LINE
  8
_0-0_
  6
CONTINUOUS
 62
    3
 10
14526.082469512303
 20
14845.51766879712
 11
14524.240353353753
 21
14849.55653972491
  0
LINE
  8
_0-0_
  6
CONTINUOUS
 62
    3
 10
14524.240353353753
 20
14849.55653972491
 11
14521.538029178904
 21
14853.24376535633
  0
LINE
  8
_0-0_
  6
CONTINUOUS
 62
    3
 10
14521.538029178904
 20
14853.24376535633
 11
14518.057605740369
 21
14856.467311206396
  0
LINE
  8
_0-0_
  6
CONTINUOUS
 62
    3
 10
14518.057605740369
 20
14856.467311206396
 11
14513.904833943148
 21
14859.129231465642
  0
LINE
  8
_0-0_
  6
CONTINUOUS
 62
    3
 10
14513.904833943148
 20
14859.129231465642
 11
14509.205893656896
 21
14861.148645033993
  0
LINE
  8
_0-0_
  6
CONTINUOUS
 62
    3
 10
14509.205893656896
 20
14861.148645033993
 11
14504.103559804431
 21
14862.464193052045
  0
LINE
  8
_0-0_
  6
CONTINUOUS
 62
    3
 10
14504.103559804431
 20
14862.464193052045
 11
14498.752864217957
 21
14863.035903258966
  0
LINE
  8
_0-0_
  6
CONTINUOUS
 62
    3
 10
14498.752864217957
 20
14863.035903258966
 11
14493.316385075284
 21
14862.846404529424
  0
LINE
  8
_0-0_
  6
CONTINUOUS
 62
    3
 10
14493.316385075284
 20
14862.846404529424
 11
14487.959307044172
 21
14861.90145468642
  0
LINE
  8
_0-0_
  6
CONTINUOUS
 62
    3
 10
14487.959307044172
 20
14861.90145468642
 11
14482.844402229783
 21
14860.229765552767
  0
LINE
  8
_0-0_
  6
CONTINUOUS
 62
    3
 10
14482.844402229783
 20
14860.229765552767
 11
14478.127084426638
 21
14857.882130556878
  0
LINE
  8
_0-0_
  6
CONTINUOUS
 62
    3
 10
14478.127084426638
 20
14857.882130556878
 11
14473.950686949105
 21
14854.929881400141
  0
LINE
  8
_0-0_
  6
CONTINUOUS
 62
    3
 10
14473.950686949105
 20
14854.929881400141
 11
14470.442107521181
 21
14851.462720679272
  0
LINE
  8
_0-0_
  6
CONTINUOUS
 62
    3
 10
14470.442107521181
 20
14851.462720679272
 11
14467.707952553355
 21
14847.585996318308
  0
LINE
  8
_0-0_
  6
CONTINUOUS
 62
    3
 10
14467.707952553355
 20
14847.585996318308
 11
14465.831297960778
 21
14843.417500625241
  0
LINE
  8
_0-0_
  6
CONTINUOUS
 62
    3
 10
14465.831297960778
 20
14843.417500625241
 11
14464.86916494361
 21
14839.083891232342
  0
LINE
  8
_0-0_
  6
CONTINUOUS
 62
    3
 10
14464.86916494361
 20
14839.083891232342
 11
14464.850787426716
 21
14834.716842668102
  0
LINE
  8
_0-0_
  6
CONTINUOUS
 62
    3
 10
14464.850787426716
 20
14834.716842668102
 11
14465.776723801648
 21
14830.449045493313
  0
LINE
  8
_0-0_
  6
CONTINUOUS
 62
    3
 10
14465.776723801648
 20
14830.449045493313
 11
14467.618839960198
 21
14826.410174565523
  0
LINE
  8
_0-0_
  6
CONTINUOUS
 62
    3
 10
14467.618839960198
 20
14826.410174565523
 11
14470.321164135046
 21
14822.722948934103
  0
LINE
  8
_0-0_
  6
CONTINUOUS
 62
    3
 10
14470.321164135046
 20
14822.722948934103
 11
14473.801587573582
 21
14819.499403084037
  0
LINE
  8
_0-0_
  6
CONTINUOUS
 62
    3
 10
14473.801587573582
 20
14819.499403084037
 11
14477.954359370802
 21
14816.837482824791
  0
LINE
  8
_0-0_
  6
CONTINUOUS
 62
    3
 10
14477.954359370802
 20
14816.837482824791
 11
14482.653299657055
 21
14814.81806925644
  0
LINE
  8
_0-0_
  6
CONTINUOUS
 62
    3
 10
14482.653299657055
 20
14814.81806925644
 11
14487.755633509518
 21
14813.502521238388
  0
LINE
  8
_0-0_
  6
CONTINUOUS
 62
    3
 10
14487.755633509518
 20
14813.502521238388
 11
14493.106329095994
 21
14812.930811031467
  0
LINE
  8
_0-0_
  6
CONTINUOUS
 62
    3
 10
14493.106329095994
 20
14812.930811031467
 11
14498.542808238666
 21
14813.120309761009
  0
LINE
  8
_0-0_
  6
CONTINUOUS
 62
    3
 10
14498.542808238666
 20
14813.120309761009
 11
14503.899886269779
 21
14814.065259604013
  0
LINE
  8
_0-0_
  6
CONTINUOUS
 62
    3
 10
14503.899886269779
 20
14814.065259604013
 11
14509.014791084166
 21
14815.736948737665
  0
LINE
  8
_0-0_
  6
CONTINUOUS
 62
    3
 10
14509.014791084166
 20
14815.736948737665
 11
14513.732108887312
 21
14818.084583733555
  0
LINE
  8
_0-0_
  6
CONTINUOUS
 62
    3
 10
14513.732108887312
 20
14818.084583733555
 11
14517.908506364845
 21
14821.036832890291
  0
LINE
  8
_0-0_
  6
CONTINUOUS
 62
    3
 10
14517.908506364845
 20
14821.036832890291
 11
14521.417085792769
 21
14824.503993611161
  0
LINE
  8
_0-0_
  6
CONTINUOUS
 62
    3
 10
14521.417085792769
 20
14824.503993611161
 11
14524.151240760595
 21
14828.380717972123
  0
LINE
  8
_0-0_
  6
CONTINUOUS
 62
    3
 10
14524.151240760595
 20
14828.380717972123
 11
14526.027895353172
 21
14832.549213665192
  0
LINE
  8
_0-0_
  6
CONTINUOUS
 62
    3
 10
14526.027895353172
 20
14832.549213665192
 11
14526.990028370341
 21
14836.882823058091
  0
LINE
  8
_0-0_
  6
CONTINUOUS
 62
    3
 10
14526.990028370341
 20
14836.882823058091
 11
14527.008405887234
 21
14841.249871622331
  0
LINE
  8
_0-0_
  6
CONTINUOUS
 62
    3
 10
14527.008405887234
 20
14841.249871622331
 11
14527.008405887234
 21
14841.249871622331
  0
LINE
  8
_0-0_
  6
CONTINUOUS
 62
    3
 10
8705.2633454139959
 20
13685.849337564745
 11
8705.2633454139959
 21
13685.849337564745
  0
LINE
  8
_0-0_
  6
CONTINUOUS
 62
    3
 10
8705.2633454139959
 20
13685.849337564745
 11
8712.4884821915111
 21
13666.114786754106
  0
LINE
  8
_0-0_
  6
CONTINUOUS
 62
    3
 10
8712.4884821915111
 20
13666.114786754106
 11
8723.9292815355275
 21
13647.850231711234
  0
LINE
  8
_0-0_
  6
CONTINUOUS
 62
    3
 10
8723.9292815355275
 20
13647.850231711234
 11
8739.2381205473048
 21
13631.610631698795
  0
LINE
  8
_0-0_
  6
CONTINUOUS
 62
    3
 10
8739.2381205473048
 20
13631.610631698795
 11
8757.949847900114
 21
13617.889418745533
  0
LINE
  8
_0-0_
  6
CONTINUOUS
 62
    3
 10
8757.949847900114
 20
13617.889418745533
 11
8779.4959172269319
 21
13607.103504963767
  0
LINE
  8
_0-0_
  6
CONTINUOUS
 62
    3
 10
8779.4959172269319
 20
13607.103504963767
 11
8803.2216621141015
 21
13599.580614885814
  0
LINE
  8
_0-0_
  6
CONTINUOUS
 62
    3
 10
8803.2216621141015
 20
13599.580614885814
 11
8828.4061878090306
 21
13595.549327719931
  0
LINE
  8
_0-0_
  6
CONTINUOUS
 62
    3
 10
8828.4061878090306
 20
13595.549327719931
 11
8854.284275242464
 21
13595.132132086723
  0
LINE
  8
_0-0_
  6
CONTINUOUS
 62
    3
 10
8854.284275242464
 20
13595.132132086723
 11
8880.0696318226819
 21
13598.341704264394
  0
LINE
  8
_0-0_
  6
CONTINUOUS
 62
    3
 10
8880.0696318226819
 20
13598.341704264394
 11
8893.2776540174964
 21
13601.442544882628
  0
LINE
  8
_0-0_
  6
CONTINUOUS
 62
    3
 10
26493.836530887234
 20
18122.296746622331
 11
26493.836530887234
 21
18122.296746622331
  0
LINE
  8
_0-0_
  6
CONTINUOUS
 62
    3
 10
26493.836530887234
 20
18122.296746622331
 11
26492.910594512305
 21
18126.564543797122
  0
LINE
  8
_0-0_
  6
CONTINUOUS
 62
    3
 10
26492.910594512305
 20
18126.564543797122
 11
26491.068478353754
 21
18130.603414724912
  0
LINE
  8
_0-0_
  6
CONTINUOUS
 62
    3
 10
26491.068478353754
 20
18130.603414724912
 11
26488.366154178904
 21
18134.290640356332
  0
LINE
  8
_0-0_
  6
CONTINUOUS
 62
    3
 10
26488.366154178904
 20
18134.290640356332
 11
26484.88573074037
 21
18137.514186206397
  0
LINE
  8
_0-0_
  6
CONTINUOUS
 62
    3
 10
26484.88573074037
 20
18137.514186206397
 11
26480.73295894315
 21
18140.176106465646
  0
LINE
  8
_0-0_
  6
CONTINUOUS
 62
    3
 10
26480.73295894315
 20
18140.176106465646
 11
26476.034018656897
 21
18142.195520033994
  0
LINE
  8
_0-0_
  6
CONTINUOUS
 62
    3
 10
26476.034018656897
 20
18142.195520033994
 11
26470.931684804433
 21
18143.511068052045
  0
LINE
  8
_0-0_
  6
CONTINUOUS
 62
    3
 10
26470.931684804433
 20
18143.511068052045
 11
26465.58098921796
 21
18144.082778258969
  0
LINE
  8
_0-0_
  6
CONTINUOUS
 62
    3
 10
26465.58098921796
 20
18144.082778258969
 11
26460.144510075286
 21
18143.893279529424
  0
LINE
  8
_0-0_
  6
CONTINUOUS
 62
    3
 10
26460.144510075286
 20
18143.893279529424
 11
26454.787432044173
 21
18142.94832968642
  0
LINE
  8
_0-0_
  6
CONTINUOUS
 62
    3
 10
26454.787432044173
 20
18142.94832968642
 11
26449.672527229784
 21
18141.276640552769
  0
LINE
  8
_0-0_
  6
CONTINUOUS
 62
    3
 10
26449.672527229784
 20
18141.276640552769
 11
26444.95520942664
 21
18138.929005556882
  0
LINE
  8
_0-0_
  6
CONTINUOUS
 62
    3
 10
26444.95520942664
 20
18138.929005556882
 11
26440.778811949105
 21
18135.976756400141
  0
LINE
  8
_0-0_
  6
CONTINUOUS
 62
    3
 10
26440.778811949105
 20
18135.976756400141
 11
26437.270232521183
 21
18132.509595679276
  0
LINE
  8
_0-0_
  6
CONTINUOUS
 62
    3
 10
26437.270232521183
 20
18132.509595679276
 11
26434.536077553355
 21
18128.63287131831
  0
LINE
  8
_0-0_
  6
CONTINUOUS
 62
    3
 10
26434.536077553355
 20
18128.63287131831
 11
26432.65942296078
 21
18124.464375625244
  0
LINE
  8
_0-0_
  6
CONTINUOUS
 62
    3
 10
26432.65942296078
 20
18124.464375625244
 11
26431.697289943611
 21
18120.130766232345
  0
LINE
  8
_0-0_
  6
CONTINUOUS
 62
    3
 10
26431.697289943611
 20
18120.130766232345
 11
26431.67891242672
 21
18115.763717668106
  0
LINE
  8
_0-0_
  6
CONTINUOUS
 62
    3
 10
26431.67891242672
 20
18115.763717668106
 11
26432.604848801649
 21
18111.495920493315
  0
LINE
  8
_0-0_
  6
CONTINUOUS
 62
    3
 10
26432.604848801649
 20
18111.495920493315
 11
26434.4469649602
 21
18107.457049565524
  0
LINE
  8
_0-0_
  6
CONTINUOUS
 62
    3
 10
26434.4469649602
 20
18107.457049565524
 11
26437.14928913505
 21
18103.769823934104
  0
LINE
  8
_0-0_
  6
CONTINUOUS
 62
    3
 10
26437.14928913505
 20
18103.769823934104
 11
26440.629712573584
 21
18100.546278084039
  0
LINE
  8
_0-0_
  6
CONTINUOUS
 62
    3
 10
26440.629712573584
 20
18100.546278084039
 11
26444.782484370804
 21
18097.884357824791
  0
LINE
  8
_0-0_
  6
CONTINUOUS
 62
    3
 10
26444.782484370804
 20
18097.884357824791
 11
26449.481424657057
 21
18095.864944256442
  0
LINE
  8
_0-0_
  6
CONTINUOUS
 62
    3
 10
26449.481424657057
 20
18095.864944256442
 11
26454.583758509521
 21
18094.549396238392
  0
LINE
  8
_0-0_
  6
CONTINUOUS
 62
    3
 10
26454.583758509521
 20
18094.549396238392
 11
26459.934454095994
 21
18093.977686031467
  0
LINE
  8
_0-0_
  6
CONTINUOUS
 62
    3
 10
26459.934454095994
 20
18093.977686031467
 11
26465.370933238668
 21
18094.167184761012
  0
LINE
  8
_0-0_
  6
CONTINUOUS
 62
    3
 10
26465.370933238668
 20
18094.167184761012
 11
26470.728011269781
 21
18095.112134604016
  0
LINE
  8
_0-0_
  6
CONTINUOUS
 62
    3
 10
26470.728011269781
 20
18095.112134604016
 11
26475.84291608417
 21
18096.783823737667
  0
LINE
  8
_0-0_
  6
CONTINUOUS
 62
    3
 10
26475.84291608417
 20
18096.783823737667
 11
26480.560233887314
 21
18099.131458733555
  0
LINE
  8
_0-0_
  6
CONTINUOUS
 62
    3
 10
26480.560233887314
 20
18099.131458733555
 11
26484.736631364849
 21
18102.083707890295
  0
LINE
  8
_0-0_
  6
CONTINUOUS
 62
    3
 10
26484.736631364849
 20
18102.083707890295
 11
26488.245210792771
 21
18105.550868611161
  0
LINE
  8
_0-0_
  6
CONTINUOUS
 62
    3
 10
26488.245210792771
 20
18105.550868611161
 11
26490.979365760595
 21
18109.427592972126
  0
LINE
  8
_0-0_
  6
CONTINUOUS
 62
    3
 10
26490.979365760595
 20
18109.427592972126
 11
26492.856020353174
 21
18113.596088665192
  0
LINE
  8
_0-0_
  6
CONTINUOUS
 62
    3
 10
26492.856020353174
 20
18113.596088665192
 11
26493.818153370343
 21
18117.929698058091
  0
LINE
  8
_0-0_
  6
CONTINUOUS
 62
    3
 10
26493.818153370343
 20
18117.929698058091
 11
26493.836530887234
 21
18122.296746622331
  0
LINE
  8
_0-0_
  6
CONTINUOUS
 62
    3
 10
26493.836530887234
 20
18122.296746622331
 11
26493.836530887234
 21
18122.296746622331
  0
LINE
  8
_0-0_
  6
CONTINUOUS
 62
    3
 10
26211.775984012234
 20
18880.667840372327
 11
26211.775984012234
 21
18880.667840372327
  0
LINE
  8
_0-0_
  6
CONTINUOUS
 62
    3
 10
26211.775984012234
 20
18880.667840372327
 11
26210.850047637305
 21
18884.935637547118
  0
LINE
  8
_0-0_
  6
CONTINUOUS
 62
    3
 10
26210.850047637305
 20
18884.935637547118
 11
26209.007931478754
 21
18888.974508474908
  0
LINE
  8
_0-0_
  6
CONTINUOUS
 62
    3
 10
26209.007931478754
 20
18888.974508474908
 11
26206.305607303904
 21
18892.661734106328
  0
LINE
  8
_0-0_
  6
CONTINUOUS
 62
    3
 10
26206.305607303904
 20
18892.661734106328
 11
26202.82518386537
 21
18895.885279956394
  0
LINE
  8
_0-0_
  6
CONTINUOUS
 62
    3
 10
26202.82518386537
 20
18895.885279956394
 11
26198.67241206815
 21
18898.547200215642
  0
LINE
  8
_0-0_
  6
CONTINUOUS
 62
    3
 10
26198.67241206815
 20
18898.547200215642
 11
26193.973471781897
 21
18900.566613783991
  0
LINE
  8
_0-0_
  6
CONTINUOUS
 62
    3
 10
26193.973471781897
 20
18900.566613783991
 11
26188.871137929433
 21
18901.882161802041
  0
LINE
  8
_0-0_
  6
CONTINUOUS
 62
    3
 10
26188.871137929433
 20
18901.882161802041
 11
26183.52044234296
 21
18902.453872008966
  0
LINE
  8
_0-0_
  6
CONTINUOUS
 62
    3
 10
26183.52044234296
 20
18902.453872008966
 11
26178.083963200286
 21
18902.26437327942
  0
LINE
  8
_0-0_
  6
CONTINUOUS
 62
    3
 10
26178.083963200286
 20
18902.26437327942
 11
26172.726885169173
 21
18901.319423436416
  0
LINE
  8
_0-0_
  6
CONTINUOUS
 62
    3
 10
26172.726885169173
 20
18901.319423436416
 11
26167.611980354784
 21
18899.647734302765
  0
LINE
  8
_0-0_
  6
CONTINUOUS
 62
    3
 10
26167.611980354784
 20
18899.647734302765
 11
26162.89466255164
 21
18897.300099306878
  0
LINE
  8
_0-0_
  6
CONTINUOUS
 62
    3
 10
26162.89466255164
 20
18897.300099306878
 11
26158.718265074105
 21
18894.347850150138
  0
LINE
  8
_0-0_
  6
CONTINUOUS
 62
    3
 10
26158.718265074105
 20
18894.347850150138
 11
26155.209685646183
 21
18890.880689429272
  0
LINE
  8
_0-0_
  6
CONTINUOUS
 62
    3
 10
26155.209685646183
 20
18890.880689429272
 11
26152.475530678355
 21
18887.003965068307
  0
LINE
  8
_0-0_
  6
CONTINUOUS
 62
    3
 10
26152.475530678355
 20
18887.003965068307
 11
26150.59887608578
 21
18882.835469375241
  0
LINE
  8
_0-0_
  6
CONTINUOUS
 62
    3
 10
26150.59887608578
 20
18882.835469375241
 11
26149.636743068611
 21
18878.501859982342
  0
LINE
  8
_0-0_
  6
CONTINUOUS
 62
    3
 10
26149.636743068611
 20
18878.501859982342
 11
26149.61836555172
 21
18874.134811418102
  0
LINE
  8
_0-0_
  6
CONTINUOUS
 62
    3
 10
26149.61836555172
 20
18874.134811418102
 11
26150.544301926649
 21
18869.867014243311
  0
LINE
  8
_0-0_
  6
CONTINUOUS
 62
    3
 10
26150.544301926649
 20
18869.867014243311
 11
26152.3864180852
 21
18865.828143315521
  0
LINE
  8
_0-0_
  6
CONTINUOUS
 62
    3
 10
26152.3864180852
 20
18865.828143315521
 11
26155.08874226005
 21
18862.140917684101
  0
LINE
  8
_0-0_
  6
CONTINUOUS
 62
    3
 10
26155.08874226005
 20
18862.140917684101
 11
26158.569165698584
 21
18858.917371834035
  0
LINE
  8
_0-0_
  6
CONTINUOUS
 62
    3
 10
26158.569165698584
 20
18858.917371834035
 11
26162.721937495804
 21
18856.255451574787
  0
LINE
  8
_0-0_
  6
CONTINUOUS
 62
    3
 10
26162.721937495804
 20
18856.255451574787
 11
26167.420877782057
 21
18854.236038006438
  0
LINE
  8
_0-0_
  6
CONTINUOUS
 62
    3
 10
26167.420877782057
 20
18854.236038006438
 11
26172.523211634521
 21
18852.920489988388
  0
LINE
  8
_0-0_
  6
CONTINUOUS
 62
    3
 10
26172.523211634521
 20
18852.920489988388
 11
26177.873907220994
 21
18852.348779781463
  0
LINE
  8
_0-0_
  6
CONTINUOUS
 62
    3
 10
26177.873907220994
 20
18852.348779781463
 11
26183.310386363668
 21
18852.538278511009
  0
LINE
  8
_0-0_
  6
CONTINUOUS
 62
    3
 10
26183.310386363668
 20
18852.538278511009
 11
26188.667464394781
 21
18853.483228354013
  0
LINE
  8
_0-0_
  6
CONTINUOUS
 62
    3
 10
26188.667464394781
 20
18853.483228354013
 11
26193.78236920917
 21
18855.154917487664
  0
LINE
  8
_0-0_
  6
CONTINUOUS
 62
    3
 10
26193.78236920917
 20
18855.154917487664
 11
26198.499687012314
 21
18857.502552483551
  0
LINE
  8
_0-0_
  6
CONTINUOUS
 62
    3
 10
26198.499687012314
 20
18857.502552483551
 11
26202.676084489849
 21
18860.454801640291
  0
LINE
  8
_0-0_
  6
CONTINUOUS
 62
    3
 10
26202.676084489849
 20
18860.454801640291
 11
26206.184663917771
 21
18863.921962361157
  0
LINE
  8
_0-0_
  6
CONTINUOUS
 62
    3
 10
26206.184663917771
 20
18863.921962361157
 11
26208.918818885595
 21
18867.798686722123
  0
LINE
  8
_0-0_
  6
CONTINUOUS
 62
    3
 10
26208.918818885595
 20
18867.798686722123
 11
26210.795473478174
 21
18871.967182415188
  0
LINE
  8
_0-0_
  6
CONTINUOUS
 62
    3
 10
26210.795473478174
 20
18871.967182415188
 11
26211.757606495343
 21
18876.300791808088
  0
LINE
  8
_0-0_
  6
CONTINUOUS
 62
    3
 10
26211.757606495343
 20
18876.300791808088
 11
26211.775984012234
 21
18880.667840372327
  0
LINE
  8
_0-0_
  6
CONTINUOUS
 62
    3
 10
26211.775984012234
 20
18880.667840372327
 11
26211.775984012234
 21
18880.667840372327
  0
LINE
  8
_0-0_
  6
CONTINUOUS
 62
    3
 10
33564.063777617492
 20
20473.413847036947
 11
33564.063777617492
 21
20473.413847036947
  0
LINE
  8
_0-0_
  6
CONTINUOUS
 62
    3
 10
33564.063777617492
 20
20473.413847036947
 11
33562.211904867632
 21
20481.949441386525
  0
LINE
  8
_0-0_
  6
CONTINUOUS
 62
    3
 10
33562.211904867632
 20
20481.949441386525
 11
33558.527672550532
 21
20490.027183242106
  0
LINE
  8
_0-0_
  6
CONTINUOUS
 62
    3
 10
33558.527672550532
 20
20490.027183242106
 11
33553.123024200831
 21
20497.401634504946
  0
LINE
  8
_0-0_
  6
CONTINUOUS
 62
    3
 10
33553.123024200831
 20
20497.401634504946
 11
33546.162177323764
 21
20503.848726205077
  0
LINE
  8
_0-0_
  6
CONTINUOUS
 62
    3
 10
33546.162177323764
 20
20503.848726205077
 11
33537.856633729323
 21
20509.17256672357
  0
LINE
  8
_0-0_
  6
CONTINUOUS
 62
    3
 10
33537.856633729323
 20
20509.17256672357
 11
33528.458753156818
 21
20513.211393860271
  0
LINE
  8
_0-0_
  6
CONTINUOUS
 62
    3
 10
33528.458753156818
 20
20513.211393860271
 11
33518.254085451888
 21
20515.842489896375
  0
LINE
  8
_0-0_
  6
CONTINUOUS
 62
    3
 10
33518.254085451888
 20
20515.842489896375
 11
33507.552694278944
 21
20516.985910310217
  0
LINE
  8
_0-0_
  6
CONTINUOUS
 62
    3
 10
33507.552694278944
 20
20516.985910310217
 11
33496.679735993595
 21
20516.606912851134
  0
LINE
  8
_0-0_
  6
CONTINUOUS
 62
    3
 10
33496.679735993595
 20
20516.606912851134
 11
33485.96557993137
 21
20514.717013165126
  0
LINE
  8
_0-0_
  6
CONTINUOUS
 62
    3
 10
33485.96557993137
 20
20514.717013165126
 11
33475.735770302592
 21
20511.37363489782
  0
LINE
  8
_0-0_
  6
CONTINUOUS
 62
    3
 10
33475.735770302592
 20
20511.37363489782
 11
33466.301134696303
 21
20506.678364906042
  0
LINE
  8
_0-0_
  6
CONTINUOUS
 62
    3
 10
33466.301134696303
 20
20506.678364906042
 11
33457.948339741233
 21
20500.773866592568
  0
LINE
  8
_0-0_
  6
CONTINUOUS
 62
    3
 10
33457.948339741233
 20
20500.773866592568
 11
33450.931180885389
 21
20493.83954515083
  0
LINE
  8
_0-0_
  6
CONTINUOUS
 62
    3
 10
33450.931180885389
 20
20493.83954515083
 11
33445.462870949734
 21
20486.086096428902
  0
LINE
  8
_0-0_
  6
CONTINUOUS
 62
    3
 10
33445.462870949734
 20
20486.086096428902
 11
33441.709561764583
 21
20477.749105042767
  0
LINE
  8
_0-0_
  6
CONTINUOUS
 62
    3
 10
33441.709561764583
 20
20477.749105042767
 11
33439.785295730246
 21
20469.081886256969
  0
LINE
  8
_0-0_
  6
CONTINUOUS
 62
    3
 10
33439.785295730246
 20
20469.081886256969
 11
33439.748540696462
 21
20460.347789128489
  0
LINE
  8
_0-0_
  6
CONTINUOUS
 62
    3
 10
33439.748540696462
 20
20460.347789128489
 11
33441.600413446322
 21
20451.812194778911
  0
LINE
  8
_0-0_
  6
CONTINUOUS
 62
    3
 10
33441.600413446322
 20
20451.812194778911
 11
33445.284645763422
 21
20443.734452923331
  0
LINE
  8
_0-0_
  6
CONTINUOUS
 62
    3
 10
33445.284645763422
 20
20443.734452923331
 11
33450.689294113123
 21
20436.360001660491
  0
LINE
  8
_0-0_
  6
CONTINUOUS
 62
    3
 10
33450.689294113123
 20
20436.360001660491
 11
33457.65014099019
 21
20429.91290996036
  0
LINE
  8
_0-0_
  6
CONTINUOUS
 62
    3
 10
33457.65014099019
 20
20429.91290996036
 11
33465.955684584631
 21
20424.589069441867
  0
LINE
  8
_0-0_
  6
CONTINUOUS
 62
    3
 10
33465.955684584631
 20
20424.589069441867
 11
33475.353565157136
 21
20420.550242305166
  0
LINE
  8
_0-0_
  6
CONTINUOUS
 62
    3
 10
33475.353565157136
 20
20420.550242305166
 11
33485.558232862066
 21
20417.919146269061
  0
LINE
  8
_0-0_
  6
CONTINUOUS
 62
    3
 10
33485.558232862066
 20
20417.919146269061
 11
33496.25962403501
 21
20416.775725855219
  0
LINE
  8
_0-0_
  6
CONTINUOUS
 62
    3
 10
33496.25962403501
 20
20416.775725855219
 11
33507.132582320359
 21
20417.154723314303
  0
LINE
  8
_0-0_
  6
CONTINUOUS
 62
    3
 10
33507.132582320359
 20
20417.154723314303
 11
33517.846738382585
 21
20419.044623000311
  0
LINE
  8
_0-0_
  6
CONTINUOUS
 62
    3
 10
33517.846738382585
 20
20419.044623000311
 11
33528.076548011362
 21
20422.388001267616
  0
LINE
  8
_0-0_
  6
CONTINUOUS
 62
    3
 10
33528.076548011362
 20
20422.388001267616
 11
33537.511183617651
 21
20427.083271259395
  0
LINE
  8
_0-0_
  6
CONTINUOUS
 62
    3
 10
33537.511183617651
 20
20427.083271259395
 11
33545.863978572721
 21
20432.987769572868
  0
LINE
  8
_0-0_
  6
CONTINUOUS
 62
    3
 10
33545.863978572721
 20
20432.987769572868
 11
33552.881137428565
 21
20439.922091014607
  0
LINE
  8
_0-0_
  6
CONTINUOUS
 62
    3
 10
33552.881137428565
 20
20439.922091014607
 11
33558.349447364213
 21
20447.67553973653
  0
LINE
  8
_0-0_
  6
CONTINUOUS
 62
    3
 10
33558.349447364213
 20
20447.67553973653
 11
33562.102756549371
 21
20456.012531122669
  0
LINE
  8
_0-0_
  6
CONTINUOUS
 62
    3
 10
33562.102756549371
 20
20456.012531122669
 11
33564.027022583708
 21
20464.679749908468
  0
LINE
  8
_0-0_
  6
CONTINUOUS
 62
    3
 10
33564.027022583708
 20
20464.679749908468
 11
33564.063777617492
 21
20473.413847036947
  0
LINE
  8
_0-0_
  6
CONTINUOUS
 62
    3
 10
33564.063777617492
 20
20473.413847036947
 11
33564.063777617492
 21
20473.413847036947
  0
LINE
  8
_0-0_
  6
CONTINUOUS
 62
    7
 10
33594.318268531984
 20
17800.060505391983
 11
33594.318268531984
 21
17800.060505391983
  0
LINE
  8
_0-0_
  6
CONTINUOUS
 62
    7
 10
33594.318268531984
 20
17800.060505391983
 11
33593.884148129218
 21
17800.030120900905
  0
LINE
  8
_0-0_
  6
CONTINUOUS
 62
    7
 10
33593.884148129218
 20
17800.030120900905
 11
33593.463218255216
 21
17799.939890645059
  0
LINE
  8
_0-0_
  6
CONTINUOUS
 62
    7
 10
33593.463218255216
 20
17799.939890645059
 11
33593.068268651194
 21
17799.792556225108
  0
LINE
  8
_0-0_
  6
CONTINUOUS
 62
    7
 10
33593.068268651194
 20
17799.792556225108
 11
33592.711299661023
 21
17799.592594322843
  0
LINE
  8
_0-0_
  6
CONTINUOUS
 62
    7
 10
33592.711299661023
 20
17799.592594322843
 11
33592.403157606823
 21
17799.34608067949
  0
LINE
  8
_0-0_
  6
CONTINUOUS
 62
    7
 10
33592.403157606823
 20
17799.34608067949
 11
33592.153205228999
 21
17799.060505487352
  0
LINE
  8
_0-0_
  6
CONTINUOUS
 62
    7
 10
33592.153205228999
 20
17799.060505487352
 11
33591.969037204057
 21
17798.744545804133
  0
LINE
  8
_0-0_
  6
CONTINUOUS
 62
    7
 10
33591.969037204057
 20
17798.744545804133
 11
33591.856249384247
 21
17798.40780190493
  0
LINE
  8
_0-0_
  6
CONTINUOUS
 62
    7
 10
33591.856249384247
 20
17798.40780190493
 11
33591.818268770403
 21
17798.060505582718
  0
LINE
  8
_0-0_
  6
CONTINUOUS
 62
    7
 10
33628.695205403463
 20
17798.691542614135
 11
33628.695205403463
 21
17798.691542614135
  0
LINE
  8
_0-0_
  6
CONTINUOUS
 62
    7
 10
33628.695205403463
 20
17798.691542614135
 11
33628.521574451705
 21
17799.011297864254
  0
LINE
  8
_0-0_
  6
CONTINUOUS
 62
    7
 10
33628.521574451705
 20
17799.011297864254
 11
33628.281175198652
 21
17799.302074754953
  0
LINE
  8
_0-0_
  6
CONTINUOUS
 62
    7
 10
33628.281175198652
 20
17799.302074754953
 11
33627.981312053947
 21
17799.555038177547
  0
LINE
  8
_0-0_
  6
CONTINUOUS
 62
    7
 10
33627.981312053947
 20
17799.555038177547
 11
33627.631096207522
 21
17799.762501966441
  0
LINE
  8
_0-0_
  6
CONTINUOUS
 62
    7
 10
33627.631096207522
 20
17799.762501966441
 11
33627.241168790635
 21
17799.918162439397
  0
LINE
  8
_0-0_
  6
CONTINUOUS
 62
    7
 10
33627.241168790635
 20
17799.918162439397
 11
33626.823377550551
 21
17800.017289931711
  0
LINE
  8
_0-0_
  6
CONTINUOUS
 62
    7
 10
33626.823377550551
 20
17800.017289931711
 11
33626.390416862676
 21
17800.056872504691
  0
LINE
  8
_0-0_
  6
CONTINUOUS
 62
    7
 10
33626.390416862676
 20
17800.056872504691
 11
33626.324127906977
 21
17800.057575704483
  0
LINE
  8
_0-0_
  6
CONTINUOUS
 62
    7
 10
33716.818268293559
 20
17798.057575895218
 11
33716.818268293559
 21
17798.057575895218
  0
LINE
  8
_0-0_
  6
CONTINUOUS
 62
    7
 10
33716.818268293559
 20
17798.057575895218
 11
33716.780287679714
 21
17798.40487221743
  0
LINE
  8
_0-0_
  6
CONTINUOUS
 62
    7
 10
33716.780287679714
 20
17798.40487221743
 11
33716.667499859905
 21
17798.741616116633
  0
LINE
  8
_0-0_
  6
CONTINUOUS
 62
    7
 10
33716.667499859905
 20
17798.741616116633
 11
33716.483331834963
 21
17799.057575799852
  0
LINE
  8
_0-0_
  6
CONTINUOUS
 62
    7
 10
33716.483331834963
 20
17799.057575799852
 11
33716.233379457139
 21
17799.34315099199
  0
LINE
  8
_0-0_
  6
CONTINUOUS
 62
    7
 10
33716.233379457139
 20
17799.34315099199
 11
33715.925237402938
 21
17799.589664635343
  0
LINE
  8
_0-0_
  6
CONTINUOUS
 62
    7
 10
33715.925237402938
 20
17799.589664635343
 11
33715.568268412768
 21
17799.789626537608
  0
LINE
  8
_0-0_
  6
CONTINUOUS
 62
    7
 10
33715.568268412768
 20
17799.789626537608
 11
33715.173318808746
 21
17799.936960957559
  0
LINE
  8
_0-0_
  6
CONTINUOUS
 62
    7
 10
33715.173318808746
 20
17799.936960957559
 11
33714.752388934743
 21
17800.027191213405
  0
LINE
  8
_0-0_
  6
CONTINUOUS
 62
    7
 10
33714.752388934743
 20
17800.027191213405
 11
33714.318268531977
 21
17800.057575704483
  0
LINE
  8
_0-0_
  6
CONTINUOUS
 62
    7
 10
33682.316315406977
 20
17800.060505391983
 11
33682.316315406977
 21
17800.060505391983
  0
LINE
  8
_0-0_
  6
CONTINUOUS
 62
    7
 10
33682.316315406977
 20
17800.060505391983
 11
33681.882195004211
 21
17800.030120900905
  0
LINE
  8
_0-0_
  6
CONTINUOUS
 62
    7
 10
33681.882195004211
 20
17800.030120900905
 11
33681.461265130209
 21
17799.939890645059
  0
LINE
  8
_0-0_
  6
CONTINUOUS
 62
    7
 10
33681.461265130209
 20
17799.939890645059
 11
33681.066315526186
 21
17799.792556225108
  0
LINE
  8
_0-0_
  6
CONTINUOUS
 62
    7
 10
33681.066315526186
 20
17799.792556225108
 11
33680.709346536016
 21
17799.592594322843
  0
LINE
  8
_0-0_
  6
CONTINUOUS
 62
    7
 10
33680.709346536016
 20
17799.592594322843
 11
33680.401204481816
 21
17799.34608067949
  0
LINE
  8
_0-0_
  6
CONTINUOUS
 62
    7
 10
33680.401204481816
 20
17799.34608067949
 11
33680.151252103991
 21
17799.060505487352
  0
LINE
  8
_0-0_
  6
CONTINUOUS
 62
    7
 10
33680.151252103991
 20
17799.060505487352
 11
33679.96708407905
 21
17798.744545804133
  0
LINE
  8
_0-0_
  6
CONTINUOUS
 62
    7
 10
33679.96708407905
 20
17798.744545804133
 11
33679.945243608759
 21
17798.694485941069
  0
LINE
  8
_0-0_
  6
CONTINUOUS
 62
    7
 10
33609.878024340374
 20
17161.906415644746
 11
33609.878024340374
 21
17161.906415644746
  0
LINE
  8
_0-0_
  6
CONTINUOUS
 62
    7
 10
33609.878024340374
 20
17161.906415644746
 11
33609.248549351199
 21
17161.765463035325
  0
LINE
  8
_0-0_
  6
CONTINUOUS
 62
    7
 10
33609.248549351199
 20
17161.765463035325
 11
33608.659232706239
 21
17161.539206064954
  0
LINE
  8
_0-0_
  6
CONTINUOUS
 62
    7
 10
33608.659232706239
 20
17161.539206064954
 11
33608.12798049354
 21
17161.234519437185
  0
LINE
  8
_0-0_
  6
CONTINUOUS
 62
    7
 10
33608.12798049354
 20
17161.234519437185
 11
33607.670934542759
 21
17160.860660901028
  0
LINE
  8
_0-0_
  6
CONTINUOUS
 62
    7
 10
33607.670934542759
 20
17160.860660901028
 11
33607.301981963828
 21
17160.428989958917
  0
LINE
  8
_0-0_
  6
CONTINUOUS
 62
    7
 10
33607.301981963828
 20
17160.428989958917
 11
33607.032333194169
 21
17159.952622713994
  0
LINE
  8
_0-0_
  6
CONTINUOUS
 62
    7
 10
33607.032333194169
 20
17159.952622713994
 11
33606.87018137519
 21
17159.446033343946
  0
LINE
  8
_0-0_
  6
CONTINUOUS
 62
    7
 10
33606.87018137519
 20
17159.446033343946
 11
33606.820221656977
 21
17158.957966520218
  0
LINE
  8
_0-0_
  6
CONTINUOUS
 62
    7
 10
33701.812409156977
 20
17158.957966520218
 11
33701.812409156977
 21
17158.957966520218
  0
LINE
  8
_0-0_
  6
CONTINUOUS
 62
    7
 10
33701.812409156977
 20
17158.957966520218
 11
33701.755438230772
 21
17159.478911053218
  0
LINE
  8
_0-0_
  6
CONTINUOUS
 62
    7
 10
33701.755438230772
 20
17159.478911053218
 11
33701.586256484923
 21
17159.984026950195
  0
LINE
  8
_0-0_
  6
CONTINUOUS
 62
    7
 10
33701.586256484923
 20
17159.984026950195
 11
33701.310004421168
 21
17160.457966520218
  0
LINE
  8
_0-0_
  6
CONTINUOUS
 62
    7
 10
33701.310004421168
 20
17160.457966520218
 11
33700.93507581867
 21
17160.88632934928
  0
LINE
  8
_0-0_
  6
CONTINUOUS
 62
    7
 10
33700.93507581867
 20
17160.88632934928
 11
33700.472862693299
 21
17161.256099849576
  0
LINE
  8
_0-0_
  6
CONTINUOUS
 62
    7
 10
33700.472862693299
 20
17161.256099849576
 11
33699.937409156977
 21
17161.556042731572
  0
LINE
  8
_0-0_
  6
CONTINUOUS
 62
    7
 10
33699.937409156977
 20
17161.556042731572
 11
33699.34498469445
 21
17161.777044382576
  0
LINE
  8
_0-0_
  6
CONTINUOUS
 62
    7
 10
33699.34498469445
 20
17161.777044382576
 11
33698.754658494305
 21
17161.906407828297
  0
LINE
  8
_0-0_
  6
CONTINUOUS
 62
    7
 10
33698.766532546426
 20
17161.847495876616
 11
33698.766532546426
 21
17161.847495876616
  0
LINE
  8
_0-0_
  6
CONTINUOUS
 62
    7
 10
33698.766532546426
 20
17161.847495876616
 11
33657.004040489053
 21
17165.145630721381
  0
LINE
  8
_0-0_
  6
CONTINUOUS
 62
    7
 10
33657.004040489053
 20
17165.145630721381
 11
33615.160120643974
 21
17162.592074974513
  0
LINE
  8
_0-0_
  6
CONTINUOUS
 62
    7
 10
33615.160120643974
 20
17162.592074974513
 11
33609.885062997717
 21
17161.847997692639
  0
LINE
  8
_0-0_
  6
CONTINUOUS
 62
    7
 10
33584.921650238168
 20
16627.59407020911
 11
33584.921650238168
 21
16627.59407020911
  0
LINE
  8
_0-0_
  6
CONTINUOUS
 62
    7
 10
33584.921650238168
 20
16627.59407020911
 11
33589.223952343134
 21
16618.180651115646
  0
LINE
  8
_0-0_
  6
CONTINUOUS
 62
    7
 10
33589.223952343134
 20
16618.180651115646
 11
33595.504171650908
 21
16609.507912546291
  0
LINE
  8
_0-0_
  6
CONTINUOUS
 62
    7
 10
33595.504171650908
 20
16609.507912546291
 11
33603.571486875757
 21
16601.839371273854
  0
LINE
  8
_0-0_
  6
CONTINUOUS
 62
    7
 10
33603.571486875757
 20
16601.839371273854
 11
33613.180776726833
 21
16595.40803204443
  0
LINE
  8
_0-0_
  6
CONTINUOUS
 62
    7
 10
33613.180776726833
 20
16595.40803204443
 11
33624.040067794544
 21
16590.409307846094
  0
LINE
  8
_0-0_
  6
CONTINUOUS
 62
    7
 10
33624.040067794544
 20
16590.409307846094
 11
33635.819406014874
 21
16586.995082384135
  0
LINE
  8
_0-0_
  6
CONTINUOUS
 62
    7
 10
33635.819406014874
 20
16586.995082384135
 11
33648.160882156619
 21
16585.26909517153
  0
LINE
  8
_0-0_
  6
CONTINUOUS
 62
    7
 10
33648.160882156619
 20
16585.26909517153
 11
33660.689506712311
 21
16585.283789456345
  0
LINE
  8
_0-0_
  6
CONTINUOUS
 62
    7
 10
33660.689506712311
 20
16585.283789456345
 11
33673.024603764607
 21
16587.03871876017
  0
LINE
  8
_0-0_
  6
CONTINUOUS
 62
    7
 10
33673.024603764607
 20
16587.03871876017
 11
33684.791377631438
 21
16590.480560444146
  0
LINE
  8
_0-0_
  6
CONTINUOUS
 62
    7
 10
33684.791377631438
 20
16590.480560444146
 11
33695.632300843135
 21
16595.504735890365
  0
LINE
  8
_0-0_
  6
CONTINUOUS
 62
    7
 10
33695.632300843135
 20
16595.504735890365
 11
33705.217977433684
 21
16601.95858807024
  0
LINE
  8
_0-0_
  6
CONTINUOUS
 62
    7
 10
33705.217977433684
 20
16601.95858807024
 11
33713.257151470461
 21
16609.646019951102
  0
LINE
  8
_0-0_
  6
CONTINUOUS
 62
    7
 10
33713.257151470461
 20
16609.646019951102
 11
33719.505556718381
 21
16618.333452805273
  0
LINE
  8
_0-0_
  6
CONTINUOUS
 62
    7
 10
33719.505556718381
 20
16618.333452805273
 11
33723.773338545834
 21
16627.756923381534
  0
LINE
  8
_0-0_
  6
CONTINUOUS
 62
    7
 10
33723.773338545834
 20
16627.756923381534
 11
33725.93082256159
 21
16637.630104294934
  0
LINE
  8
_0-0_
  6
CONTINUOUS
 62
    7
 10
33725.93082256159
 20
16637.630104294934
 11
33725.912454705569
 21
16647.653003939486
  0
LINE
  8
_0-0_
  6
CONTINUOUS
 62
    7
 10
33725.912454705569
 20
16647.653003939486
 11
33723.718793075786
 21
16657.521081581323
  0
LINE
  8
_0-0_
  6
CONTINUOUS
 62
    7
 10
33723.718793075786
 20
16657.521081581323
 11
33719.41649097082
 21
16666.93450067479
  0
LINE
  8
_0-0_
  6
CONTINUOUS
 62
    7
 10
33719.41649097082
 20
16666.93450067479
 11
33713.136271663047
 21
16675.607239244146
  0
LINE
  8
_0-0_
  6
CONTINUOUS
 62
    7
 10
33713.136271663047
 20
16675.607239244146
 11
33705.068956438197
 21
16683.275780516582
  0
LINE
  8
_0-0_
  6
CONTINUOUS
 62
    7
 10
33705.068956438197
 20
16683.275780516582
 11
33698.980466790505
 21
16687.610278399647
  0
LINE
  8
_0-0_
  6
CONTINUOUS
 62
    7
 10
33683.064362281984
 20
16483.057563688188
 11
33683.064362281984
 21
16483.057563688188
  0
LINE
  8
_0-0_
  6
CONTINUOUS
 62
    7
 10
33683.064362281984
 20
16483.057563688188
 11
33717.685470353987
 21
16485.480727268194
  0
LINE
  8
_0-0_
  6
CONTINUOUS
 62
    7
 10
33717.685470353987
 20
16485.480727268194
 11
33751.254633576355
 21
16492.67659140901
  0
LINE
  8
_0-0_
  6
CONTINUOUS
 62
    7
 10
33751.254633576355
 20
16492.67659140901
 11
33782.751869911379
 21
16504.42651342
  0
LINE
  8
_0-0_
  6
CONTINUOUS
 62
    7
 10
33782.751869911379
 20
16504.42651342
 11
33811.220151771398
 21
16520.373477866611
  0
LINE
  8
_0-0_
  6
CONTINUOUS
 62
    7
 10
33811.220151771398
 20
16520.373477866611
 11
33835.794484817743
 21
16540.032944303686
  0
LINE
  8
_0-0_
  6
CONTINUOUS
 62
    7
 10
33835.794484817743
 20
16540.032944303686
 11
33855.728190376009
 21
16562.807569791701
  0
LINE
  8
_0-0_
  6
CONTINUOUS
 62
    7
 10
33855.728190376009
 20
16562.807569791701
 11
33870.415592889745
 21
16588.005358859722
  0
LINE
  8
_0-0_
  6
CONTINUOUS
 62
    7
 10
33870.415592889745
 20
16588.005358859722
 11
33879.410423065769
 21
16614.860689437613
  0
LINE
  8
_0-0_
  6
CONTINUOUS
 62
    7
 10
33879.410423065769
 20
16614.860689437613
 11
33882.439377540773
 21
16642.557575895218
  0
LINE
  8
_0-0_
  6
CONTINUOUS
 62
    7
 10
33882.439377540773
 20
16642.557575895218
 11
33879.410423065769
 21
16670.254462352823
  0
LINE
  8
_0-0_
  6
CONTINUOUS
 62
    7
 10
33879.410423065769
 20
16670.254462352823
 11
33870.415592889745
 21
16697.109792930714
  0
LINE
  8
_0-0_
  6
CONTINUOUS
 62
    7
 10
33870.415592889745
 20
16697.109792930714
 11
33855.728190376009
 21
16722.307581998735
  0
LINE
  8
_0-0_
  6
CONTINUOUS
 62
    7
 10
33855.728190376009
 20
16722.307581998735
 11
33835.794484817743
 21
16745.08220748675
  0
LINE
  8
_0-0_
  6
CONTINUOUS
 62
    7
 10
33835.794484817743
 20
16745.08220748675
 11
33811.220151771398
 21
16764.741673923825
  0
LINE
  8
_0-0_
  6
CONTINUOUS
 62
    7
 10
33811.220151771398
 20
16764.741673923825
 11
33790.643289426291
 21
16776.846032331767
  0
LINE
  8
_0-0_
  6
CONTINUOUS
 62
    7
 10
33508.090970698868
 20
16720.882970367817
 11
33508.090970698868
 21
16720.882970367817
  0
LINE
  8
_0-0_
  6
CONTINUOUS
 62
    7
 10
33508.090970698868
 20
16720.882970367817
 11
33503.961290128012
 21
16721.996106482449
  0
LINE
  8
_0-0_
  6
CONTINUOUS
 62
    7
 10
33503.961290128012
 20
16721.996106482449
 11
33499.652731112124
 21
16722.51864235392
  0
LINE
  8
_0-0_
  6
CONTINUOUS
 62
    7
 10
33499.652731112124
 20
16722.51864235392
 11
33495.296207036656
 21
16722.434700994185
  0
LINE
  8
_0-0_
  6
CONTINUOUS
 62
    7
 10
33495.296207036656
 20
16722.434700994185
 11
33491.024088681137
 21
16721.746832918983
  0
LINE
  8
_0-0_
  6
CONTINUOUS
 62
    7
 10
33491.024088681137
 20
16721.746832918983
 11
33486.966182200005
 21
16720.475938651707
  0
LINE
  8
_0-0_
  6
CONTINUOUS
 62
    7
 10
33486.966182200005
 20
16720.475938651707
 11
33483.245785028288
 21
16718.660633671563
  0
LINE
  8
_0-0_
  6
CONTINUOUS
 62
    7
 10
33483.245785028288
 20
16718.660633671563
 11
33479.975939551434
 21
16716.356075101779
  0
LINE
  8
_0-0_
  6
CONTINUOUS
 62
    7
 10
33479.975939551434
 20
16716.356075101779
 11
33477.255998369634
 21
16713.632285788339
  0
LINE
  8
_0-0_
  6
CONTINUOUS
 62
    7
 10
33477.255998369634
 20
16713.632285788339
 11
33475.16860551935
 21
16710.572026691229
  0
LINE
  8
_0-0_
  6
CONTINUOUS
 62
    7
 10
33475.16860551935
 20
16710.572026691229
 11
33473.777185376064
 21
16707.268282234549
  0
LINE
  8
_0-0_
  6
CONTINUOUS
 62
    7
 10
33473.777185376064
 20
16707.268282234549
 11
33473.124015536727
 21
16703.821435021837
  0
LINE
  8
_0-0_
  6
CONTINUOUS
 62
    7
 10
33473.124015536727
 20
16703.821435021837
 11
33473.228942236397
 21
16700.336215761461
  0
LINE
  8
_0-0_
  6
CONTINUOUS
 62
    7
 10
33473.228942236397
 20
16700.336215761461
 11
33474.088777330391
 21
16696.918521077048
  0
LINE
  8
_0-0_
  6
CONTINUOUS
 62
    7
 10
33474.088777330391
 20
16696.918521077048
 11
33475.677395164494
 21
16693.672195892141
  0
LINE
  8
_0-0_
  6
CONTINUOUS
 62
    7
 10
33475.677395164494
 20
16693.672195892141
 11
33476.268336491266
 21
16692.776689858743
  0
LINE
  8
_0-0_
  6
CONTINUOUS
 62
    7
 10
33502.31063710717
 20
16622.860906247373
 11
33502.31063710717
 21
16622.860906247373
  0
LINE
  8
_0-0_
  6
CONTINUOUS
 62
    7
 10
33502.31063710717
 20
16622.860906247373
 11
33497.270100990681
 21
16650.345118699421
  0
LINE
  8
_0-0_
  6
CONTINUOUS
 62
    7
 10
33497.270100990681
 20
16650.345118699421
 11
33486.340412685189
 21
16676.711560278756
  0
LINE
  8
_0-0_
  6
CONTINUOUS
 62
    7
 10
33486.340412685189
 20
16676.711560278756
 11
33476.276435144886
 21
16692.801439082061
  0
LINE
  8
_0-0_
  6
CONTINUOUS
 62
    7
 10
33501.935032379821
 20
16622.810674526427
 11
33501.935032379821
 21
16622.810674526427
  0
LINE
  8
_0-0_
  6
CONTINUOUS
 62
    7
 10
33501.935032379821
 20
16622.810674526427
 11
33505.825859524637
 21
16597.731038286751
  0
LINE
  8
_0-0_
  6
CONTINUOUS
 62
    7
 10
33505.825859524637
 20
16597.731038286751
 11
33515.102048233442
 21
16573.572858546344
  0
LINE
  8
_0-0_
  6
CONTINUOUS
 62
    7
 10
33515.102048233442
 20
16573.572858546344
 11
33529.4817462063
 21
16551.070169371982
  0
LINE
  8
_0-0_
  6
CONTINUOUS
 62
    7
 10
33529.4817462063
 20
16551.070169371982
 11
33548.528033596776
 21
16530.906703587319
  0
LINE
  8
_0-0_
  6
CONTINUOUS
 62
    7
 10
33548.528033596776
 20
16530.906703587319
 11
33571.662198600396
 21
16513.695117897023
  0
LINE
  8
_0-0_
  6
CONTINUOUS
 62
    7
 10
33571.662198600396
 20
16513.695117897023
 11
33598.181321319986
 21
16499.958377622803
  0
LINE
  8
_0-0_
  6
CONTINUOUS
 62
    7
 10
33598.181321319986
 20
16499.958377622803
 11
33627.279631631027
 21
16490.113866666772
  0
LINE
  8
_0-0_
  6
CONTINUOUS
 62
    7
 10
33627.279631631027
 20
16490.113866666772
 11
33658.072992099173
 21
16484.46070551276
  0
LINE
  8
_0-0_
  6
CONTINUOUS
 62
    7
 10
33658.072992099173
 20
16484.46070551276
 11
33683.066315406977
 21
16483.075688689714
  0
LINE
  8
_0-0_
  6
CONTINUOUS
 62
    7
 10
33704.696259306475
 20
16893.73795229481
 11
33704.696259306475
 21
16893.73795229481
  0
LINE
  8
_0-0_
  6
CONTINUOUS
 62
    7
 10
33704.696259306475
 20
16893.73795229481
 11
33709.584146524161
 21
16867.885279257149
  0
LINE
  8
_0-0_
  6
CONTINUOUS
 62
    7
 10
33709.584146524161
 20
16867.885279257149
 11
33720.009362702993
 21
16843.104384579965
  0
LINE
  8
_0-0_
  6
CONTINUOUS
 62
    7
 10
33720.009362702993
 20
16843.104384579965
 11
33735.655142924792
 21
16820.148223208285
  0
LINE
  8
_0-0_
  6
CONTINUOUS
 62
    7
 10
33735.655142924792
 20
16820.148223208285
 11
33756.046098074679
 21
16799.714306489008
  0
LINE
  8
_0-0_
  6
CONTINUOUS
 62
    7
 10
33756.046098074679
 20
16799.714306489008
 11
33780.562659298732
 21
16782.423508641594
  0
LINE
  8
_0-0_
  6
CONTINUOUS
 62
    7
 10
33780.562659298732
 20
16782.423508641594
 11
33790.652195276227
 21
16776.870325112319
  0
LINE
  8
_0-0_
  6
CONTINUOUS
 62
    7
 10
33591.995997184931
 20
16874.956989957718
 11
33591.995997184931
 21
16874.956989957718
  0
LINE
  8
_0-0_
  6
CONTINUOUS
 62
    7
 10
33591.995997184931
 20
16874.956989957718
 11
33591.841404289815
 21
16876.370593859141
  0
LINE
  8
_0-0_
  6
CONTINUOUS
 62
    7
 10
33591.841404289815
 20
16876.370593859141
 11
33591.38232283137
 21
16877.741246121335
  0
LINE
  8
_0-0_
  6
CONTINUOUS
 62
    7
 10
33591.38232283137
 20
16877.741246121335
 11
33590.63270176739
 21
16879.027300168898
  0
LINE
  8
_0-0_
  6
CONTINUOUS
 62
    7
 10
33590.63270176739
 20
16879.027300168898
 11
33589.615317954595
 21
16880.189679900373
  0
LINE
  8
_0-0_
  6
CONTINUOUS
 62
    7
 10
33589.615317954595
 20
16880.189679900373
 11
33588.3610840853
 21
16881.193066995809
  0
LINE
  8
_0-0_
  6
CONTINUOUS
 62
    7
 10
33588.3610840853
 20
16881.193066995809
 11
33586.908109420954
 21
16882.006974046049
  0
LINE
  8
_0-0_
  6
CONTINUOUS
 62
    7
 10
33586.908109420954
 20
16882.006974046049
 11
33585.300541861499
 21
16882.606670897232
  0
LINE
  8
_0-0_
  6
CONTINUOUS
 62
    7
 10
33585.300541861499
 20
16882.606670897232
 11
33583.587226533753
 21
16882.973936063991
  0
LINE
  8
_0-0_
  6
CONTINUOUS
 62
    7
 10
33583.587226533753
 20
16882.973936063991
 11
33581.820221656977
 21
16883.097610380082
  0
LINE
  8
_0-0_
  6
CONTINUOUS
 62
    7
 10
33581.820221656977
 20
16883.097610380082
 11
33580.053216780201
 21
16882.973936063991
  0
LINE
  8
_0-0_
  6
CONTINUOUS
 62
    7
 10
33580.053216780201
 20
16882.973936063991
 11
33578.339901452455
 21
16882.606670897232
  0
LINE
  8
_0-0_
  6
CONTINUOUS
 62
    7
 10
33578.339901452455
 20
16882.606670897232
 11
33576.732333893
 21
16882.006974046049
  0
LINE
  8
_0-0_
  6
CONTINUOUS
 62
    7
 10
33576.732333893
 20
16882.006974046049
 11
33575.279359228654
 21
16881.193066995809
  0
LINE
  8
_0-0_
  6
CONTINUOUS
 62
    7
 10
33575.279359228654
 20
16881.193066995809
 11
33574.02512535936
 21
16880.189679900373
  0
LINE
  8
_0-0_
  6
CONTINUOUS
 62
    7
 10
33574.02512535936
 20
16880.189679900373
 11
33573.007741546564
 21
16879.027300168898
  0
LINE
  8
_0-0_
  6
CONTINUOUS
 62
    7
 10
33573.007741546564
 20
16879.027300168898
 11
33572.258120482584
 21
16877.741246121335
  0
LINE
  8
_0-0_
  6
CONTINUOUS
 62
    7
 10
33572.258120482584
 20
16877.741246121335
 11
33571.799039024139
 21
16876.370593859141
  0
LINE
  8
_0-0_
  6
CONTINUOUS
 62
    7
 10
33571.799039024139
 20
16876.370593859141
 11
33571.644446129023
 21
16874.956989957718
  0
LINE
  8
_0-0_
  6
CONTINUOUS
 62
    7
 10
33571.644446129023
 20
16874.956989957718
 11
33571.799039024139
 21
16873.543386056295
  0
LINE
  8
_0-0_
  6
CONTINUOUS
 62
    7
 10
33571.799039024139
 20
16873.543386056295
 11
33572.258120482584
 21
16872.172733794101
  0
LINE
  8
_0-0_
  6
CONTINUOUS
 62
    7
 10
33572.258120482584
 20
16872.172733794101
 11
33573.007741546564
 21
16870.886679746538
  0
LINE
  8
_0-0_
  6
CONTINUOUS
 62
    7
 10
33573.007741546564
 20
16870.886679746538
 11
33574.02512535936
 21
16869.724300015063
  0
LINE
  8
_0-0_
  6
CONTINUOUS
 62
    7
 10
33574.02512535936
 20
16869.724300015063
 11
33575.279359228654
 21
16868.720912919627
  0
LINE
  8
_0-0_
  6
CONTINUOUS
 62
    7
 10
33575.279359228654
 20
16868.720912919627
 11
33576.732333893
 21
16867.907005869387
  0
LINE
  8
_0-0_
  6
CONTINUOUS
 62
    7
 10
33576.732333893
 20
16867.907005869387
 11
33578.339901452455
 21
16867.307309018204
  0
LINE
  8
_0-0_
  6
CONTINUOUS
 62
    7
 10
33578.339901452455
 20
16867.307309018204
 11
33580.053216780201
 21
16866.940043851446
  0
LINE
  8
_0-0_
  6
CONTINUOUS
 62
    7
 10
33580.053216780201
 20
16866.940043851446
 11
33581.820221656977
 21
16866.816369535354
  0
LINE
  8
_0-0_
  6
CONTINUOUS
 62
    7
 10
33581.820221656977
 20
16866.816369535354
 11
33583.587226533753
 21
16866.940043851446
  0
LINE
  8
_0-0_
  6
CONTINUOUS
 62
    7
 10
33583.587226533753
 20
16866.940043851446
 11
33585.300541861499
 21
16867.307309018204
  0
LINE
  8
_0-0_
  6
CONTINUOUS
 62
    7
 10
33585.300541861499
 20
16867.307309018204
 11
33586.908109420954
 21
16867.907005869387
  0
LINE
  8
_0-0_
  6
CONTINUOUS
 62
    7
 10
33586.908109420954
 20
16867.907005869387
 11
33588.3610840853
 21
16868.720912919627
  0
LINE
  8
_0-0_
  6
CONTINUOUS
 62
    7
 10
33588.3610840853
 20
16868.720912919627
 11
33589.615317954595
 21
16869.724300015063
  0
LINE
  8
_0-0_
  6
CONTINUOUS
 62
    7
 10
33589.615317954595
 20
16869.724300015063
 11
33590.63270176739
 21
16870.886679746538
  0
LINE
  8
_0-0_
  6
CONTINUOUS
 62
    7
 10
33590.63270176739
 20
16870.886679746538
 11
33591.38232283137
 21
16872.172733794101
  0
LINE
  8
_0-0_
  6
CONTINUOUS
 62
    7
 10
33591.38232283137
 20
16872.172733794101
 11
33591.841404289815
 21
16873.543386056295
  0
LINE
  8
_0-0_
  6
CONTINUOUS
 62
    7
 10
33591.841404289815
 20
16873.543386056295
 11
33591.995997184931
 21
16874.956989957718
  0
LINE
  8
_0-0_
  6
CONTINUOUS
 62
    7
 10
33591.995997184931
 20
16874.956989957718
 11
33591.995997184931
 21
16874.956989957718
  0
LINE
  8
_0-0_
  6
CONTINUOUS
 62
    7
 10
33596.330923357636
 20
16886.455569704267
 11
33596.330923357636
 21
16886.455569704267
  0
LINE
  8
_0-0_
  6
CONTINUOUS
 62
    7
 10
33596.330923357636
 20
16886.455569704267
 11
33593.614588920005
 21
16888.296685966339
  0
LINE
  8
_0-0_
  6
CONTINUOUS
 62
    7
 10
33593.614588920005
 20
16888.296685966339
 11
33590.539888601321
 21
16889.732482315401
  0
LINE
  8
_0-0_
  6
CONTINUOUS
 62
    7
 10
33590.539888601321
 20
16889.732482315401
 11
33587.200245614898
 21
16890.719332805937
  0
LINE
  8
_0-0_
  6
CONTINUOUS
 62
    7
 10
33587.200245614898
 20
16890.719332805937
 11
33583.69713332293
 21
16891.227252485158
  0
LINE
  8
_0-0_
  6
CONTINUOUS
 62
    7
 10
33583.69713332293
 20
16891.227252485158
 11
33580.136992019761
 21
16891.240808470633
  0
LINE
  8
_0-0_
  6
CONTINUOUS
 62
    7
 10
33580.136992019761
 20
16891.240808470633
 11
33576.627994797367
 21
16890.759588870602
  0
LINE
  8
_0-0_
  6
CONTINUOUS
 62
    7
 10
33576.627994797367
 20
16890.759588870602
 11
33573.276760760702
 21
16889.798215299106
  0
LINE
  8
_0-0_
  6
CONTINUOUS
 62
    7
 10
33573.276760760702
 20
16889.798215299106
 11
33570.185115460175
 21
16888.385898605633
  0
LINE
  8
_0-0_
  6
CONTINUOUS
 62
    7
 10
33570.185115460175
 20
16888.385898605633
 11
33567.446996973791
 21
16886.565551318246
  0
LINE
  8
_0-0_
  6
CONTINUOUS
 62
    7
 10
33567.446996973791
 20
16886.565551318246
 11
33565.145601646203
 21
16884.392483768141
  0
LINE
  8
_0-0_
  6
CONTINUOUS
 62
    7
 10
33565.145601646203
 20
16884.392483768141
 11
33563.350856209872
 21
16881.932723513193
  0
LINE
  8
_0-0_
  6
CONTINUOUS
 62
    7
 10
33563.350856209872
 20
16881.932723513193
 11
33562.117293096708
 21
16879.261009124053
  0
LINE
  8
_0-0_
  6
CONTINUOUS
 62
    7
 10
33562.117293096708
 20
16879.261009124053
 11
33561.482393497681
 21
16876.458519290481
  0
LINE
  8
_0-0_
  6
CONTINUOUS
 62
    7
 10
33561.482393497681
 20
16876.458519290481
 11
33561.395970100581
 21
16874.956989957718
  0
LINE
  8
_0-0_
  6
CONTINUOUS
 62
    7
 10
33561.362455450399
 20
16675.113332582383
 11
33561.362455450399
 21
16675.113332582383
  0
LINE
  8
_0-0_
  6
CONTINUOUS
 62
    7
 10
33561.362455450399
 20
16675.113332582383
 11
33542.172269556133
 21
16696.278463234987
  0
LINE
  8
_0-0_
  6
CONTINUOUS
 62
    7
 10
33542.172269556133
 20
16696.278463234987
 11
33518.679517745826
 21
16714.456175347485
  0
LINE
  8
_0-0_
  6
CONTINUOUS
 62
    7
 10
33518.679517745826
 20
16714.456175347485
 11
33508.05863207033
 21
16720.861707634151
  0
LINE
  8
_0-0_
  6
CONTINUOUS
 62
    7
 10
33584.40417698399
 20
16627.467173063771
 11
33584.40417698399
 21
16627.467173063771
  0
LINE
  8
_0-0_
  6
CONTINUOUS
 62
    7
 10
33584.40417698399
 20
16627.467173063771
 11
33575.206021531703
 21
16652.557078303493
  0
LINE
  8
_0-0_
  6
CONTINUOUS
 62
    7
 10
33575.206021531703
 20
16652.557078303493
 11
33568.923546439568
 21
16663.989503822715
  0
LINE
  8
_0-0_
  6
CONTINUOUS
 62
    7
 10
33687.818547740018
 20
16695.166832943902
 11
33687.818547740018
 21
16695.166832943902
  0
LINE
  8
_0-0_
  6
CONTINUOUS
 62
    7
 10
33687.818547740018
 20
16695.166832943902
 11
33698.976616141299
 21
16687.653387459304
  0
CIRCLE
  8
_0-0_
  6
CONTINUOUS
 62
    3
 10
6855.1081855241646
 20
13162.565876676468
 40
25
  0
LINE
  8
_0-0_
  6
CONTINUOUS
 62
    3
 10
8809.187069081614
 20
13827.546630345309
 11
8809.187069081614
 21
13827.546630345309
  0
LINE
  8
_0-0_
  6
CONTINUOUS
 62
    3
 10
8809.187069081614
 20
13827.546630345309
 11
8785.0417070626081
 21
13819.033993243916
  0
LINE
  8
_0-0_
  6
CONTINUOUS
 62
    3
 10
8785.0417070626081
 20
13819.033993243916
 11
8762.9075145861007
 21
13807.344979201951
  0
LINE
  8
_0-0_
  6
CONTINUOUS
 62
    3
 10
8762.9075145861007
 20
13807.344979201951
 11
8743.4570278900501
 21
13792.83475299615
  0
LINE
  8
_0-0_
  6
CONTINUOUS
 62
    3
 10
8743.4570278900501
 20
13792.83475299615
 11
8727.2812401702922
 21
13775.944200507247
  0
LINE
  8
_0-0_
  6
CONTINUOUS
 62
    3
 10
8727.2812401702922
 20
13775.944200507247
 11
8714.8716445513492
 21
13757.186532625587
  0
LINE
  8
_0-0_
  6
CONTINUOUS
 62
    3
 10
8714.8716445513492
 20
13757.186532625587
 11
8706.6053003165434
 21
13737.131691597915
  0
LINE
  8
_0-0_
  6
CONTINUOUS
 62
    3
 10
8706.6053003165434
 20
13737.131691597915
 11
8702.7333761524806
 21
13716.389033620619
  0
LINE
  8
_0-0_
  6
CONTINUOUS
 62
    3
 10
8702.7333761524806
 20
13716.389033620619
 11
8703.3735185155929
 21
13695.588813860046
  0
LINE
  8
_0-0_
  6
CONTINUOUS
 62
    3
 10
8703.3735185155929
 20
13695.588813860046
 11
8705.2633838132733
 21
13685.849182897849
  0
ARC
  8
_0-0_
  6
CONTINUOUS
 62
    3
 10
6855.1081855241646
 20
13162.565876676468
 40
100
 50
106.05224609375001
 51
278.56935119628906
  0
LINE
  8
_0-0_
  6
CONTINUOUS
 62
    3
 10
22251.409303151228
 20
19789.466234665382
 11
22251.409303151228
 21
19789.466234665382
  0
LINE
  8
_0-0_
  6
CONTINUOUS
 62
    3
 10
22251.409303151228
 20
19789.466234665382
 11
22245.853684449521
 21
19815.073019797997
  0
LINE
  8
_0-0_
  6
CONTINUOUS
 62
    3
 10
22245.853684449521
 20
19815.073019797997
 11
22234.800986598748
 21
19839.306247336848
  0
LINE
  8
_0-0_
  6
CONTINUOUS
 62
    3
 10
22234.800986598748
 20
19839.306247336848
 11
22218.587040230166
 21
19861.429602925771
  0
LINE
  8
_0-0_
  6
CONTINUOUS
 62
    3
 10
22218.587040230166
 20
19861.429602925771
 11
22197.704497899533
 21
19880.770879600157
  0
LINE
  8
_0-0_
  6
CONTINUOUS
 62
    3
 10
22197.704497899533
 20
19880.770879600157
 11
22172.787865088485
 21
19896.742402455409
  0
LINE
  8
_0-0_
  6
CONTINUOUS
 62
    3
 10
22172.787865088485
 20
19896.742402455409
 11
22144.594221076568
 21
19908.858884851554
  0
LINE
  8
_0-0_
  6
CONTINUOUS
 62
    3
 10
22144.594221076568
 20
19908.858884851554
 11
22113.980215470408
 21
19916.752173602217
  0
LINE
  8
_0-0_
  6
CONTINUOUS
 62
    3
 10
22113.980215470408
 20
19916.752173602217
 11
22081.876039338917
 21
19920.182435122908
  0
LINE
  8
_0-0_
  6
CONTINUOUS
 62
    3
 10
22081.876039338917
 20
19920.182435122908
 11
22049.257161828347
 21
19919.045442653118
  0
LINE
  8
_0-0_
  6
CONTINUOUS
 62
    3
 10
22049.257161828347
 20
19919.045442653118
 11
22017.114691025912
 21
19913.375743133696
  0
LINE
  8
_0-0_
  6
CONTINUOUS
 62
    3
 10
22017.114691025912
 20
19913.375743133696
 11
21986.42525964207
 21
19903.34560751553
  0
LINE
  8
_0-0_
  6
CONTINUOUS
 62
    3
 10
21986.42525964207
 20
19903.34560751553
 11
21958.121350519817
 21
19889.25979639389
  0
LINE
  8
_0-0_
  6
CONTINUOUS
 62
    3
 10
21958.121350519817
 20
19889.25979639389
 11
21933.062963615364
 21
19871.546300011938
  0
LINE
  8
_0-0_
  6
CONTINUOUS
 62
    3
 10
21933.062963615364
 20
19871.546300011938
 11
21912.011485334646
 21
19850.743333993778
  0
LINE
  8
_0-0_
  6
CONTINUOUS
 62
    3
 10
21912.011485334646
 20
19850.743333993778
 11
21895.606554192658
 21
19827.482985935065
  0
LINE
  8
_0-0_
  6
CONTINUOUS
 62
    3
 10
21895.606554192658
 20
19827.482985935065
 11
21884.34662572086
 21
19802.472009741257
  0
LINE
  8
_0-0_
  6
CONTINUOUS
 62
    3
 10
21884.34662572086
 20
19802.472009741257
 11
21878.573827148062
 21
19776.470351267842
  0
LINE
  8
_0-0_
  6
CONTINUOUS
 62
    3
 10
21878.573827148062
 20
19776.470351267842
 11
21878.463562037727
 21
19750.268057750054
  0
LINE
  8
_0-0_
  6
CONTINUOUS
 62
    3
 10
21878.463562037727
 20
19750.268057750054
 11
21884.019180739433
 21
19724.661272617439
  0
LINE
  8
_0-0_
  6
CONTINUOUS
 62
    3
 10
21884.019180739433
 20
19724.661272617439
 11
21895.071878590206
 21
19700.428045078588
  0
LINE
  8
_0-0_
  6
CONTINUOUS
 62
    3
 10
21895.071878590206
 20
19700.428045078588
 11
21911.285824958788
 21
19678.304689489665
  0
LINE
  8
_0-0_
  6
CONTINUOUS
 62
    3
 10
21911.285824958788
 20
19678.304689489665
 11
21932.168367289421
 21
19658.963412815279
  0
LINE
  8
_0-0_
  6
CONTINUOUS
 62
    3
 10
21932.168367289421
 20
19658.963412815279
 11
21957.085000100466
 21
19642.991889960027
  0
LINE
  8
_0-0_
  6
CONTINUOUS
 62
    3
 10
21957.085000100466
 20
19642.991889960027
 11
21985.278644112386
 21
19630.875407563883
  0
LINE
  8
_0-0_
  6
CONTINUOUS
 62
    3
 10
21985.278644112386
 20
19630.875407563883
 11
22015.892649718546
 21
19622.982118813219
  0
LINE
  8
_0-0_
  6
CONTINUOUS
 62
    3
 10
22015.892649718546
 20
19622.982118813219
 11
22047.996825850038
 21
19619.551857292528
  0
LINE
  8
_0-0_
  6
CONTINUOUS
 62
    3
 10
22047.996825850038
 20
19619.551857292528
 11
22080.615703360607
 21
19620.688849762319
  0
LINE
  8
_0-0_
  6
CONTINUOUS
 62
    3
 10
22080.615703360607
 20
19620.688849762319
 11
22112.758174163042
 21
19626.35854928174
  0
LINE
  8
_0-0_
  6
CONTINUOUS
 62
    3
 10
22112.758174163042
 20
19626.35854928174
 11
22143.447605546884
 21
19636.388684899903
  0
LINE
  8
_0-0_
  6
CONTINUOUS
 62
    3
 10
22143.447605546884
 20
19636.388684899903
 11
22171.751514669137
 21
19650.474496021547
  0
LINE
  8
_0-0_
  6
CONTINUOUS
 62
    3
 10
22171.751514669137
 20
19650.474496021547
 11
22196.80990157359
 21
19668.187992403498
  0
LINE
  8
_0-0_
  6
CONTINUOUS
 62
    3
 10
22196.80990157359
 20
19668.187992403498
 11
22217.861379854308
 21
19688.990958421658
  0
LINE
  8
_0-0_
  6
CONTINUOUS
 62
    3
 10
22217.861379854308
 20
19688.990958421658
 11
22234.266310996296
 21
19712.251306480372
  0
LINE
  8
_0-0_
  6
CONTINUOUS
 62
    3
 10
22234.266310996296
 20
19712.251306480372
 11
22245.526239468094
 21
19737.262282674179
  0
LINE
  8
_0-0_
  6
CONTINUOUS
 62
    3
 10
22245.526239468094
 20
19737.262282674179
 11
22251.299038040892
 21
19763.263941147594
  0
LINE
  8
_0-0_
  6
CONTINUOUS
 62
    3
 10
22251.299038040892
 20
19763.263941147594
 11
22251.409303151228
 21
19789.466234665379
  0
LINE
  8
_0-0_
  6
CONTINUOUS
 62
    3
 10
22251.409303151228
 20
19789.466234665379
 11
22251.409303151228
 21
19789.466234665382
  0
LINE
  8
_0-0_
  6
CONTINUOUS
 62
    3
 10
22238.977764283925
 20
19788.159627279558
 11
22238.977764283925
 21
19788.159627279558
  0
LINE
  8
_0-0_
  6
CONTINUOUS
 62
    3
 10
22238.977764283925
 20
19788.159627279558
 11
22233.792520584309
 21
19812.059291458372
  0
LINE
  8
_0-0_
  6
CONTINUOUS
 62
    3
 10
22233.792520584309
 20
19812.059291458372
 11
22223.476670096425
 21
19834.676968654003
  0
LINE
  8
_0-0_
  6
CONTINUOUS
 62
    3
 10
22223.476670096425
 20
19834.676968654003
 11
22208.343654717275
 21
19855.325432189955
  0
LINE
  8
_0-0_
  6
CONTINUOUS
 62
    3
 10
22208.343654717275
 20
19855.325432189955
 11
22188.853283461482
 21
19873.377288950316
  0
LINE
  8
_0-0_
  6
CONTINUOUS
 62
    3
 10
22188.853283461482
 20
19873.377288950316
 11
22165.597761397046
 21
19888.284042402105
  0
LINE
  8
_0-0_
  6
CONTINUOUS
 62
    3
 10
22165.597761397046
 20
19888.284042402105
 11
22139.283695794034
 21
19899.592758384868
  0
LINE
  8
_0-0_
  6
CONTINUOUS
 62
    3
 10
22139.283695794034
 20
19899.592758384868
 11
22110.710626220232
 21
19906.959827285951
  0
LINE
  8
_0-0_
  6
CONTINUOUS
 62
    3
 10
22110.710626220232
 20
19906.959827285951
 11
22080.746730935974
 21
19910.16140444472
  0
LINE
  8
_0-0_
  6
CONTINUOUS
 62
    3
 10
22080.746730935974
 20
19910.16140444472
 11
22050.302447737005
 21
19909.100211559278
  0
LINE
  8
_0-0_
  6
CONTINUOUS
 62
    3
 10
22050.302447737005
 20
19909.100211559278
 11
22020.302810762776
 21
19903.808492438457
  0
LINE
  8
_0-0_
  6
CONTINUOUS
 62
    3
 10
22020.302810762776
 20
19903.808492438457
 11
21991.659343802203
 21
19894.447033290005
  0
LINE
  8
_0-0_
  6
CONTINUOUS
 62
    3
 10
21991.659343802203
 20
19894.447033290005
 11
21965.242364104586
 21
19881.300277313028
  0
LINE
  8
_0-0_
  6
CONTINUOUS
 62
    3
 10
21965.242364104586
 20
19881.300277313028
 11
21941.8545382304
 21
19864.767682035297
  0
LINE
  8
_0-0_
  6
CONTINUOUS
 62
    3
 10
21941.8545382304
 20
19864.767682035297
 11
21922.206493434027
 21
19845.351581998435
  0
LINE
  8
_0-0_
  6
CONTINUOUS
 62
    3
 10
21922.206493434027
 20
19845.351581998435
 11
21906.895225614207
 21
19823.641925577038
  0
LINE
  8
_0-0_
  6
CONTINUOUS
 62
    3
 10
21906.895225614207
 20
19823.641925577038
 11
21896.385959895772
 21
19800.298349695859
  0
LINE
  8
_0-0_
  6
CONTINUOUS
 62
    3
 10
21896.385959895772
 20
19800.298349695859
 11
21890.998014999634
 21
19776.030137095622
  0
LINE
  8
_0-0_
  6
CONTINUOUS
 62
    3
 10
21890.998014999634
 20
19776.030137095622
 11
21890.895100905029
 21
19751.574665135879
  0
LINE
  8
_0-0_
  6
CONTINUOUS
 62
    3
 10
21890.895100905029
 20
19751.574665135879
 11
21896.080344604645
 21
19727.675000957064
  0
LINE
  8
_0-0_
  6
CONTINUOUS
 62
    3
 10
21896.080344604645
 20
19727.675000957064
 11
21906.39619509253
 21
19705.057323761434
  0
LINE
  8
_0-0_
  6
CONTINUOUS
 62
    3
 10
21906.39619509253
 20
19705.057323761434
 11
21921.529210471675
 21
19684.408860225481
  0
LINE
  8
_0-0_
  6
CONTINUOUS
 62
    3
 10
21921.529210471675
 20
19684.408860225481
 11
21941.019581727473
 21
19666.35700346512
  0
LINE
  8
_0-0_
  6
CONTINUOUS
 62
    3
 10
21941.019581727473
 20
19666.35700346512
 11
21964.275103791908
 21
19651.450250013331
  0
LINE
  8
_0-0_
  6
CONTINUOUS
 62
    3
 10
21964.275103791908
 20
19651.450250013331
 11
21990.58916939492
 21
19640.141534030568
  0
LINE
  8
_0-0_
  6
CONTINUOUS
 62
    3
 10
21990.58916939492
 20
19640.141534030568
 11
22019.162238968722
 21
19632.774465129485
  0
LINE
  8
_0-0_
  6
CONTINUOUS
 62
    3
 10
22019.162238968722
 20
19632.774465129485
 11
22049.12613425298
 21
19629.572887970717
  0
LINE
  8
_0-0_
  6
CONTINUOUS
 62
    3
 10
22049.12613425298
 20
19629.572887970717
 11
22079.570417451949
 21
19630.634080856158
  0
LINE
  8
_0-0_
  6
CONTINUOUS
 62
    3
 10
22079.570417451949
 20
19630.634080856158
 11
22109.570054426174
 21
19635.92579997698
  0
LINE
  8
_0-0_
  6
CONTINUOUS
 62
    3
 10
22109.570054426174
 20
19635.92579997698
 11
22138.213521386751
 21
19645.287259125431
  0
LINE
  8
_0-0_
  6
CONTINUOUS
 62
    3
 10
22138.213521386751
 20
19645.287259125431
 11
22164.630501084368
 21
19658.434015102408
  0
LINE
  8
_0-0_
  6
CONTINUOUS
 62
    3
 10
22164.630501084368
 20
19658.434015102408
 11
22188.01832695855
 21
19674.966610380139
  0
LINE
  8
_0-0_
  6
CONTINUOUS
 62
    3
 10
22188.01832695855
 20
19674.966610380139
 11
22207.666371754927
 21
19694.382710417001
  0
LINE
  8
_0-0_
  6
CONTINUOUS
 62
    3
 10
22207.666371754927
 20
19694.382710417001
 11
22222.977639574747
 21
19716.092366838398
  0
LINE
  8
_0-0_
  6
CONTINUOUS
 62
    3
 10
22222.977639574747
 20
19716.092366838398
 11
22233.486905293183
 21
19739.435942719578
  0
LINE
  8
_0-0_
  6
CONTINUOUS
 62
    3
 10
22233.486905293183
 20
19739.435942719578
 11
22238.874850189321
 21
19763.704155319814
  0
LINE
  8
_0-0_
  6
CONTINUOUS
 62
    3
 10
22238.874850189321
 20
19763.704155319814
 11
22238.977764283925
 21
19788.159627279558
  0
LINE
  8
_0-0_
  6
CONTINUOUS
 62
    3
 10
22238.977764283925
 20
19788.159627279558
 11
22238.977764283925
 21
19788.159627279558
  0
LINE
  8
_0-0_
  6
CONTINUOUS
 62
    3
 10
22214.114716899719
 20
19785.546415697867
 11
22214.114716899719
 21
19785.546415697867
  0
LINE
  8
_0-0_
  6
CONTINUOUS
 62
    3
 10
22214.114716899719
 20
19785.546415697867
 11
22209.670222300047
 21
19806.03184213685
  0
LINE
  8
_0-0_
  6
CONTINUOUS
 62
    3
 10
22209.670222300047
 20
19806.03184213685
 11
22200.828064739006
 21
19825.41842259025
  0
LINE
  8
_0-0_
  6
CONTINUOUS
 62
    3
 10
22200.828064739006
 20
19825.41842259025
 11
22187.856908699734
 21
19843.117105621066
  0
LINE
  8
_0-0_
  6
CONTINUOUS
 62
    3
 10
22187.856908699734
 20
19843.117105621066
 11
22171.150876194766
 21
19858.590125701376
  0
LINE
  8
_0-0_
  6
CONTINUOUS
 62
    3
 10
22171.150876194766
 20
19858.590125701376
 11
22151.217571568108
 21
19871.367342945763
  0
LINE
  8
_0-0_
  6
CONTINUOUS
 62
    3
 10
22151.217571568108
 20
19871.367342945763
 11
22128.662658194098
 21
19881.060528073845
  0
LINE
  8
_0-0_
  6
CONTINUOUS
 62
    3
 10
22128.662658194098
 20
19881.060528073845
 11
22104.171455702268
 21
19887.375158560491
  0
LINE
  8
_0-0_
  6
CONTINUOUS
 62
    3
 10
22104.171455702268
 20
19887.375158560491
 11
22078.488116887191
 21
19890.119367553718
  0
LINE
  8
_0-0_
  6
CONTINUOUS
 62
    3
 10
22078.488116887191
 20
19890.119367553718
 11
22052.39301700236
 21
19889.20977365191
  0
LINE
  8
_0-0_
  6
CONTINUOUS
 62
    3
 10
22052.39301700236
 20
19889.20977365191
 11
22026.679042453019
 21
19884.674014405493
  0
LINE
  8
_0-0_
  6
CONTINUOUS
 62
    3
 10
22026.679042453019
 20
19884.674014405493
 11
22002.127499343958
 21
19876.649906563965
  0
LINE
  8
_0-0_
  6
CONTINUOUS
 62
    3
 10
22002.127499343958
 20
19876.649906563965
 11
21979.484373888856
 21
19865.381258583697
  0
LINE
  8
_0-0_
  6
CONTINUOUS
 62
    3
 10
21979.484373888856
 20
19865.381258583697
 11
21959.437665996698
 21
19851.210462631356
  0
LINE
  8
_0-0_
  6
CONTINUOUS
 62
    3
 10
21959.437665996698
 20
19851.210462631356
 11
21942.596484742662
 21
19834.56809117119
  0
LINE
  8
_0-0_
  6
CONTINUOUS
 62
    3
 10
21942.596484742662
 20
19834.56809117119
 11
21929.472540897103
 21
19815.959814238566
  0
LINE
  8
_0-0_
  6
CONTINUOUS
 62
    3
 10
21929.472540897103
 20
19815.959814238566
 11
21920.46459885273
 21
19795.951034911839
  0
LINE
  8
_0-0_
  6
CONTINUOUS
 62
    3
 10
21920.46459885273
 20
19795.951034911839
 11
21915.846360370328
 21
19775.149709825921
  0
LINE
  8
_0-0_
  6
CONTINUOUS
 62
    3
 10
21915.846360370328
 20
19775.149709825921
 11
21915.758148289235
 21
19754.187876717569
  0
LINE
  8
_0-0_
  6
CONTINUOUS
 62
    3
 10
21915.758148289235
 20
19754.187876717569
 11
21920.202642888908
 21
19733.702450278586
  0
LINE
  8
_0-0_
  6
CONTINUOUS
 62
    3
 10
21920.202642888908
 20
19733.702450278586
 11
21929.044800449949
 21
19714.315869825186
  0
LINE
  8
_0-0_
  6
CONTINUOUS
 62
    3
 10
21929.044800449949
 20
19714.315869825186
 11
21942.01595648922
 21
19696.61718679437
  0
LINE
  8
_0-0_
  6
CONTINUOUS
 62
    3
 10
21942.01595648922
 20
19696.61718679437
 11
21958.721988994188
 21
19681.144166714061
  0
LINE
  8
_0-0_
  6
CONTINUOUS
 62
    3
 10
21958.721988994188
 20
19681.144166714061
 11
21978.655293620846
 21
19668.366949469673
  0
LINE
  8
_0-0_
  6
CONTINUOUS
 62
    3
 10
21978.655293620846
 20
19668.366949469673
 11
22001.210206994856
 21
19658.673764341591
  0
LINE
  8
_0-0_
  6
CONTINUOUS
 62
    3
 10
22001.210206994856
 20
19658.673764341591
 11
22025.701409486686
 21
19652.359133854945
  0
LINE
  8
_0-0_
  6
CONTINUOUS
 62
    3
 10
22025.701409486686
 20
19652.359133854945
 11
22051.384748301763
 21
19649.614924861718
  0
LINE
  8
_0-0_
  6
CONTINUOUS
 62
    3
 10
22051.384748301763
 20
19649.614924861718
 11
22077.479848186595
 21
19650.524518763526
  0
LINE
  8
_0-0_
  6
CONTINUOUS
 62
    3
 10
22077.479848186595
 20
19650.524518763526
 11
22103.193822735935
 21
19655.060278009943
  0
LINE
  8
_0-0_
  6
CONTINUOUS
 62
    3
 10
22103.193822735935
 20
19655.060278009943
 11
22127.745365844996
 21
19663.084385851471
  0
LINE
  8
_0-0_
  6
CONTINUOUS
 62
    3
 10
22127.745365844996
 20
19663.084385851471
 11
22150.388491300098
 21
19674.35303383174
  0
LINE
  8
_0-0_
  6
CONTINUOUS
 62
    3
 10
22150.388491300098
 20
19674.35303383174
 11
22170.435199192256
 21
19688.523829784081
  0
LINE
  8
_0-0_
  6
CONTINUOUS
 62
    3
 10
22170.435199192256
 20
19688.523829784081
 11
22187.276380446292
 21
19705.166201244247
  0
LINE
  8
_0-0_
  6
CONTINUOUS
 62
    3
 10
22187.276380446292
 20
19705.166201244247
 11
22200.400324291852
 21
19723.774478176871
  0
LINE
  8
_0-0_
  6
CONTINUOUS
 62
    3
 10
22200.400324291852
 20
19723.774478176871
 11
22209.408266336224
 21
19743.783257503597
  0
LINE
  8
_0-0_
  6
CONTINUOUS
 62
    3
 10
22209.408266336224
 20
19743.783257503597
 11
22214.026504818627
 21
19764.584582589516
  0
LINE
  8
_0-0_
  6
CONTINUOUS
 62
    3
 10
22214.026504818627
 20
19764.584582589516
 11
22214.114716899719
 21
19785.546415697867
  0
LINE
  8
_0-0_
  6
CONTINUOUS
 62
    3
 10
22214.114716899719
 20
19785.546415697867
 11
22214.114716899719
 21
19785.546415697867
  0
CIRCLE
  8
_0-0_
  6
CONTINUOUS
 62
    7
 10
9467.8011176530708
 20
13162.881794645216
 40
25
  0
ARC
  8
_0-0_
  6
CONTINUOUS
 62
    7
 10
9467.8011176530708
 20
13162.881794645216
 40
50
 50
0
 51
180
  0
CIRCLE
  8
_0-0_
  6
CONTINUOUS
 62
    3
 10
9467.4357001726021
 20
13164.660603238968
 40
25
  0
ARC
  8
_0-0_
  6
CONTINUOUS
 62
    7
 10
9466.1078803483833
 20
13162.565876676468
 40
75.000007629394531
 50
33.94868469238282
 51
35.943572998046882
  0
ARC
  8
_0-0_
  6
CONTINUOUS
 62
    7
 10
9466.1078803483833
 20
13162.565876676468
 40
75.000007629394531
 50
206.36068725585937
 51
229.90011596679687
  0
ARC
  8
_0-0_
  6
CONTINUOUS
 62
    7
 10
9466.1078803483833
 20
13162.565876676468
 40
75.000007629394531
 50
313.57365417480469
 51
31.723510742187507
  0
ARC
  8
_0-0_
  6
CONTINUOUS
 62
    7
 10
6996.554596656978
 20
13160.787068082715
 40
25
 50
74.449493408203125
 51
290.00878906250006
  0
ARC
  8
_0-0_
  6
CONTINUOUS
 62
    7
 10
6996.554596656978
 20
13160.787068082715
 40
50
 50
0
 51
43.74604797363282
  0
ARC
  8
_0-0_
  6
CONTINUOUS
 62
    7
 10
6996.554596656978
 20
13160.787068082715
 40
50
 50
80.149368286132827
 51
180
  0
ARC
  8
_0-0_
  6
CONTINUOUS
 62
    7
 10
5410.1620185319771
 20
13529.105915738966
 40
290
 50
80.071792602539063
 51
191.33499145507812
  0
ARC
  8
_0-0_
  6
CONTINUOUS
 62
    7
 10
4660.1622626726021
 20
13434.107380582716
 40
110.00000000000001
 50
74.173294067382812
 51
175.29690551757813
  0
ARC
  8
_0-0_
  6
CONTINUOUS
 62
    7
 10
4660.1622626726021
 20
13434.107380582716
 40
110.00000000000001
 50
3.1467590332031254
 51
57.1282958984375
  0
ARC
  8
_0-0_
  6
CONTINUOUS
 62
    7
 10
4660.1622626726021
 20
13434.107380582716
 40
150.00001525878906
 50
3.2360687255859375
 51
66.519790649414063
  0
ARC
  8
_0-0_
  6
CONTINUOUS
 62
    7
 10
4660.1622626726021
 20
13434.107380582716
 40
200
 50
287.50399780273437
 51
11.974166870117196
  0
ARC
  8
_0-0_
  6
CONTINUOUS
 62
    7
 10
6666.1079413835396
 20
12550.670368863968
 40
50
 50
233.28567504882815
 51
306.71432495117187
  0
CIRCLE
  8
_0-0_
  6
CONTINUOUS
 62
    7
 10
6665.4873359147896
 20
12529.676228238966
 40
20
  0
ARC
  8
_0-0_
  6
CONTINUOUS
 62
    7
 10
6665.4643866960387
 20
12531.176228238966
 40
30
 50
87.546432495117188
 51
271.22906494140625
  0
CIRCLE
  8
_0-0_
  6
CONTINUOUS
 62
    7
 10
5879.2142646257271
 20
18480.880818082715
 40
150.00001525878906
  0
CIRCLE
  8
_0-0_
  6
CONTINUOUS
 62
    7
 10
5879.2142646257271
 20
18480.880818082715
 40
140
  0
CIRCLE
  8
_0-0_
  6
CONTINUOUS
 62
    7
 10
5879.2142646257271
 20
18480.880818082715
 40
120
  0
CIRCLE
  8
_0-0_
  6
CONTINUOUS
 62
    3
 10
33494.984284156977
 20
20473.464802457718
 40
250
  0
CIRCLE
  8
_0-0_
  6
CONTINUOUS
 62
    3
 10
33494.984284156977
 20
20473.464802457718
 40
225.38505554199219
  0
CIRCLE
  8
_0-0_
  6
CONTINUOUS
 62
    3
 10
33494.984284156977
 20
20473.464802457718
 40
86.431221008300781
  0
CIRCLE
  8
_0-0_
  6
CONTINUOUS
 62
    7
 10
20471.650299781977
 20
9188.0961501139664
 40
422.49999999999994
  0
CIRCLE
  8
_0-0_
  6
CONTINUOUS
 62
    3
 10
21302.501862281977
 20
9743.1759840983414
 40
21.000001907348633
  0
CIRCLE
  8
_0-0_
  6
CONTINUOUS
 62
    3
 10
21401.496002906977
 20
9842.1718337077164
 40
21.000001907348633
  0
CIRCLE
  8
_0-0_
  6
CONTINUOUS
 62
    3
 10
21026.731354469477
 20
10018.947712613966
 40
21.000001907348633
  0
CIRCLE
  8
_0-0_
  6
CONTINUOUS
 62
    3
 10
21125.725495094477
 20
10117.941120817091
 40
21.000001907348633
  0
ARC
  8
_0-0_
  6
CONTINUOUS
 62
    7
 10
20471.650299781977
 20
9188.0961501139664
 40
355.60003662109375
 50
140.67796325683594
 51
219.32203674316409
  0
ARC
  8
_0-0_
  6
CONTINUOUS
 62
    7
 10
20471.650299781977
 20
9188.0961501139664
 40
355.60003662109375
 50
230.67796325683594
 51
309.32203674316406
  0
ARC
  8
_0-0_
  6
CONTINUOUS
 62
    7
 10
20471.650299781977
 20
9188.0961501139664
 40
355.60003662109375
 50
320.67796325683594
 51
39.322036743164048
  0
ARC
  8
_0-0_
  6
CONTINUOUS
 62
    7
 10
20471.650299781977
 20
9188.0961501139664
 40
355.60003662109375
 50
50.677963256835938
 51
129.32203674316409
  0
CIRCLE
  8
_0-0_
  6
CONTINUOUS
 62
    3
 10
19916.569245094477
 20
8357.2420241374039
 40
21.000001907348633
  0
CIRCLE
  8
_0-0_
  6
CONTINUOUS
 62
    3
 10
19817.574127906977
 20
8258.2460524577164
 40
21.000001907348633
  0
CIRCLE
  8
_0-0_
  6
CONTINUOUS
 62
    3
 10
19640.798737281977
 20
8633.0111891764682
 40
21.000001907348633
  0
CIRCLE
  8
_0-0_
  6
CONTINUOUS
 62
    3
 10
19541.804596656977
 20
8534.0165602702164
 40
21.000001907348633
  0
CIRCLE
  8
_0-0_
  6
CONTINUOUS
 62
    3
 10
19916.569245094477
 20
10018.947712613966
 40
21.000001907348633
  0
CIRCLE
  8
_0-0_
  6
CONTINUOUS
 62
    3
 10
19817.574127906977
 20
10117.942341520216
 40
21.000001907348633
  0
CIRCLE
  8
_0-0_
  6
CONTINUOUS
 62
    3
 10
19640.798737281977
 20
9743.1772048014664
 40
21.000001907348633
  0
CIRCLE
  8
_0-0_
  6
CONTINUOUS
 62
    3
 10
19541.804596656977
 20
9842.1718337077164
 40
21.000001907348633
  0
CIRCLE
  8
_0-0_
  6
CONTINUOUS
 62
    3
 10
21026.731354469477
 20
8357.2444655436539
 40
21.000001907348633
  0
CIRCLE
  8
_0-0_
  6
CONTINUOUS
 62
    3
 10
21125.725495094477
 20
8258.2498366374039
 40
21.000001907348633
  0
CIRCLE
  8
_0-0_
  6
CONTINUOUS
 62
    3
 10
21302.501862281977
 20
8633.0148512858414
 40
21.000001907348633
  0
CIRCLE
  8
_0-0_
  6
CONTINUOUS
 62
    3
 10
21401.494049781977
 20
8534.0203444499039
 40
21.000001907348633
  0
POINT
  8
_0-0_
 62
    3
 10
8358.4019477311958
 20
2860.1076247233423
  0
POINT
  8
_0-0_
 62
    7
 10
33666.099518531977
 20
2860.1076247233423
  0
POINT
  8
_0-0_
 62
    7
 10
33654.322174781977
 20
16346.752888395218
  0
POINT
  8
_0-0_
 62
    4
 10
20168.368073219477
 20
7907.4715163249039
  0
POINT
  8
_0-0_
 62
    4
 10
20267.363190406977
 20
8006.4699294108423
  0
POINT
  8
_0-0_
 62
    4
 10
21653.255768531977
 20
9392.4335524577182
  0
POINT
  8
_0-0_
 62
    4
 10
21752.250885719477
 20
9491.4333083170914
  0
POINT
  8
_0-0_
 62
    4
 10
21589.330963844477
 20
7794.6681715983414
  0
POINT
  8
_0-0_
 62
    4
 10
21865.093659156977
 20
8070.4461256999039
  0
POINT
  8
_0-0_
 62
    4
 10
21632.907135719477
 20
8963.4257399577164
  0
POINT
  8
_0-0_
 62
    4
 10
21731.904206031977
 20
8864.4286696452164
  0
POINT
  8
_0-0_
 62
    4
 10
16877.171784156977
 20
5512.1178786295914
  0
TEXT
  8
_0-0_
 62
    7
 10
13640.812409156975
 20
3423.6784255045918
 40
150
 41
1
 50
-0.0000474177126603
  1
ＶＣＴー４０Ｓ（２５ｍ×１．４ｔ）
  0
TEXT
  8
_0-0_
 62
    4
 10
20133.896393531977
 20
7908.3546950358423
 40
125
 41
1
 50
45.001318816694443
  1
140
  0
TEXT
  8
_0-0_
 62
    4
 10
20832.150299781977
 20
8606.6410719889664
 40
125
 41
1
 50
45.001550935833343
  1
1,960
  0
TEXT
  8
_0-0_
 62
    4
 10
21618.786041969477
 20
9393.3180739420914
 40
125
 41
1
 50
45.001318816661545
  1
140
  0
TEXT
  8
_0-0_
 62
    4
 10
21643.245026344477
 20
7883.9417311686548
 40
125
 41
1
 50
45.001318816663726
  1
390
  0
TEXT
  8
_0-0_
 62
    4
 10
21633.791901344477
 20
8997.8954665202164
 40
125
 41
1
 50
-45.000105506011309
  1
140
  0
TEXT
  8
_0-0_
 62
    7
 10
8584.9302756730904
 20
16254.412068082718
 40
150
 41
1
 50
-0.0000379341750964
  1
ＶＣＴー４０Ｓ（２５ｍ×１．４ｔ）
  0
ENDSEC
  0
EOF
